  0
SECTION
  2
HEADER
  9
$ACADVER
  1
AC1024
  9
$ACADMAINTVER
 70
     6
  9
$DWGCODEPAGE
  3
DOS932
  9
$LASTSAVEDBY
  1
HRC747U
  9
$INSBASE
 10
0.0
 20
0.0
 30
0.0
  9
$EXTMIN
 10
0.0
 20
0.0
 30
0.0
  9
$EXTMAX
 10
1680.0
 20
1188.0
 30
0.0
  9
$LIMMIN
 10
0.0
 20
0.0
  9
$LIMMAX
 10
420.0
 20
297.0
  9
$ORTHOMODE
 70
     0
  9
$REGENMODE
 70
     1
  9
$FILLMODE
 70
     1
  9
$QTEXTMODE
 70
     0
  9
$MIRRTEXT
 70
     1
  9
$LTSCALE
 40
10.0
  9
$ATTMODE
 70
     1
  9
$TEXTSIZE
 40
0.0
  9
$TRACEWID
 40
0.05
  9
$TEXTSTYLE
  7
STANDARD
  9
$CLAYER
  8
0
  9
$CELTYPE
  6
BYLAYER
  9
$CECOLOR
 62
   256
  9
$CELTSCALE
 40
1.0
  9
$DISPSILH
 70
     0
  9
$DIMSCALE
 40
1.0
  9
$DIMASZ
 40
0.18
  9
$DIMEXO
 40
0.0625
  9
$DIMDLI
 40
0.38
  9
$DIMRND
 40
0.0
  9
$DIMDLE
 40
0.0
  9
$DIMEXE
 40
0.18
  9
$DIMTP
 40
0.0
  9
$DIMTM
 40
0.0
  9
$DIMTXT
 40
0.18
  9
$DIMCEN
 40
0.09
  9
$DIMTSZ
 40
0.0
  9
$DIMTOL
 70
     0
  9
$DIMLIM
 70
     0
  9
$DIMTIH
 70
     1
  9
$DIMTOH
 70
     1
  9
$DIMSE1
 70
     0
  9
$DIMSE2
 70
     0
  9
$DIMTAD
 70
     0
  9
$DIMZIN
 70
     0
  9
$DIMBLK
  1

  9
$DIMASO
 70
     1
  9
$DIMSHO
 70
     1
  9
$DIMPOST
  1

  9
$DIMAPOST
  1

  9
$DIMALT
 70
     0
  9
$DIMALTD
 70
     2
  9
$DIMALTF
 40
25.4
  9
$DIMLFAC
 40
1.0
  9
$DIMTOFL
 70
     0
  9
$DIMTVP
 40
0.0
  9
$DIMTIX
 70
     0
  9
$DIMSOXD
 70
     0
  9
$DIMSAH
 70
     0
  9
$DIMBLK1
  1

  9
$DIMBLK2
  1

  9
$DIMSTYLE
  2
STANDARD
  9
$DIMCLRD
 70
     0
  9
$DIMCLRE
 70
     0
  9
$DIMCLRT
 70
     0
  9
$DIMTFAC
 40
1.0
  9
$DIMGAP
 40
0.09
  9
$DIMJUST
 70
     0
  9
$DIMSD1
 70
     0
  9
$DIMSD2
 70
     0
  9
$DIMTOLJ
 70
     1
  9
$DIMTZIN
 70
     0
  9
$DIMALTZ
 70
     0
  9
$DIMALTTZ
 70
     0
  9
$DIMUPT
 70
     0
  9
$DIMDEC
 70
     4
  9
$DIMTDEC
 70
     4
  9
$DIMALTU
 70
     2
  9
$DIMALTTD
 70
     2
  9
$DIMTXSTY
  7
STANDARD
  9
$DIMAUNIT
 70
     0
  9
$DIMADEC
 70
     0
  9
$DIMALTRND
 40
0.0
  9
$DIMAZIN
 70
     0
  9
$DIMDSEP
 70
    46
  9
$DIMATFIT
 70
     3
  9
$DIMFRAC
 70
     0
  9
$DIMLDRBLK
  1

  9
$DIMLUNIT
 70
     2
  9
$DIMLWD
 70
    -2
  9
$DIMLWE
 70
    -2
  9
$DIMTMOVE
 70
     2
  9
$DIMFXL
 40
1.0
  9
$DIMFXLON
 70
     0
  9
$DIMJOGANG
 40
0.785398163397
  9
$DIMTFILL
 70
     0
  9
$DIMTFILLCLR
 70
     0
  9
$DIMARCSYM
 70
     0
  9
$DIMLTYPE
  6

  9
$DIMLTEX1
  6

  9
$DIMLTEX2
  6

  9
$DIMTXTDIRECTION
 70
     0
  9
$LUNITS
 70
     2
  9
$LUPREC
 70
     8
  9
$SKETCHINC
 40
0.1
  9
$FILLETRAD
 40
0.0
  9
$AUNITS
 70
     0
  9
$AUPREC
 70
     0
  9
$MENU
  1
acad
  9
$ELEVATION
 40
0.0
  9
$PELEVATION
 40
0.0
  9
$THICKNESS
 40
0.0
  9
$LIMCHECK
 70
     0
  9
$CHAMFERA
 40
0.0
  9
$CHAMFERB
 40
0.0
  9
$CHAMFERC
 40
0.0
  9
$CHAMFERD
 40
0.0
  9
$SKPOLY
 70
     0
  9
$TDCREATE
 40
2455154.62412037
  9
$TDUCREATE
 40
2455154.24912037
  9
$TDUPDATE
 40
2460105.42439103
  9
$TDUUPDATE
 40
2460105.04939103
  9
$TDINDWG
 40
0.0040970949
  9
$TDUSRTIMER
 40
0.0040970949
  9
$USRTIMER
 70
     1
  9
$ANGBASE
 50
0.0
  9
$ANGDIR
 70
     0
  9
$PDMODE
 70
     0
  9
$PDSIZE
 40
0.0
  9
$PLINEWID
 40
0.0
  9
$SPLFRAME
 70
     0
  9
$SPLINETYPE
 70
     6
  9
$SPLINESEGS
 70
     8
  9
$HANDSEED
  5
1A12
  9
$SURFTAB1
 70
     6
  9
$SURFTAB2
 70
     6
  9
$SURFTYPE
 70
     6
  9
$SURFU
 70
     6
  9
$SURFV
 70
     6
  9
$UCSBASE
  2

  9
$UCSNAME
  2

  9
$UCSORG
 10
0.0
 20
0.0
 30
0.0
  9
$UCSXDIR
 10
1.0
 20
0.0
 30
0.0
  9
$UCSYDIR
 10
0.0
 20
1.0
 30
0.0
  9
$UCSORTHOREF
  2

  9
$UCSORTHOVIEW
 70
     0
  9
$UCSORGTOP
 10
0.0
 20
0.0
 30
0.0
  9
$UCSORGBOTTOM
 10
0.0
 20
0.0
 30
0.0
  9
$UCSORGLEFT
 10
0.0
 20
0.0
 30
0.0
  9
$UCSORGRIGHT
 10
0.0
 20
0.0
 30
0.0
  9
$UCSORGFRONT
 10
0.0
 20
0.0
 30
0.0
  9
$UCSORGBACK
 10
0.0
 20
0.0
 30
0.0
  9
$PUCSBASE
  2

  9
$PUCSNAME
  2

  9
$PUCSORG
 10
0.0
 20
0.0
 30
0.0
  9
$PUCSXDIR
 10
1.0
 20
0.0
 30
0.0
  9
$PUCSYDIR
 10
0.0
 20
1.0
 30
0.0
  9
$PUCSORTHOREF
  2

  9
$PUCSORTHOVIEW
 70
     0
  9
$PUCSORGTOP
 10
0.0
 20
0.0
 30
0.0
  9
$PUCSORGBOTTOM
 10
0.0
 20
0.0
 30
0.0
  9
$PUCSORGLEFT
 10
0.0
 20
0.0
 30
0.0
  9
$PUCSORGRIGHT
 10
0.0
 20
0.0
 30
0.0
  9
$PUCSORGFRONT
 10
0.0
 20
0.0
 30
0.0
  9
$PUCSORGBACK
 10
0.0
 20
0.0
 30
0.0
  9
$USERI1
 70
     0
  9
$USERI2
 70
     0
  9
$USERI3
 70
     0
  9
$USERI4
 70
     0
  9
$USERI5
 70
     0
  9
$USERR1
 40
0.0
  9
$USERR2
 40
0.0
  9
$USERR3
 40
0.0
  9
$USERR4
 40
0.0
  9
$USERR5
 40
0.0
  9
$WORLDVIEW
 70
     1
  9
$SHADEDGE
 70
     3
  9
$SHADEDIF
 70
    70
  9
$TILEMODE
 70
     1
  9
$MAXACTVP
 70
    16
  9
$PINSBASE
 10
0.0
 20
0.0
 30
0.0
  9
$PLIMCHECK
 70
     0
  9
$PEXTMIN
 10
1.000000000000E+20
 20
1.000000000000E+20
 30
1.000000000000E+20
  9
$PEXTMAX
 10
-1.000000000000E+20
 20
-1.000000000000E+20
 30
-1.000000000000E+20
  9
$PLIMMIN
 10
0.0
 20
0.0
  9
$PLIMMAX
 10
12.0
 20
9.0
  9
$UNITMODE
 70
     0
  9
$VISRETAIN
 70
     0
  9
$PLINEGEN
 70
     1
  9
$PSLTSCALE
 70
     0
  9
$TREEDEPTH
 70
  3020
  9
$CMLSTYLE
  2
STANDARD
  9
$CMLJUST
 70
     0
  9
$CMLSCALE
 40
1.0
  9
$PROXYGRAPHICS
 70
     0
  9
$MEASUREMENT
 70
     0
  9
$CELWEIGHT
370
    -1
  9
$ENDCAPS
280
     0
  9
$JOINSTYLE
280
     0
  9
$LWDISPLAY
290
     0
  9
$INSUNITS
 70
     0
  9
$HYPERLINKBASE
  1

  9
$STYLESHEET
  1

  9
$XEDIT
290
     1
  9
$CEPSNTYPE
380
     0
  9
$PSTYLEMODE
290
     1
  9
$FINGERPRINTGUID
  2
{f8f10254-f7f4-428e-8301-585654336388}
  9
$VERSIONGUID
  2
{FAEB1C32-E019-11D5-929B-00C0DF256EC4}
  9
$EXTNAMES
290
     1
  9
$PSVPSCALE
 40
0.0
  9
$OLESTARTUP
290
     0
  9
$SORTENTS
280
   127
  9
$INDEXCTL
280
     0
  9
$HIDETEXT
280
     1
  9
$XCLIPFRAME
280
     2
  9
$HALOGAP
280
     0
  9
$OBSCOLOR
 70
   257
  9
$OBSLTYPE
280
     0
  9
$INTERSECTIONDISPLAY
280
     0
  9
$INTERSECTIONCOLOR
 70
   257
  9
$DIMASSOC
280
     2
  9
$PROJECTNAME
  1

  9
$CAMERADISPLAY
290
     0
  9
$LENSLENGTH
 40
50.0
  9
$CAMERAHEIGHT
 40
0.0
  9
$STEPSPERSEC
 40
24.0
  9
$STEPSIZE
 40
2.0
  9
$3DDWFPREC
 40
2.0
  9
$PSOLWIDTH
 40
0.25
  9
$PSOLHEIGHT
 40
4.0
  9
$LOFTANG1
 40
1.570796326795
  9
$LOFTANG2
 40
1.570796326795
  9
$LOFTMAG1
 40
0.0
  9
$LOFTMAG2
 40
0.0
  9
$LOFTPARAM
 70
     7
  9
$LOFTNORMALS
280
     1
  9
$LATITUDE
 40
37.795
  9
$LONGITUDE
 40
-122.394
  9
$NORTHDIRECTION
 40
0.0
  9
$TIMEZONE
 70
 -8000
  9
$LIGHTGLYPHDISPLAY
280
     1
  9
$TILEMODELIGHTSYNCH
280
     1
  9
$CMATERIAL
347
15E5
  9
$SOLIDHIST
280
     0
  9
$SHOWHIST
280
     1
  9
$DWFFRAME
280
     2
  9
$DGNFRAME
280
     2
  9
$REALWORLDSCALE
290
     1
  9
$INTERFERECOLOR
 62
   256
  9
$CSHADOW
280
     0
  9
$SHADOWPLANELOCATION
 40
0.0
  0
ENDSEC
  0
SECTION
  2
CLASSES
  0
CLASS
  1
LWPOLYLINE
  2
AcDbPolyline
  3
ObjectDBX Classes
 90
        0
 91
        1
280
     0
281
     1
  0
CLASS
  1
IMAGE
  2
AcDbRasterImage
  3
ISM
 90
      127
 91
        5
280
     0
281
     1
  0
CLASS
  1
OLE2FRAME
  2
AcDbOle2Frame
  3
ObjectDBX Classes
 90
        0
 91
        1
280
     0
281
     1
  0
CLASS
  1
HATCH
  2
AcDbHatch
  3
ObjectDBX Classes
 90
        0
 91
        1
280
     0
281
     1
  0
CLASS
  1
DICTIONARYVAR
  2
AcDbDictionaryVar
  3
ObjectDBX Classes
 90
        0
 91
        3
280
     0
281
     0
  0
CLASS
  1
RASTERVARIABLES
  2
AcDbRasterVariables
  3
ISM
 90
        0
 91
        3
280
     0
281
     0
  0
CLASS
  1
IMAGEDEF
  2
AcDbRasterImageDef
  3
ISM
 90
        0
 91
        3
280
     0
281
     0
  0
CLASS
  1
IMAGEDEF_REACTOR
  2
AcDbRasterImageDefReactor
  3
ISM
 90
        1
 91
        3
280
     0
281
     0
  0
CLASS
  1
IDBUFFER
  2
AcDbIdBuffer
  3
ObjectDBX Classes
 90
        0
 91
        3
280
     0
281
     0
  0
CLASS
  1
SPATIAL_FILTER
  2
AcDbSpatialFilter
  3
ObjectDBX Classes
 90
        0
 91
        3
280
     0
281
     0
  0
CLASS
  1
XRECORD
  2
AcDbXrecord
  3
ObjectDBX Classes
 90
        0
 91
        1
280
     0
281
     0
  0
CLASS
  1
SORTENTSTABLE
  2
AcDbSortentsTable
  3
ObjectDBX Classes
 90
        0
 91
        3
280
     0
281
     0
  0
CLASS
  1
LAYER_INDEX
  2
AcDbLayerIndex
  3
ObjectDBX Classes
 90
        0
 91
        3
280
     0
281
     0
  0
CLASS
  1
SPATIAL_INDEX
  2
AcDbSpatialIndex
  3
AutoCAD 2000
 90
        0
 91
        3
280
     0
281
     0
  0
CLASS
  1
OBJECT_PTR
  2
CAseDLPNTableRecord
  3
ASE-LPNTableRecord
 90
        1
 91
        3
280
     0
281
     0
  0
CLASS
  1
ACDBDICTIONARYWDFLT
  2
AcDbDictionaryWithDefault
  3
ObjectDBX Classes
 90
        0
 91
        3
280
     0
281
     0
  0
CLASS
  1
SCALE
  2
AcDbScale
  3
ObjectDBX Classes
 90
     1153
 91
        3
280
     0
281
     0
  0
CLASS
  1
VISUALSTYLE
  2
AcDbVisualStyle
  3
ObjectDBX Classes
 90
     4095
 91
        3
280
     0
281
     0
  0
CLASS
  1
MATERIAL
  2
AcDbMaterial
  3
ObjectDBX Classes
 90
     1153
 91
        3
280
     0
281
     0
  0
CLASS
  1
TABLESTYLE
  2
AcDbTableStyle
  3
ObjectDBX Classes
 90
     4095
 91
        3
280
     0
281
     0
  0
CLASS
  1
MLEADERSTYLE
  2
AcDbMLeaderStyle
  3
ACDB_MLEADERSTYLE_CLASS
 90
     4095
 91
        3
280
     0
281
     0
  0
CLASS
  1
SUN
  2
AcDbSun
  3
SCENEOE
 90
     1153
 91
        3
280
     0
281
     0
  0
CLASS
  1
CELLSTYLEMAP
  2
AcDbCellStyleMap
  3
ObjectDBX Classes
 90
     1152
 91
        3
280
     0
281
     0
  0
CLASS
  1
ACAD_TABLE
  2
AcDbTable
  3
ObjectDBX Classes
 90
     1025
 91
        3
280
     0
281
     1
  0
CLASS
  1
TABLECONTENT
  2
AcDbTableContent
  3
ObjectDBX Classes
 90
     1152
 91
        4
280
     0
281
     0
  0
CLASS
  1
TABLEGEOMETRY
  2
AcDbTableGeometry
  3
ObjectDBX Classes
 90
     1152
 91
        3
280
     0
281
     0
  0
CLASS
  1
FIELDLIST
  2
AcDbFieldList
  3
ObjectDBX Classes
 90
     1152
 91
        3
280
     0
281
     0
  0
ENDSEC
  0
SECTION
  2
TABLES
  0
TABLE
  2
VPORT
  5
7
330
0
100
AcDbSymbolTable
 70
     1
  0
VPORT
  5
15
330
7
100
AcDbSymbolTableRecord
100
AcDbViewportTableRecord
  2
*ACTIVE
 70
     0
 10
0.0
 20
0.0
 11
1.0
 21
1.0
 12
840.0
 22
594.0
 13
0.0
 23
0.0
 14
1.0
 24
1.0
 15
0.0
 25
0.0
 16
0.0
 26
0.0
 36
1.0
 17
0.0
 27
0.0
 37
0.0
 40
1211.76
 41
1.998180163785
 42
50.0
 43
0.0
 44
0.0
 50
0.0
 51
0.0
 71
    16
 72
   100
 73
     1
 74
     1
 75
     0
 76
     0
 77
     0
 78
     0
281
     0
 65
     1
110
0.0
120
0.0
130
0.0
111
1.0
121
0.0
131
0.0
112
0.0
122
1.0
132
0.0
 79
     0
146
0.0
348
15D0
 60
     3
 61
     5
292
     0
282
     1
141
0.0
142
0.0
 63
   250
421
  3355443
361
15ED
  0
ENDTAB
  0
TABLE
  2
LTYPE
  5
4
330
0
100
AcDbSymbolTable
 70
     4
  0
LTYPE
  5
11
330
4
100
AcDbSymbolTableRecord
100
AcDbLinetypeTableRecord
  2
BYBLOCK
 70
     0
  3

 72
    65
 73
     0
 40
0.0
  0
LTYPE
  5
12
330
4
100
AcDbSymbolTableRecord
100
AcDbLinetypeTableRecord
  2
BYLAYER
 70
     0
  3

 72
    65
 73
     0
 40
0.0
  0
LTYPE
  5
13
330
4
100
AcDbSymbolTableRecord
100
AcDbLinetypeTableRecord
  2
CONTINUOUS
 70
     0
  3
Solid line
 72
    65
 73
     0
 40
0.0
  0
LTYPE
  5
103D
330
4
100
AcDbSymbolTableRecord
100
AcDbLinetypeTableRecord
  2
DASHED
 70
     0
  3
__ __ __ __ __ __ __ __ __ __ __ __ _
 72
    65
 73
     2
 40
0.75
 49
0.5
 74
     0
 49
-0.25
 74
     0
  0
LTYPE
  5
144A
330
4
100
AcDbSymbolTableRecord
100
AcDbLinetypeTableRecord
  2
CENTER
 70
     0
  3
____ _ ____ _ ____ _ ____ _ ____ _ __
 72
    65
 73
     4
 40
2.0
 49
1.25
 74
     0
 49
-0.25
 74
     0
 49
0.25
 74
     0
 49
-0.25
 74
     0
  0
LTYPE
  5
1642
330
4
100
AcDbSymbolTableRecord
100
AcDbLinetypeTableRecord
  2
HIDDEN
 70
     0
  3
__ __ __ __ __ __ __ __ __ __ __ __ __ __ __ __
 72
    65
 73
     2
 40
0.375
 49
0.25
 74
     0
 49
-0.125
 74
     0
  0
ENDTAB
  0
TABLE
  2
LAYER
  5
2
102
{ACAD_XDICTIONARY
360
1809
102
}
330
0
100
AcDbSymbolTable
 70
    19
  0
LAYER
  5
14
330
2
100
AcDbSymbolTableRecord
100
AcDbLayerTableRecord
  2
0
 70
     0
 62
     7
  6
CONTINUOUS
370
    -3
390
15A5
347
15E7
  0
LAYER
  5
163D
102
{ACAD_XDICTIONARY
360
163E
102
}
330
2
100
AcDbSymbolTableRecord
100
AcDbLayerTableRecord
  2
寸法線
 70
     0
 62
     7
  6
CONTINUOUS
370
     9
390
15A5
347
15E7
  0
LAYER
  5
1641
330
2
100
AcDbSymbolTableRecord
100
AcDbLayerTableRecord
  2
仮想線
 70
     0
 62
    44
  6
HIDDEN
290
     0
370
     5
390
15A5
347
15E7
1001
AcAecLayerStandard
1000

1000

1001
AcCmTransparency
1071
        0
  0
LAYER
  5
1645
330
2
100
AcDbSymbolTableRecord
100
AcDbLayerTableRecord
  2
表題欄
 70
     0
 62
     7
  6
CONTINUOUS
370
     9
390
15A5
347
15E7
1001
AcAecLayerStandard
1000

1000

1001
AcCmTransparency
1071
        0
  0
LAYER
  5
1646
330
2
100
AcDbSymbolTableRecord
100
AcDbLayerTableRecord
  2
輪郭線
 70
     0
 62
    40
  6
CONTINUOUS
370
    15
390
15A5
347
15E7
1001
AcAecLayerStandard
1000

1000

1001
AcCmTransparency
1071
        0
  0
LAYER
  5
1647
330
2
100
AcDbSymbolTableRecord
100
AcDbLayerTableRecord
  2
文字
 70
     0
 62
     7
  6
CONTINUOUS
370
     9
390
15A5
347
15E7
1001
AcAecLayerStandard
1000

1000

1001
AcCmTransparency
1071
        0
  0
LAYER
  5
1648
330
2
100
AcDbSymbolTableRecord
100
AcDbLayerTableRecord
  2
構築線
 70
     0
 62
     1
  6
CONTINUOUS
290
     0
370
     0
390
15A5
347
15E7
1001
AcAecLayerStandard
1000

1000

1001
AcCmTransparency
1071
        0
  0
LAYER
  5
1649
330
2
100
AcDbSymbolTableRecord
100
AcDbLayerTableRecord
  2
図面枠
 70
     0
 62
     7
  6
CONTINUOUS
290
     0
370
     9
390
15A5
347
15E7
1001
AcAecLayerStandard
1000

1000

1001
AcCmTransparency
1071
        0
  0
LAYER
  5
164A
102
{ACAD_XDICTIONARY
360
164B
102
}
330
2
100
AcDbSymbolTableRecord
100
AcDbLayerTableRecord
  2
部材(積層鋼板)
 70
     0
 62
     7
  6
CONTINUOUS
370
    15
390
15A5
347
15E7
1001
AcAecLayerStandard
1000

1000

  0
LAYER
  5
164D
330
2
100
AcDbSymbolTableRecord
100
AcDbLayerTableRecord
  2
中心線
 70
     0
 62
    44
  6
CENTER
370
     5
390
15A5
347
15E7
1001
AcAecLayerStandard
1000

1000

1001
AcCmTransparency
1071
        0
  0
LAYER
  5
164F
330
2
100
AcDbSymbolTableRecord
100
AcDbLayerTableRecord
  2
ブチルﾃｰﾌﾟ
 70
     0
 62
     7
  6
CONTINUOUS
370
     9
390
15A5
347
15E7
1001
AcAecLayerStandard
1000

1000

1001
AcCmTransparency
1071
        0
  0
LAYER
  5
1650
330
2
100
AcDbSymbolTableRecord
100
AcDbLayerTableRecord
  2
実線
 70
     0
 62
     7
  6
CONTINUOUS
370
     9
390
15A5
347
15E7
1001
AcAecLayerStandard
1000

1000

1001
AcCmTransparency
1071
        0
  0
LAYER
  5
1651
330
2
100
AcDbSymbolTableRecord
100
AcDbLayerTableRecord
  2
躯体
 70
     0
 62
     7
  6
CONTINUOUS
370
    13
390
15A5
347
15E7
1001
AcAecLayerStandard
1000

1000

1001
AcCmTransparency
1071
        0
  0
LAYER
  5
1652
330
2
100
AcDbSymbolTableRecord
100
AcDbLayerTableRecord
  2
IBｼｰﾄ
 70
     0
 62
     7
  6
CONTINUOUS
370
    18
390
15A5
347
15E7
1001
AcAecLayerStandard
1000

1000

1001
AcCmTransparency
1071
        0
  0
LAYER
  5
1653
330
2
100
AcDbSymbolTableRecord
100
AcDbLayerTableRecord
  2
IBリキッド
 70
     0
 62
     7
  6
CONTINUOUS
370
    13
390
15A5
347
15E7
1001
AcAecLayerStandard
1000

1000

1001
AcCmTransparency
1071
        0
  0
LAYER
  5
1654
330
2
100
AcDbSymbolTableRecord
100
AcDbLayerTableRecord
  2
部材(ﾋﾞｽ類)
 70
     0
 62
     7
  6
CONTINUOUS
370
    13
390
15A5
347
15E7
1001
AcAecLayerStandard
1000

1000

1001
AcCmTransparency
1071
        0
  0
LAYER
  5
1655
330
2
100
AcDbSymbolTableRecord
100
AcDbLayerTableRecord
  2
シーリング(IBｼﾘｺｰﾝ)
 70
     0
 62
     7
  6
CONTINUOUS
370
    13
390
15A5
347
15E7
1001
AcAecLayerStandard
1000

1000

1001
AcCmTransparency
1071
        0
  0
LAYER
  5
1656
330
2
100
AcDbSymbolTableRecord
100
AcDbLayerTableRecord
  2
緩衝フォーム
 70
     0
 62
     7
  6
CONTINUOUS
370
     9
390
15A5
347
15E7
1001
AcAecLayerStandard
1000

1000

1001
AcCmTransparency
1071
        0
  0
LAYER
  5
1816
330
2
100
AcDbSymbolTableRecord
100
AcDbLayerTableRecord
  2
Defpoints
 70
     0
 62
     7
  6
CONTINUOUS
290
     0
370
    -3
390
15A5
347
15E7
  0
ENDTAB
  0
TABLE
  2
STYLE
  5
3
330
0
100
AcDbSymbolTable
 70
     4
  0
STYLE
  5
17
330
3
100
AcDbSymbolTableRecord
100
AcDbTextStyleTableRecord
  2
STANDARD
 70
     0
 40
0.0
 41
1.0
 50
0.0
 71
     0
 42
0.0
  3
txt
  4
BIGFONT
  0
STYLE
  5
1E
330
3
100
AcDbSymbolTableRecord
100
AcDbTextStyleTableRecord
  2
TATEGAKI
 70
     4
 40
0.0
 41
1.0
 50
0.0
 71
     0
 42
0.0
  3
txt
  4
BIGFONT
  0
STYLE
  5
165C
330
3
100
AcDbSymbolTableRecord
100
AcDbTextStyleTableRecord
  2
基本スタイル
 70
     0
 40
0.0
 41
1.0
 50
0.0
 71
     0
 42
0.0
  3
msgothic.ttc
  4

1001
ACAD
1000
MS Gothic
1071
    32817
  0
STYLE
  5
165D
330
3
100
AcDbSymbolTableRecord
100
AcDbTextStyleTableRecord
  2
ＭＳ ゴシック
 70
     0
 40
6.0
 41
1.0
 50
0.0
 71
     0
 42
0.0
  3
msgothic.ttc
  4

1001
ACAD
1000
MS Gothic
1071
    32817
  0
ENDTAB
  0
TABLE
  2
VIEW
  5
5
330
0
100
AcDbSymbolTable
 70
     0
  0
ENDTAB
  0
TABLE
  2
UCS
  5
6
330
0
100
AcDbSymbolTable
 70
     0
  0
ENDTAB
  0
TABLE
  2
APPID
  5
8
330
0
100
AcDbSymbolTable
 70
     6
  0
APPID
  5
16
330
8
100
AcDbSymbolTableRecord
100
AcDbRegAppTableRecord
  2
ACAD
 70
     0
  0
APPID
  5
1632
330
8
100
AcDbSymbolTableRecord
100
AcDbRegAppTableRecord
  2
ACAD_MLEADERVER
 70
     0
  0
APPID
  5
1643
330
8
100
AcDbSymbolTableRecord
100
AcDbRegAppTableRecord
  2
AcAecLayerStandard
 70
     0
  0
APPID
  5
1644
330
8
100
AcDbSymbolTableRecord
100
AcDbRegAppTableRecord
  2
AcCmTransparency
 70
     0
  0
APPID
  5
165A
330
8
100
AcDbSymbolTableRecord
100
AcDbRegAppTableRecord
  2
AcadAnnotative
 70
     0
  0
APPID
  5
165B
330
8
100
AcDbSymbolTableRecord
100
AcDbRegAppTableRecord
  2
HATCHBACKGROUNDCOLOR
 70
     0
  0
ENDTAB
  0
TABLE
  2
DIMSTYLE
  5
9
330
0
100
AcDbSymbolTable
 70
     1
100
AcDbDimStyleTable
  0
DIMSTYLE
105
18
330
9
100
AcDbSymbolTableRecord
100
AcDbDimStyleTableRecord
  2
STANDARD
 70
     0
178
     0
289
     0
340
17
  0
ENDTAB
  0
TABLE
  2
BLOCK_RECORD
  5
1
330
0
100
AcDbSymbolTable
 70
    18
  0
BLOCK_RECORD
  5
A
330
1
100
AcDbSymbolTableRecord
100
AcDbBlockTableRecord
  2
*MODEL_SPACE
340
15C9
 70
     0
280
     1
281
     0
  0
BLOCK_RECORD
  5
B
330
1
100
AcDbSymbolTableRecord
100
AcDbBlockTableRecord
  2
*PAPER_SPACE
340
15CA
 70
     0
280
     1
281
     0
  0
BLOCK_RECORD
  5
16BA
102
{ACAD_XDICTIONARY
360
16BB
102
}
330
1
100
AcDbSymbolTableRecord
100
AcDbBlockTableRecord
  2
囲い文字1
340
0
102
{BLKREFS
331
16B9
331
180F
331
1940
331
1965
331
196D
331
1985
331
1995
102
}
 70
     4
280
     1
281
     0
1001
AcadAnnotative
1000
AnnotativeData
1002
{
1070
     1
1070
     0
1002
}
1001
ACAD
1000
DesignCenter Data
1002
{
1070
     1
1070
     4
1002
}
  0
BLOCK_RECORD
  5
16C6
102
{ACAD_XDICTIONARY
360
16C7
102
}
330
1
100
AcDbSymbolTableRecord
100
AcDbBlockTableRecord
  2
囲い文字2
340
0
102
{BLKREFS
331
16C5
331
1811
331
1942
331
1967
331
196F
331
1987
331
1999
102
}
 70
     4
280
     1
281
     0
1001
AcadAnnotative
1000
AnnotativeData
1002
{
1070
     1
1070
     0
1002
}
1001
ACAD
1000
DesignCenter Data
1002
{
1070
     1
1070
     4
1002
}
  0
BLOCK_RECORD
  5
16D2
102
{ACAD_XDICTIONARY
360
16D3
102
}
330
1
100
AcDbSymbolTableRecord
100
AcDbBlockTableRecord
  2
囲い文字3
340
0
102
{BLKREFS
331
16D1
331
1813
331
1944
331
1969
331
1971
331
1989
331
199D
102
}
 70
     4
280
     1
281
     0
1001
AcadAnnotative
1000
AnnotativeData
1002
{
1070
     1
1070
     0
1002
}
1001
ACAD
1000
DesignCenter Data
1002
{
1070
     1
1070
     4
1002
}
  0
BLOCK_RECORD
  5
16DE
102
{ACAD_XDICTIONARY
360
16DF
102
}
330
1
100
AcDbSymbolTableRecord
100
AcDbBlockTableRecord
  2
囲い文字4
340
0
102
{BLKREFS
331
16DD
331
1815
331
1946
331
196B
331
1973
331
198B
331
19A1
102
}
 70
     4
280
     1
281
     0
1001
AcadAnnotative
1000
AnnotativeData
1002
{
1070
     1
1070
     0
1002
}
1001
ACAD
1000
DesignCenter Data
1002
{
1070
     1
1070
     4
1002
}
  0
BLOCK_RECORD
  5
16B7
330
1
100
AcDbSymbolTableRecord
100
AcDbBlockTableRecord
  2
*U6
340
0
102
{BLKREFS
331
16B6
102
}
 70
     0
280
     1
281
     0
  0
BLOCK_RECORD
  5
16C3
330
1
100
AcDbSymbolTableRecord
100
AcDbBlockTableRecord
  2
*U7
340
0
102
{BLKREFS
331
16C2
102
}
 70
     0
280
     1
281
     0
  0
BLOCK_RECORD
  5
16CF
330
1
100
AcDbSymbolTableRecord
100
AcDbBlockTableRecord
  2
*U8
340
0
102
{BLKREFS
331
16CE
102
}
 70
     0
280
     1
281
     0
  0
BLOCK_RECORD
  5
16DB
330
1
100
AcDbSymbolTableRecord
100
AcDbBlockTableRecord
  2
*U9
340
0
102
{BLKREFS
331
16DA
102
}
 70
     0
280
     1
281
     0
  0
BLOCK_RECORD
  5
16F3
102
{ACAD_XDICTIONARY
360
16F4
102
}
330
1
100
AcDbSymbolTableRecord
100
AcDbBlockTableRecord
  2
表題欄(定義)
340
0
102
{BLKREFS
331
1859
102
}
 70
     4
280
     1
281
     0
1001
AcadAnnotative
1000
AnnotativeData
1002
{
1070
     1
1070
     0
1002
}
1001
ACAD
1000
DesignCenter Data
1002
{
1070
     1
1070
     4
1002
}
  0
BLOCK_RECORD
  5
193E
330
1
100
AcDbSymbolTableRecord
100
AcDbBlockTableRecord
  2
*T16
340
0
102
{BLKREFS
331
1858
102
}
 70
     0
280
     1
281
     0
  0
BLOCK_RECORD
  5
1964
330
1
100
AcDbSymbolTableRecord
100
AcDbBlockTableRecord
  2
*U21
340
0
102
{BLKREFS
331
181B
102
}
 70
     0
280
     1
281
     0
  0
BLOCK_RECORD
  5
1966
330
1
100
AcDbSymbolTableRecord
100
AcDbBlockTableRecord
  2
*U22
340
0
102
{BLKREFS
331
181C
102
}
 70
     0
280
     1
281
     0
  0
BLOCK_RECORD
  5
1968
330
1
100
AcDbSymbolTableRecord
100
AcDbBlockTableRecord
  2
*U23
340
0
102
{BLKREFS
331
181D
102
}
 70
     0
280
     1
281
     0
  0
BLOCK_RECORD
  5
196A
330
1
100
AcDbSymbolTableRecord
100
AcDbBlockTableRecord
  2
*U24
340
0
102
{BLKREFS
331
181E
102
}
 70
     0
280
     1
281
     0
  0
BLOCK_RECORD
  5
1994
330
1
100
AcDbSymbolTableRecord
100
AcDbBlockTableRecord
  2
*U33
340
0
102
{BLKREFS
331
194B
102
}
 70
     0
280
     1
281
     0
  0
BLOCK_RECORD
  5
1998
330
1
100
AcDbSymbolTableRecord
100
AcDbBlockTableRecord
  2
*U34
340
0
102
{BLKREFS
331
194C
102
}
 70
     0
280
     1
281
     0
  0
BLOCK_RECORD
  5
199C
330
1
100
AcDbSymbolTableRecord
100
AcDbBlockTableRecord
  2
*U35
340
0
102
{BLKREFS
331
194D
102
}
 70
     0
280
     1
281
     0
  0
BLOCK_RECORD
  5
19A0
330
1
100
AcDbSymbolTableRecord
100
AcDbBlockTableRecord
  2
*U36
340
0
102
{BLKREFS
331
194E
102
}
 70
     0
280
     1
281
     0
  0
ENDTAB
  0
ENDSEC
  0
SECTION
  2
BLOCKS
  0
BLOCK
  5
D
330
A
100
AcDbEntity
  8
0
100
AcDbBlockBegin
  2
*MODEL_SPACE
 70
     0
 10
0.0
 20
0.0
 30
0.0
  3
*MODEL_SPACE
  1

  0
ENDBLK
  5
E
330
A
100
AcDbEntity
  8
0
100
AcDbBlockEnd
  0
BLOCK
  5
F
330
B
100
AcDbEntity
 67
     1
  8
0
100
AcDbBlockBegin
  2
*PAPER_SPACE
 70
     0
 10
0.0
 20
0.0
 30
0.0
  3
*PAPER_SPACE
  1

  0
ENDBLK
  5
10
330
B
100
AcDbEntity
 67
     1
  8
0
100
AcDbBlockEnd
  0
BLOCK
  5
182E
330
16BA
100
AcDbEntity
  8
0
100
AcDbBlockBegin
  2
囲い文字1
 70
     0
 10
0.0
 20
0.0
 30
0.0
  3
囲い文字1
  1

  0
TEXT
  5
16BE
330
16BA
100
AcDbEntity
  8
文字
 62
     5
100
AcDbText
 10
-0.150726441143
 20
-12.80598100318
 30
0.0
 40
1.9
  1
1
  7
ＭＳ ゴシック
 72
     1
 11
0.467005208226
 21
-11.85598100318
 31
0.0
100
AcDbText
 73
     2
  0
LWPOLYLINE
  5
16BF
330
16BA
100
AcDbEntity
  8
文字
 62
     5
100
AcDbPolyline
 90
        3
 70
     1
 43
0.05
 10
-1.207936290659
 20
-13.006522891064
 10
0.467005208226
 20
-10.105439115294
 10
2.14194670711
 20
-13.006522891064
  0
ENDBLK
  5
182F
330
16BA
100
AcDbEntity
  8
0
100
AcDbBlockEnd
  0
BLOCK
  5
1832
330
16C6
100
AcDbEntity
  8
0
100
AcDbBlockBegin
  2
囲い文字2
 70
     0
 10
0.0
 20
0.0
 30
0.0
  3
囲い文字2
  1

  0
TEXT
  5
16CA
330
16C6
100
AcDbEntity
  8
文字
 62
     5
100
AcDbText
 10
-7.36181652199
 20
15.833311817329
 30
0.0
 40
1.9
  1
2
  7
ＭＳ ゴシック
 72
     1
 11
-6.744084872622
 21
16.783311817329
 31
0.0
100
AcDbText
 73
     2
  0
LWPOLYLINE
  5
16CB
330
16C6
100
AcDbEntity
  8
文字
 62
     5
100
AcDbPolyline
 90
        3
 70
     1
 43
0.05
 10
-8.419026371506
 20
15.632769929445
 10
-6.744084872622
 20
18.533853705216
 10
-5.069143373737
 20
15.632769929445
  0
ENDBLK
  5
1833
330
16C6
100
AcDbEntity
  8
0
100
AcDbBlockEnd
  0
BLOCK
  5
1836
330
16D2
100
AcDbEntity
  8
0
100
AcDbBlockBegin
  2
囲い文字3
 70
     0
 10
0.0
 20
0.0
 30
0.0
  3
囲い文字3
  1

  0
TEXT
  5
16D6
330
16D2
100
AcDbEntity
  8
文字
 62
     5
100
AcDbText
 10
-3.138684270054
 20
7.425323742515
 30
0.0
 40
1.9
  1
3
  7
ＭＳ ゴシック
 72
     1
 11
-2.520952620685
 21
8.375323742515
 31
0.0
100
AcDbText
 73
     2
  0
LWPOLYLINE
  5
16D7
330
16D2
100
AcDbEntity
  8
文字
 62
     5
100
AcDbPolyline
 90
        3
 70
     1
 43
0.05
 10
-4.19589411957
 20
7.224781854631
 10
-2.520952620685
 20
10.125865630402
 10
-0.846011121801
 20
7.224781854631
  0
ENDBLK
  5
1837
330
16D2
100
AcDbEntity
  8
0
100
AcDbBlockEnd
  0
BLOCK
  5
183A
330
16DE
100
AcDbEntity
  8
0
100
AcDbBlockBegin
  2
囲い文字4
 70
     0
 10
0.0
 20
0.0
 30
0.0
  3
囲い文字4
  1

  0
TEXT
  5
16E2
330
16DE
100
AcDbEntity
  8
文字
 62
     5
100
AcDbText
 10
-3.448589732188
 20
5.51332470249
 30
0.0
 40
1.9
  1
4
  7
ＭＳ ゴシック
 72
     1
 11
-2.83085808282
 21
6.46332470249
 31
0.0
100
AcDbText
 73
     2
  0
LWPOLYLINE
  5
16E3
330
16DE
100
AcDbEntity
  8
文字
 62
     5
100
AcDbPolyline
 90
        3
 70
     1
 43
0.05
 10
-4.505799581704
 20
5.312782814606
 10
-2.83085808282
 20
8.213866590377
 10
-1.155916583935
 20
5.312782814606
  0
ENDBLK
  5
183B
330
16DE
100
AcDbEntity
  8
0
100
AcDbBlockEnd
  0
BLOCK
  5
182C
330
16B7
100
AcDbEntity
  8
0
100
AcDbBlockBegin
  2
*U6
 70
     1
 10
0.0
 20
0.0
 30
0.0
  3
*U6
  1

  0
INSERT
  5
16B9
330
16B7
100
AcDbEntity
  8
構築線
 62
     0
100
AcDbBlockReference
  2
囲い文字1
 10
4.163741498082
 20
44.833324013919
 30
0.0
 41
3.446987668374
 42
3.446987668374
 43
3.446987668374
  0
ENDBLK
  5
182D
330
16B7
100
AcDbEntity
  8
0
100
AcDbBlockEnd
  0
BLOCK
  5
1830
330
16C3
100
AcDbEntity
  8
0
100
AcDbBlockBegin
  2
*U7
 70
     1
 10
0.0
 20
0.0
 30
0.0
  3
*U7
  1

  0
INSERT
  5
16C5
330
16C3
100
AcDbEntity
  8
構築線
 62
     0
100
AcDbBlockReference
  2
囲い文字2
 10
29.020280082295
 20
-53.885965169321
 30
0.0
 41
3.446987668374
 42
3.446987668374
 43
3.446987668374
  0
ENDBLK
  5
1831
330
16C3
100
AcDbEntity
  8
0
100
AcDbBlockEnd
  0
BLOCK
  5
1834
330
16CF
100
AcDbEntity
  8
0
100
AcDbBlockBegin
  2
*U8
 70
     1
 10
0.0
 20
0.0
 30
0.0
  3
*U8
  1

  0
INSERT
  5
16D1
330
16CF
100
AcDbEntity
  8
構築線
 62
     0
100
AcDbBlockReference
  2
囲い文字3
 10
14.463195287959
 20
-24.903733959604
 30
0.0
 41
3.446987668374
 42
3.446987668374
 43
3.446987668374
  0
ENDBLK
  5
1835
330
16CF
100
AcDbEntity
  8
0
100
AcDbBlockEnd
  0
BLOCK
  5
1838
330
16DB
100
AcDbEntity
  8
0
100
AcDbBlockBegin
  2
*U9
 70
     1
 10
0.0
 20
0.0
 30
0.0
  3
*U9
  1

  0
INSERT
  5
16DD
330
16DB
100
AcDbEntity
  8
構築線
 62
     0
100
AcDbBlockReference
  2
囲い文字4
 10
15.531435594298
 20
-18.313096846695
 30
0.0
 41
3.446987668374
 42
3.446987668374
 43
3.446987668374
  0
ENDBLK
  5
1839
330
16DB
100
AcDbEntity
  8
0
100
AcDbBlockEnd
  0
BLOCK
  5
183C
330
16F3
100
AcDbEntity
  8
0
100
AcDbBlockBegin
  2
表題欄(定義)
 70
     2
 10
0.0
 20
0.0
 30
0.0
  3
表題欄(定義)
  1

  0
LINE
  5
16F7
330
16F3
100
AcDbEntity
  8
表題欄
100
AcDbLine
 10
-10.971098027232
 20
-50.087425312518
 30
0.0
 11
-10.971098027232
 21
-12.587447994505
 31
0.0
  0
ATTDEF
  5
16F8
330
16F3
100
AcDbEntity
  8
表題欄
100
AcDbText
 10
26.845498819392
 20
-41.087447994505
 30
0.0
 40
1.5
  1

  7
ＭＳ ゴシック
 72
     1
 11
26.845498819392
 21
-40.337447994505
 31
0.0
100
AcDbAttributeDefinition
  3
備考
  2
REMARKS
 70
     0
 74
     2
280
     0
  0
ATTDEF
  5
16F9
330
16F3
100
AcDbEntity
  8
表題欄
100
AcDbText
 10
12.466401972768
 20
-41.087447994505
 30
0.0
 40
1.5
  1

  7
ＭＳ ゴシック
 72
     1
 11
12.466401972768
 21
-40.337447994505
 31
0.0
100
AcDbAttributeDefinition
  3
縮尺
  2
SCALE
 70
     0
 74
     2
280
     0
  0
ATTDEF
  5
16FA
330
16F3
100
AcDbEntity
  8
表題欄
100
AcDbText
 10
13.631096545734
 20
-33.587447994505
 30
0.0
 40
1.5
  1

  7
ＭＳ ゴシック
 72
     1
 11
13.631096545734
 21
-32.837447994505
 31
0.0
100
AcDbAttributeDefinition
  3
図番
  2
DRAWING　NO.
 70
     0
 74
     2
280
     0
  0
ATTDEF
  5
16FB
330
16F3
100
AcDbEntity
  8
表題欄
100
AcDbText
 10
11.68036502141
 20
-26.087447994505
 30
0.0
 40
1.5
  1

  7
ＭＳ ゴシック
 72
     1
 11
11.68036502141
 21
-25.337447994505
 31
0.0
100
AcDbAttributeDefinition
  3
部位
  2
POSITION
 70
     0
 74
     2
280
     0
  0
ATTDEF
  5
16FC
330
16F3
100
AcDbEntity
  8
表題欄
100
AcDbText
 10
9.729633497089
 20
-18.587447994505
 30
0.0
 40
1.5
  1

  7
ＭＳ ゴシック
 72
     1
 11
9.729633497089
 21
-17.837447994505
 31
0.0
100
AcDbAttributeDefinition
  3
名称
  2
NAME
 70
     0
 74
     2
280
     0
  0
ATTDEF
  5
16FD
330
16F3
100
AcDbEntity
  8
表題欄
100
AcDbText
 10
-3.158598027232
 20
-48.587447994505
 30
0.0
 40
1.5
  1

  7
ＭＳ ゴシック
 72
     1
 11
-3.158598027232
 21
-47.837447994505
 31
0.0
100
AcDbAttributeDefinition
  3
製図
  2
DRAWING
 70
     0
 74
     2
280
     0
  0
ATTDEF
  5
16FE
330
16F3
100
AcDbEntity
  8
表題欄
100
AcDbText
 10
-3.158598027232
 20
-41.087447994505
 30
0.0
 40
1.5
  1

  7
ＭＳ ゴシック
 72
     1
 11
-3.158598027232
 21
-40.337447994505
 31
0.0
100
AcDbAttributeDefinition
  3
設計
  2
DESIGNED
 70
     0
 74
     2
280
     0
  0
ATTDEF
  5
16FF
330
16F3
100
AcDbEntity
  8
表題欄
100
AcDbText
 10
-3.158598027232
 20
-33.587447994505
 30
0.0
 40
1.5
  1

  7
ＭＳ ゴシック
 72
     1
 11
-3.158598027232
 21
-32.837447994505
 31
0.0
100
AcDbAttributeDefinition
  3
検図
  2
CHECKED
 70
     0
 74
     2
280
     0
  0
TEXT
  5
1700
330
16F3
100
AcDbEntity
  8
表題欄
100
AcDbText
 10
-10.456568854787
 20
-22.337436653514
 30
0.0
 40
1.5
  1
出 図  ISSUE
  7
ＭＳ ゴシック
 72
     1
 11
-4.604374281822
 21
-21.587436653514
 31
0.0
100
AcDbText
 73
     2
  0
ATTDEF
  5
1701
330
16F3
100
AcDbEntity
  8
表題欄
100
AcDbText
 10
-3.158598027232
 20
-26.087447994505
 30
0.0
 40
1.5
  1

  7
ＭＳ ゴシック
 72
     1
 11
-3.158598027232
 21
-25.337447994505
 31
0.0
100
AcDbAttributeDefinition
  3
出図
  2
ISSUE
 70
     0
 74
     2
280
     0
  0
ATTDEF
  5
1702
330
16F3
100
AcDbEntity
  8
表題欄
100
AcDbText
 10
-3.158598027232
 20
-18.587447994505
 30
0.0
 40
1.5
  1

  7
ＭＳ ゴシック
 72
     1
 11
-3.158598027232
 21
-17.837447994505
 31
0.0
100
AcDbAttributeDefinition
  3
初版作成日
  2
DATE
 70
     0
 74
     2
280
     0
  0
LINE
  5
1703
330
16F3
100
AcDbEntity
  8
仮想線
100
AcDbLine
 10
7.778901972768
 20
-12.587447994505
 30
0.0
 11
7.778901972768
 21
-50.087447994505
 31
0.0
  0
LINE
  5
1704
330
16F3
100
AcDbEntity
  8
仮想線
100
AcDbLine
 10
7.778901972768
 20
-17.743697994505
 30
0.0
 11
-10.971098027232
 21
-17.743697994505
 31
0.0
  0
LINE
  5
1705
330
16F3
100
AcDbEntity
  8
仮想線
100
AcDbLine
 10
-3.158598027232
 20
-12.587447994505
 30
0.0
 11
-3.158598027232
 21
-50.087447994505
 31
0.0
  0
TEXT
  5
1706
330
16F3
100
AcDbEntity
  8
表題欄
100
AcDbText
 10
20.901158756562
 20
-37.337436653514
 30
0.0
 40
1.5
  1
備 考   REMARKS
  7
ＭＳ ゴシック
 72
     1
 11
28.216401972768
 21
-36.587436653514
 31
0.0
100
AcDbText
 73
     2
  0
LINE
  5
1707
330
16F3
100
AcDbEntity
  8
表題欄
100
AcDbLine
 10
20.278901972768
 20
-35.087447994505
 30
0.0
 11
20.278901972768
 21
-42.587447994505
 31
0.0
  0
TEXT
  5
1708
330
16F3
100
AcDbEntity
  8
表題欄
100
AcDbText
 10
5.364207399803
 20
-37.337413971523
 30
0.0
 40
1.5
  1
縮 尺  SCALE
  7
ＭＳ ゴシック
 72
     1
 11
11.216401972768
 21
-36.587413971523
 31
0.0
100
AcDbText
 73
     2
  0
TEXT
  5
1709
330
16F3
100
AcDbEntity
  8
表題欄
100
AcDbText
 10
5.313110113321
 20
-29.837413971523
 30
0.0
 40
1.5
  1
図 番  DRAWING No.
  7
ＭＳ ゴシック
 72
     1
 11
14.091401972768
 21
-29.087413971523
 31
0.0
100
AcDbText
 73
     2
  0
TEXT
  5
170A
330
16F3
100
AcDbEntity
  8
表題欄
100
AcDbText
 10
5.276158756562
 20
-22.337436653514
 30
0.0
 40
1.5
  1
部 位  POSITION
  7
ＭＳ ゴシック
 72
     1
 11
12.591401972768
 21
-21.587436653514
 31
0.0
100
AcDbText
 73
     2
  0
TEXT
  5
170B
330
16F3
100
AcDbEntity
  8
表題欄
100
AcDbText
 10
5.351890280883
 20
-14.837413971523
 30
0.0
 40
1.5
  1
名 称  NAME
  7
ＭＳ ゴシック
 72
     1
 11
10.716401972768
 21
-14.087413971523
 31
0.0
100
AcDbText
 73
     2
  0
LINE
  5
170C
330
16F3
100
AcDbEntity
  8
仮想線
100
AcDbLine
 10
-10.971098027232
 20
-45.587447994505
 30
0.0
 11
4.653901972768
 21
-45.587447994505
 31
0.0
  0
TEXT
  5
170D
330
16F3
100
AcDbEntity
  8
表題欄
100
AcDbText
 10
-10.236158362358
 20
-44.837436653514
 30
0.0
 40
1.5
  1
製 図  DRAWING
  7
ＭＳ ゴシック
 72
     1
 11
-3.408598027232
 21
-44.087436653514
 31
0.0
100
AcDbText
 73
     2
  0
LINE
  5
170E
330
16F3
100
AcDbEntity
  8
仮想線
100
AcDbLine
 10
-10.971098027232
 20
-38.087447994505
 30
0.0
 11
4.653901972768
 21
-38.087447994505
 31
0.0
  0
TEXT
  5
170F
330
16F3
100
AcDbEntity
  8
表題欄
100
AcDbText
 10
-10.348841243438
 20
-37.337436653514
 30
0.0
 40
1.5
  1
設 計  DESIGNED
  7
ＭＳ ゴシック
 72
     1
 11
-3.033598027232
 21
-36.587436653514
 31
0.0
100
AcDbText
 73
     2
  0
LINE
  5
1710
330
16F3
100
AcDbEntity
  8
仮想線
100
AcDbLine
 10
-10.971098027232
 20
-30.587447994505
 30
0.0
 11
4.653901972768
 21
-30.587447994505
 31
0.0
  0
TEXT
  5
1711
330
16F3
100
AcDbEntity
  8
表題欄
100
AcDbText
 10
-10.486158362358
 20
-29.837436653514
 30
0.0
 40
1.5
  1
検 図  CHECKED
  7
ＭＳ ゴシック
 72
     1
 11
-3.658598027232
 21
-29.087436653514
 31
0.0
100
AcDbText
 73
     2
  0
LINE
  5
1712
330
16F3
100
AcDbEntity
  8
仮想線
100
AcDbLine
 10
-10.971098027232
 20
-23.087447994505
 30
0.0
 11
4.653901972768
 21
-23.087447994505
 31
0.0
  0
LINE
  5
1713
330
16F3
100
AcDbEntity
  8
表題欄
100
AcDbLine
 10
-10.971098027232
 20
-20.087447994505
 30
0.0
 11
54.653901972768
 21
-20.087447994505
 31
0.0
  0
LINE
  5
1714
330
16F3
100
AcDbEntity
  8
仮想線
100
AcDbLine
 10
-10.971098027232
 20
-15.587447994505
 30
0.0
 11
4.653901972768
 21
-15.587447994505
 31
0.0
  0
LINE
  5
1715
330
16F3
100
AcDbEntity
  8
表題欄
100
AcDbLine
 10
-10.971098027232
 20
-42.587447994505
 30
0.0
 11
54.653901972768
 21
-42.587447994505
 31
0.0
  0
LINE
  5
1716
330
16F3
100
AcDbEntity
  8
表題欄
100
AcDbLine
 10
-10.971098027232
 20
-35.087447994505
 30
0.0
 11
54.653901972768
 21
-35.087447994505
 31
0.0
  0
LINE
  5
1717
330
16F3
100
AcDbEntity
  8
表題欄
100
AcDbLine
 10
-10.971098027232
 20
-27.587447994505
 30
0.0
 11
54.653901972768
 21
-27.587447994505
 31
0.0
  0
LINE
  5
1718
330
16F3
100
AcDbEntity
  8
表題欄
100
AcDbLine
 10
-10.971098027232
 20
-20.087447994505
 30
0.0
 11
4.653901972768
 21
-20.087447994505
 31
0.0
  0
LINE
  5
1719
330
16F3
100
AcDbEntity
  8
表題欄
100
AcDbLine
 10
4.653901972768
 20
-12.587425312518
 30
0.0
 11
4.653901972768
 21
-50.087402630532
 31
0.0
  0
LINE
  5
171A
330
16F3
100
AcDbEntity
  8
表題欄
100
AcDbLine
 10
54.653901972768
 20
-12.587425312518
 30
0.0
 11
54.653901972768
 21
-50.087402630532
 31
0.0
  0
LINE
  5
171B
330
16F3
100
AcDbEntity
  8
表題欄
100
AcDbLine
 10
-10.971098027232
 20
-50.087425312518
 30
0.0
 11
54.653901972768
 21
-50.087425312518
 31
0.0
  0
LINE
  5
171C
330
16F3
100
AcDbEntity
  8
表題欄
100
AcDbLine
 10
-10.971098027232
 20
-12.587447994505
 30
0.0
 11
-10.971098027232
 21
-50.087425312518
 31
0.0
  0
LINE
  5
171D
330
16F3
100
AcDbEntity
  8
表題欄
100
AcDbLine
 10
-10.971098027232
 20
-12.587447994505
 30
0.0
 11
54.653901972768
 21
-12.587447994505
 31
0.0
  0
TEXT
  5
171E
330
16F3
100
AcDbEntity
  8
表題欄
100
AcDbText
 10
12.197265287505
 20
-45.694515786829
 30
0.0
 40
2.5
  1
HAYAKAWA RUBER.CO.,LTD
  7
ＭＳ ゴシック
 72
     1
 11
30.078970927119
 21
-44.444515786829
 31
0.0
100
AcDbText
 73
     2
  0
TEXT
  5
171F
330
16F3
100
AcDbEntity
  8
表題欄
100
AcDbText
 10
16.892502341332
 20
-49.236756287726
 30
0.0
 40
2.5
  1
早川ゴム株式会社
  7
ＭＳ ゴシック
 72
     1
 11
29.897379170143
 21
-47.986756287726
 31
0.0
100
AcDbText
 73
     2
  0
TEXT
  5
1720
330
16F3
100
AcDbEntity
  8
表題欄
100
AcDbText
 10
-10.723841243438
 20
-14.837436653514
 30
0.0
 40
1.5
  1
初版作成日 DATE
  7
ＭＳ ゴシック
 72
     1
 11
-3.408598027232
 21
-14.087436653514
 31
0.0
100
AcDbText
 73
     2
  0
TEXT
  5
1721
330
16F3
100
AcDbEntity
  8
表題欄
100
AcDbText
 10
12.829009282394
 20
-48.774815337686
 30
0.0
 40
1.296537313423
  1
早
  7
ＭＳ ゴシック
 72
     4
 11
13.672074685644
 21
-48.192370633613
 31
0.0
100
AcDbText
  0
CIRCLE
  5
1722
330
16F3
100
AcDbEntity
  8
表題欄
100
AcDbCircle
 10
13.672074685644
 20
-48.192370633613
 30
0.0
 40
1.243443373654526
  0
CIRCLE
  5
1723
330
16F3
100
AcDbEntity
  8
表題欄
100
AcDbCircle
 10
14.251608110648
 20
-47.888691940232
 30
0.0
 40
1.899437983206664
  0
ENDBLK
  5
183D
330
16F3
100
AcDbEntity
  8
0
100
AcDbBlockEnd
  0
BLOCK
  5
195A
330
193E
100
AcDbEntity
  8
0
100
AcDbBlockBegin
  2
*T16
 70
     1
 10
0.0
 20
0.0
 30
0.0
  3
*T16
  1

  0
MTEXT
  5
1947
330
193E
100
AcDbEntity
  8
表題欄
 62
     0
100
AcDbMText
 10
18.75
 20
6.875
 30
0.0
 40
7.5
 41
33.75
 46
0.0
 71
     5
 72
     5
  1
符号
  7
ＭＳ ゴシック
 73
     1
 44
1.0
  0
MTEXT
  5
1948
330
193E
100
AcDbEntity
  8
表題欄
 62
     0
100
AcDbMText
 10
62.5
 20
6.875
 30
0.0
 40
7.5
 41
46.25
 46
0.0
 71
     5
 72
     5
  1
日付
  7
ＭＳ ゴシック
 73
     1
 44
1.0
  0
MTEXT
  5
1949
330
193E
100
AcDbEntity
  8
表題欄
 62
     0
100
AcDbMText
 10
106.25
 20
6.875
 30
0.0
 40
7.5
 41
33.75
 46
0.0
 71
     5
 72
     5
  1
訂正者
  7
ＭＳ ゴシック
 73
     1
 44
1.0
  0
MTEXT
  5
194A
330
193E
100
AcDbEntity
  8
表題欄
 62
     0
100
AcDbMText
 10
287.5
 20
6.875
 30
0.0
 40
7.5
 41
321.25
 46
0.0
 71
     5
 72
     5
  1
訂正概要
  7
ＭＳ ゴシック
 73
     1
 44
1.0
  0
INSERT
  5
194B
330
193E
100
AcDbEntity
  8
表題欄
 62
     0
100
AcDbBlockReference
  2
*U33
 10
12.976497308098
 20
15.625
 30
0.0
  0
INSERT
  5
194C
330
193E
100
AcDbEntity
  8
表題欄
 62
     0
100
AcDbBlockReference
  2
*U34
 10
12.976497308098
 20
29.375
 30
0.0
  0
INSERT
  5
194D
330
193E
100
AcDbEntity
  8
表題欄
 62
     0
100
AcDbBlockReference
  2
*U35
 10
12.976497308098
 20
43.125
 30
0.0
  0
INSERT
  5
194E
330
193E
100
AcDbEntity
  8
表題欄
 62
     0
100
AcDbBlockReference
  2
*U36
 10
12.976497308098
 20
56.875
 30
0.0
  0
LINE
  5
194F
330
193E
100
AcDbEntity
  8
表題欄
  6
ByBlock
 62
     0
370
    -2
100
AcDbLine
 10
0.0
 20
0.0
 30
0.0
 11
450.0
 21
0.0
 31
0.0
  0
LINE
  5
1950
330
193E
100
AcDbEntity
  8
表題欄
  6
ByBlock
 62
     0
370
    -2
100
AcDbLine
 10
0.0
 20
0.0
 30
0.0
 11
0.0
 21
68.75
 31
0.0
  0
LINE
  5
1951
330
193E
100
AcDbEntity
  8
表題欄
  6
ByBlock
 62
     0
370
    -2
100
AcDbLine
 10
37.5
 20
0.0
 30
0.0
 11
37.5
 21
68.75
 31
0.0
  0
LINE
  5
1952
330
193E
100
AcDbEntity
  8
表題欄
  6
ByBlock
 62
     0
370
    -2
100
AcDbLine
 10
87.5
 20
0.0
 30
0.0
 11
87.5
 21
68.75
 31
0.0
  0
LINE
  5
1953
330
193E
100
AcDbEntity
  8
表題欄
  6
ByBlock
 62
     0
370
    -2
100
AcDbLine
 10
125.0
 20
0.0
 30
0.0
 11
125.0
 21
68.75
 31
0.0
  0
LINE
  5
1954
330
193E
100
AcDbEntity
  8
表題欄
  6
ByBlock
 62
     0
370
    -2
100
AcDbLine
 10
450.0
 20
0.0
 30
0.0
 11
450.0
 21
68.75
 31
0.0
  0
LINE
  5
1955
330
193E
100
AcDbEntity
  8
表題欄
  6
ByBlock
 62
     0
370
    -2
100
AcDbLine
 10
0.0
 20
13.75
 30
0.0
 11
450.0
 21
13.75
 31
0.0
  0
LINE
  5
1956
330
193E
100
AcDbEntity
  8
表題欄
  6
ByBlock
 62
     0
370
    -2
100
AcDbLine
 10
0.0
 20
27.5
 30
0.0
 11
450.0
 21
27.5
 31
0.0
  0
LINE
  5
1957
330
193E
100
AcDbEntity
  8
表題欄
  6
ByBlock
 62
     0
370
    -2
100
AcDbLine
 10
0.0
 20
41.25
 30
0.0
 11
450.0
 21
41.25
 31
0.0
  0
LINE
  5
1958
330
193E
100
AcDbEntity
  8
表題欄
  6
ByBlock
 62
     0
370
    -2
100
AcDbLine
 10
0.0
 20
55.0
 30
0.0
 11
450.0
 21
55.0
 31
0.0
  0
LINE
  5
1959
330
193E
100
AcDbEntity
  8
表題欄
  6
ByBlock
 62
     0
370
    -2
100
AcDbLine
 10
0.0
 20
68.75
 30
0.0
 11
450.0
 21
68.75
 31
0.0
  0
ENDBLK
  5
195B
330
193E
100
AcDbEntity
  8
0
100
AcDbBlockEnd
  0
BLOCK
  5
1974
330
1964
100
AcDbEntity
  8
0
100
AcDbBlockBegin
  2
*U21
 70
     1
 10
0.0
 20
0.0
 30
0.0
  3
*U21
  1

  0
INSERT
  5
1965
330
1964
100
AcDbEntity
  8
0
100
AcDbBlockReference
  2
囲い文字1
 10
4.163741498082
 20
44.833324013919
 30
0.0
 41
3.446987668374
 42
3.446987668374
 43
3.446987668374
  0
ENDBLK
  5
1975
330
1964
100
AcDbEntity
  8
0
100
AcDbBlockEnd
  0
BLOCK
  5
1976
330
1966
100
AcDbEntity
  8
0
100
AcDbBlockBegin
  2
*U22
 70
     1
 10
0.0
 20
0.0
 30
0.0
  3
*U22
  1

  0
INSERT
  5
1967
330
1966
100
AcDbEntity
  8
0
100
AcDbBlockReference
  2
囲い文字2
 10
29.020280082295
 20
-53.885965169321
 30
0.0
 41
3.446987668374
 42
3.446987668374
 43
3.446987668374
  0
ENDBLK
  5
1977
330
1966
100
AcDbEntity
  8
0
100
AcDbBlockEnd
  0
BLOCK
  5
1978
330
1968
100
AcDbEntity
  8
0
100
AcDbBlockBegin
  2
*U23
 70
     1
 10
0.0
 20
0.0
 30
0.0
  3
*U23
  1

  0
INSERT
  5
1969
330
1968
100
AcDbEntity
  8
0
100
AcDbBlockReference
  2
囲い文字3
 10
14.463195287959
 20
-24.903733959604
 30
0.0
 41
3.446987668374
 42
3.446987668374
 43
3.446987668374
  0
ENDBLK
  5
1979
330
1968
100
AcDbEntity
  8
0
100
AcDbBlockEnd
  0
BLOCK
  5
197A
330
196A
100
AcDbEntity
  8
0
100
AcDbBlockBegin
  2
*U24
 70
     1
 10
0.0
 20
0.0
 30
0.0
  3
*U24
  1

  0
INSERT
  5
196B
330
196A
100
AcDbEntity
  8
0
100
AcDbBlockReference
  2
囲い文字4
 10
15.531435594298
 20
-18.313096846695
 30
0.0
 41
3.446987668374
 42
3.446987668374
 43
3.446987668374
  0
ENDBLK
  5
197B
330
196A
100
AcDbEntity
  8
0
100
AcDbBlockEnd
  0
BLOCK
  5
1996
330
1994
100
AcDbEntity
  8
0
100
AcDbBlockBegin
  2
*U33
 70
     1
 10
0.0
 20
0.0
 30
0.0
  3
*U33
  1

  0
INSERT
  5
1995
330
1994
100
AcDbEntity
  8
0
100
AcDbBlockReference
  2
囲い文字1
 10
4.163741498082
 20
44.833324013919
 30
0.0
 41
3.446987668374
 42
3.446987668374
 43
3.446987668374
  0
ENDBLK
  5
1997
330
1994
100
AcDbEntity
  8
0
100
AcDbBlockEnd
  0
BLOCK
  5
199A
330
1998
100
AcDbEntity
  8
0
100
AcDbBlockBegin
  2
*U34
 70
     1
 10
0.0
 20
0.0
 30
0.0
  3
*U34
  1

  0
INSERT
  5
1999
330
1998
100
AcDbEntity
  8
0
100
AcDbBlockReference
  2
囲い文字2
 10
29.020280082295
 20
-53.885965169321
 30
0.0
 41
3.446987668374
 42
3.446987668374
 43
3.446987668374
  0
ENDBLK
  5
199B
330
1998
100
AcDbEntity
  8
0
100
AcDbBlockEnd
  0
BLOCK
  5
199E
330
199C
100
AcDbEntity
  8
0
100
AcDbBlockBegin
  2
*U35
 70
     1
 10
0.0
 20
0.0
 30
0.0
  3
*U35
  1

  0
INSERT
  5
199D
330
199C
100
AcDbEntity
  8
0
100
AcDbBlockReference
  2
囲い文字3
 10
14.463195287959
 20
-24.903733959604
 30
0.0
 41
3.446987668374
 42
3.446987668374
 43
3.446987668374
  0
ENDBLK
  5
199F
330
199C
100
AcDbEntity
  8
0
100
AcDbBlockEnd
  0
BLOCK
  5
19A2
330
19A0
100
AcDbEntity
  8
0
100
AcDbBlockBegin
  2
*U36
 70
     1
 10
0.0
 20
0.0
 30
0.0
  3
*U36
  1

  0
INSERT
  5
19A1
330
19A0
100
AcDbEntity
  8
0
100
AcDbBlockReference
  2
囲い文字4
 10
15.531435594298
 20
-18.313096846695
 30
0.0
 41
3.446987668374
 42
3.446987668374
 43
3.446987668374
  0
ENDBLK
  5
19A3
330
19A0
100
AcDbEntity
  8
0
100
AcDbBlockEnd
  0
ENDSEC
  0
SECTION
  2
ENTITIES
  0
LINE
  5
1848
330
A
100
AcDbEntity
  8
寸法線
100
AcDbLine
 10
680.104929617672
 20
724.373923634263
 30
0.0
 11
747.217428169461
 21
840.617513399193
 31
0.0
  0
LWPOLYLINE
  5
1849
330
A
100
AcDbEntity
  8
寸法線
100
AcDbPolyline
 90
        3
 70
     0
 43
0.0
 10
684.347549246573
 20
728.61658537947
 10
680.104929617672
 20
724.373923634263
 10
681.657815122286
 20
730.169486299739
  0
LINE
  5
184A
330
A
100
AcDbEntity
  8
寸法線
100
AcDbLine
 10
747.217428169446
 20
840.617513399193
 30
0.0
 11
759.217428169446
 21
840.617513399193
 31
0.0
  0
TEXT
  5
184B
330
A
100
AcDbEntity
  8
文字
100
AcDbText
 10
763.758006985183
 20
836.779024992669
 30
0.0
 40
12.0
  1
不定形シーリング材(別途)
  7
基本スタイル
100
AcDbText
1001
AcadAnnotative
1000
AnnotativeData
1002
{
1070
     1
1070
     0
1002
}
  0
HATCH
  5
184C
330
A
100
AcDbEntity
  8
シーリング(IBｼﾘｺｰﾝ)
100
AcDbHatch
 10
0.0
 20
0.0
 30
0.0
210
0.0
220
0.0
230
1.0
  2
DOTS1
 70
     0
 71
     1
 91
        2
 92
        7
 72
     1
 73
     1
 93
       60
 10
686.0115743634359
 20
710.9671038218364
 42
-0.2276751637595648
 10
680.6351818602022
 20
740.0641442965215
 42
0.0
 10
656.6351818602052
 20
740.0641442965207
 42
0.0
 10
656.6351818602052
 20
737.0641442965207
 42
0.0
 10
660.1351818602052
 20
737.0641442965207
 42
0.0
 10
660.1351818602052
 20
729.2444192489711
 42
0.0
 10
660.1559055591933
 20
729.2316029182912
 42
0.0
 10
660.2946714603604
 20
729.1128731589342
 42
0.0
 10
660.4134152377083
 20
728.9741129470567
 42
0.0
 10
660.5097484367288
 20
728.8183486304479
 42
0.0
 10
660.5817749748458
 20
728.6470041472858
 42
0.0
 10
660.5818709607993
 20
728.6466106474909
 42
0.0
 10
660.7448401072979
 20
728.4129299164197
 42
0.0
 10
660.8600123618817
 20
728.2254217826339
 42
0.0
 10
661.0672025803797
 20
727.9546826076039
 42
0.0
 10
661.2234527528053
 20
727.5918329511405
 42
0.0
 10
661.3284055735276
 20
727.3316574601704
 42
0.0
 10
661.4240911173329
 20
727.0520207107875
 42
0.0
 10
661.5047981522075
 20
726.768251248337
 42
0.0
 10
661.5706506839415
 20
726.4809076914753
 42
0.0
 10
661.5807692906819
 20
726.4234032053719
 42
0.0
 10
661.6528179482484
 20
726.3158362839349
 42
0.0
 10
661.8391788343288
 20
725.9974304262141
 42
0.0
 10
662.0051285757872
 20
725.66915454009
 42
0.0
 10
662.1501931943931
 20
725.3317967998191
 42
0.0
 10
662.2738511073694
 20
724.986198311497
 42
0.0
 10
662.3757586525899
 20
724.6331683699791
 42
0.0
 10
662.4554772164192
 20
724.2735495063534
 42
0.0
 10
662.5127119240788
 20
723.9083112029839
 42
0.0
 10
662.5471931757274
 20
723.5383119688049
 42
0.0
 10
662.5580780461387
 20
723.1855464019936
 42
0.0
 10
662.5585528269148
 20
723.1442570380896
 42
0.0
 10
662.5580784677004
 20
723.1029420735576
 42
0.0
 10
662.5471955268076
 20
722.7501707634947
 42
0.0
 10
662.5127164823934
 20
722.3801713229041
 42
0.0
 10
662.4554839534903
 20
722.0149326782885
 42
0.0
 10
662.3757675350425
 20
721.655313339128
 42
0.0
 10
662.2738620956516
 20
721.3022827893001
 42
0.0
 10
662.1502062444124
 20
720.9566835638107
 42
0.0
 10
662.0051436382637
 20
720.6193249575663
 42
0.0
 10
661.8391958546781
 20
720.2910480816208
 42
0.0
 10
661.6528368686122
 20
719.9726411128795
 42
0.0
 10
661.5807888526178
 20
719.8650737614444
 42
0.0
 10
661.5706705888006
 20
719.807569214423
 42
0.0
 10
661.5048197711585
 20
719.520225265238
 42
0.0
 10
661.4273973452
 20
719.2479984585952
 42
0.0
 10
661.3329230393138
 20
718.9486349547587
 42
0.0
 10
661.2175678821368
 20
718.6626674078216
 42
0.0
 10
661.0575024179561
 20
718.3210782979841
 42
0.0
 10
660.8600423864846
 20
718.0630508929316
 42
0.0
 10
660.7448714220445
 20
717.8755423514522
 42
0.0
 10
660.5819036680114
 20
717.641860645781
 42
0.0
 10
660.5818076833384
 20
717.6414671410457
 42
0.0
 10
660.5097821712552
 20
717.4701222386248
 42
0.0
 10
660.4134499015199
 20
717.3143573439447
 42
0.0
 10
660.2947069506044
 20
717.1755964243857
 42
0.0
 10
660.1559417571334
 20
717.0568658344127
 42
0.0
 10
660.1351818602052
 20
717.0440269466999
 42
0.0
 10
660.1351818602052
 20
714.0439983502292
 42
0.0
 10
685.6098817235189
 20
710.2713437852752
 42
0.0
 97
       11
330
18A9
330
18AA
330
18B2
330
18AD
330
18B1
330
18AF
330
18AE
330
18B0
330
18AC
330
18AB
330
184D
 92
        7
 72
     1
 73
     1
 93
        3
 10
685.6098817235189
 20
710.2713437852752
 42
0.0
 10
686.652542874901
 20
710.1169317461317
 42
-0.0077891744432039
 10
686.0115743634359
 20
710.9671038218364
 42
0.0
 97
        3
330
18AB
330
18A9
330
184D
 75
     0
 76
     1
 52
45.0
 41
30.0
 77
     0
 78
     1
 53
45.0
 43
-35373.39002125797
 44
-27220.0
 45
-0.6629126073623883
 46
1.988737822087165
 79
     2
 49
0.0
 49
-1.875
 47
0.0
 98
        2
 10
668.8099787420288
 20
736.6000000000022
 10
686.2299787420343
 20
710.5400000000009
1001
ACAD
1010
0.0
1020
0.0
1030
0.0
1001
HATCHBACKGROUNDCOLOR
1071
-939524096
1000

1000

  0
LINE
  5
184D
102
{ACAD_REACTORS
330
184C
102
}
330
A
100
AcDbEntity
  8
寸法線
100
AcDbLine
 10
674.512429361763
 20
691.049772131519
 30
0.0
 11
738.497504918239
 21
801.876444280009
 31
0.0
  0
LWPOLYLINE
  5
184E
330
A
100
AcDbEntity
  8
寸法線
100
AcDbPolyline
 90
        3
 70
     0
 43
0.0
 10
678.755048990664
 20
695.292433876726
 10
674.512429361763
 20
691.049772131519
 10
676.065314866377
 20
696.845334796999
  0
LINE
  5
184F
330
A
100
AcDbEntity
  8
寸法線
100
AcDbLine
 10
738.497504918232
 20
801.876444280009
 30
0.0
 11
750.497504918232
 21
801.876444280009
 31
0.0
  0
TEXT
  5
1850
330
A
100
AcDbEntity
  8
文字
100
AcDbText
 10
755.038083733969
 20
798.037955873493
 30
0.0
 40
12.0
  1
先打ちIBシリコーン(別途)
  7
基本スタイル
100
AcDbText
1001
AcadAnnotative
1000
AnnotativeData
1002
{
1070
     1
1070
     0
1002
}
  0
LWPOLYLINE
  5
1851
330
A
100
AcDbEntity
  8
寸法線
100
AcDbPolyline
 90
        3
 70
     0
 43
0.0
 10
710.377801489107
 20
693.972982871259
 10
706.135181860205
 20
689.730321126051
 10
707.688067364819
 20
695.525883791532
  0
LINE
  5
1852
330
A
100
AcDbEntity
  8
寸法線
100
AcDbLine
 10
742.534239116212
 20
752.776060307304
 30
0.0
 11
754.534239116212
 21
752.776060307304
 31
0.0
  0
TEXT
  5
1853
330
A
100
AcDbEntity
  8
文字
100
AcDbText
 10
759.074817931949
 20
748.93757190078
 30
0.0
 40
12.0
  1
アルミ水切り(別途)
  7
基本スタイル
100
AcDbText
1001
AcadAnnotative
1000
AnnotativeData
1002
{
1070
     1
1070
     0
1002
}
  0
LINE
  5
1854
330
A
100
AcDbEntity
  8
寸法線
100
AcDbLine
 10
706.135181860205
 20
689.730321126051
 30
0.0
 11
742.534239116219
 21
752.776060307304
 31
0.0
  0
LWPOLYLINE
  5
1855
330
A
100
AcDbEntity
  8
輪郭線
100
AcDbPolyline
 90
        4
 70
     1
 43
0.0
 10
1640.0
 20
1148.0
 10
40.0
 20
1148.0
 10
40.0
 20
40.0
 10
1640.0
 20
40.0
  0
LWPOLYLINE
  5
1856
330
A
100
AcDbEntity
  8
図面枠
100
AcDbPolyline
 90
        4
 70
     1
 43
0.0
 10
1680.0
 20
0.0
 10
1680.0
 20
1188.0
 10
0.0
 20
1188.0
 10
0.0
 20
0.0
  0
TEXT
  5
1857
330
A
100
AcDbEntity
  8
文字
100
AcDbText
 10
1381.016085259787
 20
201.201143699771
 30
0.0
 40
12.0
  1
＊防水部材の厚みはフリースケール
  7
ＭＳ ゴシック
 72
     1
 11
1505.86290281637
 21
207.201143699771
 31
0.0
100
AcDbText
 73
     2
  0
ACAD_TABLE
  5
1858
102
{ACAD_XDICTIONARY
360
19D9
102
}
330
A
100
AcDbEntity
  8
表題欄
160
               344
310
5801000002000000CC000000260000000000000000FC8C400000000000004440000000000000000000000000000000000000000000000000000000000000F03F000000000000F03F0000000000000000000000000000000041006300440062005400610062006C006500000009000000000000000000000000000000000000
310
000000F03F0000000000000000000000000000F03F00000000000000000000000000000000000000000000000000000000000000000000000000000000740078007400000042004900470046004F004E00540000008400000006000000050000000000000000FC8C4000000000000044400000000000000000000000000086
310
95400000000000004440000000000000000000000000008695400000000000305B4000000000000000000000000000FC8C400000000000305B4000000000000000000000000000FC8C4000000000000044400000000000000000
100
AcDbBlockReference
  2
*T16
 10
927.5
 20
40.0
 30
0.0
100
AcDbTable
342
1662
343
193E
 11
1.0
 21
0.0
 31
0.0
 90
        6
 91
        5
 92
        4
 93
       24
 94
        0
 95
        0
 96
        0
 40
1.875
 41
1.875
141
13.75
141
13.75
141
13.75
141
13.75
141
13.75
142
37.5
142
50.0
142
37.5
142
325.0
171
     1
172
     0
173
     0
174
     0
175
     1
176
     1
 91
       32
178
     0
145
0.0
140
7.5
 92
        0
301
CELL_VALUE
 93
        4
 90
        4
  1
符号
 94
        0
300

302
符号
304
ACVALUE_END
171
     1
172
     0
173
     0
174
     0
175
     1
176
     1
 91
       32
178
     0
145
0.0
140
7.5
 92
        0
301
CELL_VALUE
 93
        4
 90
        4
  1
日付
 94
        0
300

302
日付
304
ACVALUE_END
171
     1
172
     0
173
     0
174
     0
175
     1
176
     1
 91
       32
178
     0
145
0.0
140
7.5
 92
        0
301
CELL_VALUE
 93
        4
 90
        4
  1
訂正者
 94
        0
300

302
訂正者
304
ACVALUE_END
171
     1
172
     0
173
     0
174
     0
175
     1
176
     1
 91
       32
178
     0
145
0.0
140
7.5
 92
        0
301
CELL_VALUE
 93
        4
 90
        4
  1
訂正概要
 94
        0
300

302
訂正概要
304
ACVALUE_END
171
     1
172
     0
173
     0
174
     0
175
     1
176
     1
 91
       32
178
     0
145
0.0
140
7.5
 92
        0
301
CELL_VALUE
 93
        4
 90
        4
  1

 94
        0
300

302

304
ACVALUE_END
171
     1
172
     0
173
     0
174
     0
175
     1
176
     1
 91
       32
178
     0
145
0.0
140
7.5
 92
        0
301
CELL_VALUE
 93
        4
 90
        4
  1

 94
        0
300

302

304
ACVALUE_END
171
     1
172
     0
173
     0
174
     0
175
     1
176
     1
 91
       32
178
     0
145
0.0
140
7.5
 92
        0
301
CELL_VALUE
 93
        4
 90
        4
  1

 94
        0
300

302

304
ACVALUE_END
171
     1
172
     0
173
     0
174
     0
175
     1
176
     1
 91
       33
178
     0
145
0.0
170
     4
140
7.5
 92
        0
301
CELL_VALUE
 93
        4
 90
        4
  1

 94
        0
300

302

304
ACVALUE_END
171
     1
172
     0
173
     0
174
     0
175
     1
176
     1
 91
       33
178
     0
145
0.0
170
     5
140
7.5
 92
        0
301
CELL_VALUE
 93
        4
 90
        4
  1

 94
        0
300

302

304
ACVALUE_END
171
     1
172
     0
173
     0
174
     0
175
     1
176
     1
 91
       33
178
     0
145
0.0
170
     5
140
7.5
 92
        0
301
CELL_VALUE
 93
        4
 90
        4
  1

 94
        0
300

302

304
ACVALUE_END
171
     1
172
     0
173
     0
174
     0
175
     1
176
     1
 91
       33
178
     0
145
0.0
170
     5
140
7.5
 92
        0
301
CELL_VALUE
 93
        4
 90
        4
  1

 94
        0
300

302

304
ACVALUE_END
171
     1
172
     0
173
     0
174
     0
175
     1
176
     1
 91
       33
178
     0
145
0.0
170
     4
140
7.5
 92
        0
301
CELL_VALUE
 93
        4
 90
        4
  1

 94
        0
300

302

304
ACVALUE_END
171
     1
172
     0
173
     0
174
     0
175
     1
176
     1
 91
       33
178
     0
145
0.0
170
     5
140
7.5
 92
        0
301
CELL_VALUE
 93
        4
 90
        4
  1

 94
        0
300

302

304
ACVALUE_END
171
     1
172
     0
173
     0
174
     0
175
     1
176
     1
 91
       33
178
     0
145
0.0
170
     5
140
7.5
 92
        0
301
CELL_VALUE
 93
        4
 90
        4
  1

 94
        0
300

302

304
ACVALUE_END
171
     1
172
     0
173
     0
174
     0
175
     1
176
     1
 91
       33
178
     0
145
0.0
170
     5
140
7.5
 92
        0
301
CELL_VALUE
 93
        4
 90
        4
  1

 94
        0
300

302

304
ACVALUE_END
171
     1
172
     0
173
     0
174
     0
175
     1
176
     1
 91
       33
178
     0
145
0.0
170
     4
140
7.5
 92
        0
301
CELL_VALUE
 93
        4
 90
        4
  1

 94
        0
300

302

304
ACVALUE_END
171
     1
172
     0
173
     0
174
     0
175
     1
176
     1
 91
       33
178
     0
145
0.0
170
     5
140
7.5
 92
        0
301
CELL_VALUE
 93
        4
 90
        4
  1

 94
        0
300

302

304
ACVALUE_END
171
     1
172
     0
173
     0
174
     0
175
     1
176
     1
 91
       33
178
     0
145
0.0
170
     5
140
7.5
 92
        0
301
CELL_VALUE
 93
        4
 90
        4
  1

 94
        0
300

302

304
ACVALUE_END
171
     1
172
     0
173
     0
174
     0
175
     1
176
     1
 91
       33
178
     0
145
0.0
170
     5
140
7.5
 92
        0
301
CELL_VALUE
 93
        4
 90
        4
  1

 94
        0
300

302

304
ACVALUE_END
171
     1
172
     0
173
     0
174
     0
175
     1
176
     1
 91
       33
178
     0
145
0.0
170
     4
140
7.5
 92
        0
301
CELL_VALUE
 93
        4
 90
        4
  1

 94
        0
300

302

304
ACVALUE_END
  0
INSERT
  5
1859
330
A
100
AcDbEntity
  8
表題欄
100
AcDbBlockReference
 66
     1
  2
表題欄(定義)
 10
1421.384392108928
 20
240.349701250074
 30
0.0
 41
4.0
 42
4.0
 43
4.0
  0
ATTRIB
  5
185A
102
{ACAD_XDICTIONARY
360
185B
102
}
330
1859
100
AcDbEntity
  8
表題欄
100
AcDbText
 10
1518.100000000006
 20
75.999909272054
 30
0.0
 40
6.0
  1

  7
ＭＳ ゴシック
100
AcDbAttribute
  2
REMARKS
 70
     0
280
     0
1001
AcadAnnotative
1000
AnnotativeData
1002
{
1070
     1
1070
     0
1002
}
  0
ATTRIB
  5
185E
102
{ACAD_XDICTIONARY
360
185F
102
}
330
1859
100
AcDbEntity
  8
表題欄
100
AcDbText
 10
1456.505610854077
 20
75.999909272054
 30
0.0
 40
6.0
  1
A3-1:4
  7
ＭＳ ゴシック
 72
     1
 11
1468.210000000006
 21
78.999909272054
 31
0.0
100
AcDbAttribute
  2
SCALE
 70
     0
 74
     2
280
     0
1001
AcadAnnotative
1000
AnnotativeData
1002
{
1070
     1
1070
     0
1002
}
  0
ATTRIB
  5
1862
102
{ACAD_XDICTIONARY
360
1863
102
}
330
1859
100
AcDbEntity
  8
表題欄
100
AcDbText
 10
1454.5
 20
108.999909272054
 30
0.0
 40
6.0
  1
LLHD-BK01
  7
ＭＳ ゴシック
100
AcDbAttribute
  2
DRAWING　NO.
 70
     0
280
     0
1001
AcadAnnotative
1000
AnnotativeData
1002
{
1070
     1
1070
     0
1002
}
  0
ATTRIB
  5
1866
102
{ACAD_XDICTIONARY
360
1867
102
}
330
1859
100
AcDbEntity
  8
表題欄
100
AcDbText
 10
1454.5
 20
138.999909272054
 30
0.0
 40
6.0
  1
防水押え壁
  7
ＭＳ ゴシック
100
AcDbAttribute
  2
POSITION
 70
     0
280
     0
1001
AcadAnnotative
1000
AnnotativeData
1002
{
1070
     1
1070
     0
1002
}
  0
ATTRIB
  5
186A
102
{ACAD_XDICTIONARY
360
186B
102
}
330
1859
100
AcDbEntity
  8
表題欄
100
AcDbText
 10
1454.5
 20
168.999909272054
 30
0.0
 40
6.0
  1
高耐久仕様・非断熱機械的固定 LL-HD工法
  7
ＭＳ ゴシック
100
AcDbAttribute
  2
NAME
 70
     0
280
     0
1001
AcadAnnotative
1000
AnnotativeData
1002
{
1070
     1
1070
     0
1002
}
  0
ATTRIB
  5
186E
102
{ACAD_XDICTIONARY
360
186F
102
}
330
1859
100
AcDbEntity
  8
表題欄
100
AcDbText
 10
1398.996342378392
 20
45.999909272054
 30
0.0
 40
6.0
  1
小 山
  7
ＭＳ ゴシック
 72
     1
 11
1408.75
 21
48.999909272054
 31
0.0
100
AcDbAttribute
  2
DRAWING
 70
     0
 74
     2
280
     0
1001
AcadAnnotative
1000
AnnotativeData
1002
{
1070
     1
1070
     0
1002
}
  0
ATTRIB
  5
1872
330
1859
100
AcDbEntity
  8
表題欄
100
AcDbText
 10
1408.75
 20
75.999909272054
 30
0.0
 40
6.0
  1

  7
ＭＳ ゴシック
 72
     1
 11
1408.75
 21
78.999909272054
 31
0.0
100
AcDbAttribute
  2
DESIGNED
 70
     0
 74
     2
280
     0
  0
ATTRIB
  5
1873
102
{ACAD_XDICTIONARY
360
1874
102
}
330
1859
100
AcDbEntity
  8
表題欄
100
AcDbText
 10
1398.996342378392
 20
105.999909272054
 30
0.0
 40
6.0
  1
早 川
  7
ＭＳ ゴシック
 72
     1
 11
1408.75
 21
108.999909272054
 31
0.0
100
AcDbAttribute
  2
CHECKED
 70
     0
 74
     2
280
     0
1001
AcadAnnotative
1000
AnnotativeData
1002
{
1070
     1
1070
     0
1002
}
  0
ATTRIB
  5
1877
102
{ACAD_XDICTIONARY
360
1878
102
}
330
1859
100
AcDbEntity
  8
表題欄
100
AcDbText
 10
1393.144147805427
 20
135.999909272054
 30
0.0
 40
6.0
  1
20210317
  7
ＭＳ ゴシック
 72
     1
 11
1408.75
 21
138.999909272054
 31
0.0
100
AcDbAttribute
  2
ISSUE
 70
     0
 74
     2
280
     0
1001
AcadAnnotative
1000
AnnotativeData
1002
{
1070
     1
1070
     0
1002
}
  0
ATTRIB
  5
187B
102
{ACAD_XDICTIONARY
360
187C
102
}
330
1859
100
AcDbEntity
  8
表題欄
100
AcDbText
 10
1393.144147805427
 20
165.999909272054
 30
0.0
 40
6.0
  1
20200309
  7
ＭＳ ゴシック
 72
     1
 11
1408.75
 21
168.999909272054
 31
0.0
100
AcDbAttribute
  2
DATE
 70
     0
 74
     2
280
     0
1001
AcadAnnotative
1000
AnnotativeData
1002
{
1070
     1
1070
     0
1002
}
  0
SEQEND
  5
187F
330
1859
100
AcDbEntity
  8
表題欄
  0
LINE
  5
1880
330
A
100
AcDbEntity
  8
躯体
  6
DASHED
 48
5.0
100
AcDbLine
 10
660.635181860205
 20
311.064144296521
 30
0.0
 11
660.635181860205
 21
690.295210669086
 31
0.0
  0
LINE
  5
1881
330
A
100
AcDbEntity
  8
躯体
100
AcDbLine
 10
680.635181860205
 20
741.064144296521
 30
0.0
 11
680.635181860205
 21
911.064144296521
 31
0.0
  0
LINE
  5
1882
330
A
100
AcDbEntity
  8
躯体
100
AcDbLine
 10
660.635181860205
 20
311.064144296521
 30
0.0
 11
1280.635181860205
 21
311.064144296521
 31
0.0
  0
LINE
  5
1883
330
A
100
AcDbEntity
  8
躯体
100
AcDbLine
 10
680.635181860205
 20
911.064144296521
 30
0.0
 11
680.635181860205
 21
741.064144296521
 31
0.0
  0
LINE
  5
1884
330
A
100
AcDbEntity
  8
躯体
100
AcDbLine
 10
680.635181860205
 20
741.064144296521
 30
0.0
 11
655.635181860205
 21
741.064144296521
 31
0.0
  0
LINE
  5
1885
330
A
100
AcDbEntity
  8
躯体
100
AcDbLine
 10
956.348474054284
 20
311.064144296521
 30
0.0
 11
1122.997367681513
 21
161.064144296521
 31
0.0
  0
LINE
  5
1886
330
A
100
AcDbEntity
  8
躯体
100
AcDbLine
 10
960.635181860205
 20
311.064144296521
 30
0.0
 11
1127.182934599667
 21
161.064144296521
 31
0.0
  0
LINE
  5
1887
330
A
100
AcDbEntity
  8
躯体
100
AcDbLine
 10
964.91267484703
 20
311.064144296521
 30
0.0
 11
1131.628811184637
 21
161.064144296524
 31
0.0
  0
LINE
  5
1888
330
A
100
AcDbEntity
  8
躯体
100
AcDbLine
 10
540.635181860205
 20
696.12198718555
 30
0.0
 11
660.635181860205
 21
804.13350534338
 31
0.0
  0
LINE
  5
1889
330
A
100
AcDbEntity
  8
躯体
100
AcDbLine
 10
540.635181860205
 20
692.285403063608
 30
0.0
 11
660.635181860205
 21
800.362514306045
 31
0.0
  0
LINE
  5
188A
330
A
100
AcDbEntity
  8
躯体
100
AcDbLine
 10
542.03611826172
 20
689.66088431557
 30
0.0
 11
660.635181860205
 21
796.368368849326
 31
0.0
  0
LINE
  5
188B
330
A
100
AcDbEntity
  8
躯体
100
AcDbLine
 10
540.635181860205
 20
350.697018131599
 30
0.0
 11
660.635181860205
 21
458.708536289436
 31
0.0
  0
LINE
  5
188C
330
A
100
AcDbEntity
  8
躯体
100
AcDbLine
 10
540.635181860205
 20
346.871366190433
 30
0.0
 11
660.635181860205
 21
454.948477432867
 31
0.0
  0
LINE
  5
188D
330
A
100
AcDbEntity
  8
躯体
100
AcDbLine
 10
540.635181860205
 20
342.968185797981
 30
0.0
 11
660.635181860205
 21
450.93613896329
 31
0.0
  0
LINE
  5
188E
330
A
100
AcDbEntity
  8
躯体
  6
DASHED
 48
5.0
100
AcDbLine
 10
660.635181860205
 20
911.064144296521
 30
0.0
 11
660.635181860205
 21
741.064144296521
 31
0.0
  0
LINE
  5
188F
330
A
100
AcDbEntity
  8
躯体
100
AcDbLine
 10
655.635181860205
 20
693.181962015035
 30
0.0
 11
655.635181860205
 21
741.064144296521
 31
0.0
  0
ARC
  5
1890
330
A
100
AcDbEntity
  8
実線
100
AcDbCircle
 10
659.135181860205
 20
713.181962015031
 30
0.0
 40
2.500000000000878
100
AcDbArc
 50
180.0
 51
260.537677791932
  0
LINE
  5
1891
330
A
100
AcDbEntity
  8
実線
100
AcDbLine
 10
658.72418439194
 20
710.715977205451
 30
0.0
 11
703.593401809572
 21
704.071107635849
 31
0.0
  0
ARC
  5
1892
330
A
100
AcDbEntity
  8
実線
100
AcDbCircle
 10
703.585181860202
 20
704.021787939659
 30
0.0
 40
0.0500000000006481
100
AcDbArc
 50
0.000000004169
 51
80.537677786513
  0
LINE
  5
1893
330
A
100
AcDbEntity
  8
実線
100
AcDbLine
 10
703.635181860205
 20
704.021787939655
 30
0.0
 11
703.635181860205
 21
649.320439646115
 31
0.0
  0
ARC
  5
1894
330
A
100
AcDbEntity
  8
実線
100
AcDbCircle
 10
703.585181860202
 20
649.320439646115
 30
0.0
 40
0.0500000000017189
100
AcDbArc
 50
225.0
 51
0.0
  0
LINE
  5
1895
330
A
100
AcDbEntity
  8
実線
100
AcDbLine
 10
703.549826521143
 20
649.285084307056
 30
0.0
 11
699.392541173089
 21
653.442369655117
 31
0.0
  0
LINE
  5
1896
330
A
100
AcDbEntity
  8
実線
100
AcDbLine
 10
699.392541173089
 20
653.442369655117
 30
0.0
 11
697.624774220116
 21
651.674602702151
 31
0.0
  0
LINE
  5
1897
330
A
100
AcDbEntity
  8
実線
100
AcDbLine
 10
697.624774220116
 20
651.674602702151
 30
0.0
 11
701.867414907239
 21
647.431962015035
 31
0.0
  0
ARC
  5
1898
330
A
100
AcDbEntity
  8
実線
100
AcDbCircle
 10
703.635181860205
 20
649.199728968
 30
0.0
 40
2.499999999999635
100
AcDbArc
 50
225.0
 51
0.0
  0
LINE
  5
1899
330
A
100
AcDbEntity
  8
実線
100
AcDbLine
 10
706.135181860205
 20
649.199728968
 30
0.0
 11
706.135181860205
 21
704.064144294076
 31
0.0
  0
ARC
  5
189A
330
A
100
AcDbEntity
  8
実線
100
AcDbCircle
 10
703.635181860205
 20
704.064144294076
 30
0.0
 40
2.499999999996582
100
AcDbArc
 50
0.0
 51
80.537677791919
  0
LINE
  5
189B
330
A
100
AcDbEntity
  8
実線
100
AcDbLine
 10
704.04617932847
 20
706.530129103652
 30
0.0
 11
659.176961910838
 21
713.174998673261
 31
0.0
  0
ARC
  5
189C
330
A
100
AcDbEntity
  8
実線
100
AcDbCircle
 10
659.185181860201
 20
713.224318369452
 30
0.0
 40
0.0499999999985009
100
AcDbArc
 50
180.0
 51
260.537677794694
  0
LINE
  5
189D
330
A
100
AcDbEntity
  8
実線
100
AcDbLine
 10
659.135181860205
 20
713.224318369452
 30
0.0
 11
659.135181860205
 21
736.064144296521
 31
0.0
  0
LINE
  5
189E
330
A
100
AcDbEntity
  8
実線
100
AcDbLine
 10
659.135181860205
 20
736.064144296521
 30
0.0
 11
656.635181860205
 21
736.064144296521
 31
0.0
  0
LINE
  5
189F
330
A
100
AcDbEntity
  8
実線
100
AcDbLine
 10
656.635181860205
 20
736.064144296521
 30
0.0
 11
656.635181860205
 21
713.181962015035
 31
0.0
  0
LWPOLYLINE
  5
18A0
330
A
100
AcDbEntity
  8
実線
100
AcDbPolyline
 90
        2
 70
     0
 43
0.0
 10
656.635181860205
 20
721.422740919159
 10
656.635181860205
 20
724.86572787528
  0
LWPOLYLINE
  5
18A1
330
A
100
AcDbEntity
  8
実線
100
AcDbPolyline
 90
       15
 70
     1
 43
0.0
 10
656.635181860205
 20
718.319466517976
 10
656.635181860205
 20
727.979466517972
 10
656.457274784312
 20
727.979466517972
 10
653.838204952241
 20
725.805966517975
 10
635.32995595158
 20
725.805966517975
 10
625.435046336257
 20
727.278083931364
 10
625.435046336257
 20
724.308666518154
 10
624.982533539202
 20
724.308666518154
 10
622.478215250383
 20
723.149466517971
 10
624.874703204514
 20
721.977384641694
 10
625.435046336257
 20
721.977384641694
 10
625.435046336257
 20
719.020849104578
 10
635.32995595158
 20
720.492966517973
 10
653.838204952241
 20
720.492966517973
 10
656.457274784312
 20
718.319466517976
  0
LWPOLYLINE
  5
18A2
330
A
100
AcDbEntity
  8
実線
100
AcDbPolyline
 90
        2
 70
     0
 43
0.0
 10
659.135181860205
 20
723.083849193303
 10
659.135181860205
 20
723.144228454083
  0
LWPOLYLINE
  5
18A3
330
A
100
AcDbEntity
  8
実線
100
AcDbPolyline
 90
        4
 70
     0
 43
0.0
 10
659.135181860205
 20
720.206893349787
 10
658.169992080591
 20
721.192103876325
 10
658.169992080591
 20
725.096364918572
 10
659.135164337575
 20
726.081569315735
  0
LWPOLYLINE
  5
18A4
330
A
100
AcDbEntity
  8
実線
100
AcDbPolyline
 90
       51
 70
     0
 43
0.0
 10
659.638299183127
 20
718.05878979338
 10
659.769116596457
 20
718.224567032252
 10
659.907994941947
 20
718.42370660344
 10
660.034758857968
 20
718.630089497958
 10
660.19777743848
 20
718.843111145885
 10
660.300427651724
 20
719.062172735124
 10
660.390986466729
 20
719.286669695764
 10
660.469453883481
 20
719.535311700551
 10
660.535875964481
 20
719.768859936448
 10
660.59022967847
 20
720.00603559181
 10
660.63249199422
 20
720.246222581118
 10
660.63249199422
 20
720.246222581118
 10
660.63249199422
 20
720.246222581118
 10
660.805111098605
 20
720.503942097872
 10
660.960617995581
 20
720.769636179655
 10
661.098713279083
 20
721.042815412729
 10
661.219189668023
 20
721.322996141163
 10
661.321770787552
 20
721.609694709034
 10
661.406272387823
 20
721.902433218209
 10
661.472395062759
 20
722.200728012773
 10
661.519931531271
 20
722.504089678972
 10
661.548628449753
 20
722.812040318699
 10
661.558255505872
 20
723.12410203382
 10
661.558255505872
 20
723.12410203382
 10
661.558255505872
 20
723.12410203382
 10
661.558486816786
 20
723.144248374301
 10
661.558255385775
 20
723.164374798609
 10
661.558255385775
 20
723.164374798609
 10
661.558255385775
 20
723.164374798609
 10
661.548626467811
 20
723.476436456156
 10
661.519927712208
 20
723.784386924497
 10
661.47238943405
 20
724.087748307313
 10
661.406264979589
 20
724.386042707367
 10
661.321761633088
 20
724.678780712289
 10
661.219178803287
 20
724.96547866839
 10
661.098700742812
 20
725.245658677995
 10
660.960603830019
 20
725.518837087431
 10
660.805095347845
 20
725.784530241668
 10
660.632474705948
 20
726.042248728765
 10
660.632474705948
 20
726.042248728765
 10
660.632474705948
 20
726.042248728765
 10
660.590210957489
 20
726.28243546572
 10
660.535855828792
 20
726.519610796757
 10
660.469432354228
 20
726.753158636806
 10
660.390963569524
 20
726.982480172846
 10
660.300403415393
 20
727.206976593247
 10
660.197751895401
 20
727.445357570286
 10
660.034732044565
 20
727.658378533575
 10
659.907966897365
 20
727.864760671931
 10
659.769087363871
 20
728.063899414541
 10
659.638268961375
 20
728.229675873859
  0
LWPOLYLINE
  5
18A5
330
A
100
AcDbEntity
  8
実線
100
AcDbPolyline
 90
       53
 70
     0
 43
0.0
 10
659.638299183127
 20
723.144228454083
 10
659.638299183127
 20
718.013157570749
 10
659.638299183127
 20
718.013157570749
 10
659.63594999718
 20
717.983631527815
 10
659.629132751688
 20
717.955683124455
 10
659.618192915186
 20
717.929657829198
 10
659.603522018668
 20
717.905935657414
 10
659.585488561854
 20
717.884862077626
 10
659.564391950837
 20
717.866811347398
 10
659.540669779053
 20
717.852140450865
 10
659.514644483796
 20
717.841212129984
 10
659.486707596057
 20
717.834389126692
 10
659.457181553116
 20
717.832034182939
 10
659.457181553116
 20
717.832034182939
 10
659.316104421356
 20
717.832034182939
 10
659.286822927555
 20
717.834361466717
 10
659.258884152769
 20
717.841176737449
 10
659.232855833754
 20
717.852097855677
 10
659.209129602714
 20
717.866762186059
 10
659.188027996359
 20
717.884807077055
 10
659.169988707952
 20
717.905875664648
 10
659.155311246628
 20
717.92959377537
 10
659.144364207932
 20
717.955616041487
 10
659.137539227631
 20
717.983562557361
 10
659.1351818701
 20
718.013087948952
 10
659.1351818701
 20
718.013087948952
 10
659.135181860205
 20
723.14423133299
 10
659.135151375296
 20
728.275374716577
 10
659.135151375296
 20
728.275374716577
 10
659.137508556953
 20
728.304900122108
 10
659.144333370357
 20
728.332846678466
 10
659.155280254337
 20
728.358869010255
 10
659.169957573955
 20
728.382587208253
 10
659.187996736837
 20
728.4036559038
 10
659.20909823526
 20
728.421700920298
 10
659.232824379018
 20
728.436365392823
 10
659.258852632811
 20
728.447286665345
 10
659.2867913671
 20
728.454102103417
 10
659.316072848473
 20
728.456429561724
 10
659.457149978734
 20
728.456430402905
 10
659.457149978734
 20
728.456430402905
 10
659.486676035616
 20
728.454075635491
 10
659.514612964289
 20
728.447252798636
 10
659.540638324768
 20
728.436324633389
 10
659.56436058382
 20
728.421653878104
 10
659.585457302812
 20
728.40360327383
 10
659.603490885107
 20
728.382529801551
 10
659.618161923347
 20
728.358807717486
 10
659.629101915045
 20
728.33278248745
 10
659.635919326953
 20
728.304834124574
 10
659.638268689225
 20
728.275308095581
 10
659.638268689225
 20
728.275308095581
 10
659.638299183127
 20
723.14423721315
  0
LINE
  5
18A6
330
A
100
AcDbEntity
  8
実線
100
AcDbLine
 10
658.169992080591
 20
721.192103876325
 30
0.0
 11
656.635181860205
 21
721.192103876325
 31
0.0
  0
LINE
  5
18A7
330
A
100
AcDbEntity
  8
実線
100
AcDbLine
 10
658.169992080591
 20
725.096364918572
 30
0.0
 11
656.635181860205
 21
725.096364918572
 31
0.0
  0
LINE
  5
18A8
330
A
100
AcDbEntity
  8
中心線
 48
0.5
100
AcDbLine
 10
616.797309891896
 20
723.149466517971
 30
0.0
 11
666.238759664753
 21
723.149466517971
 31
0.0
  0
ARC
  5
18A9
102
{ACAD_REACTORS
330
184C
102
}
330
A
100
AcDbEntity
  8
シーリング(IBｼﾘｺｰﾝ)
100
AcDbCircle
 10
713.617379448413
 20
731.113184464702
 30
0.0
 40
34.17521089413512
100
AcDbArc
 50
164.816348546055
 51
217.906217968202
  0
LINE
  5
18AA
102
{ACAD_REACTORS
330
184C
102
}
330
A
100
AcDbEntity
  8
シーリング(IBｼﾘｺｰﾝ)
100
AcDbLine
 10
656.635181860205
 20
740.064144296521
 30
0.0
 11
680.635181860205
 21
740.064144296521
 31
0.0
  0
LINE
  5
18AB
102
{ACAD_REACTORS
330
184C
102
}
330
A
100
AcDbEntity
  8
シーリング(IBｼﾘｺｰﾝ)
100
AcDbLine
 10
686.652542874901
 20
710.116931746132
 30
0.0
 11
660.135181860205
 21
714.043998350229
 31
0.0
  0
LINE
  5
18AC
102
{ACAD_REACTORS
330
184C
102
}
330
A
100
AcDbEntity
  8
シーリング(IBｼﾘｺｰﾝ)
100
AcDbLine
 10
660.135181860205
 20
714.043998350229
 30
0.0
 11
660.135181860205
 21
717.0440269467
 31
0.0
  0
LINE
  5
18AD
102
{ACAD_REACTORS
330
184C
102
}
330
A
100
AcDbEntity
  8
シーリング(IBｼﾘｺｰﾝ)
100
AcDbLine
 10
660.135181860205
 20
737.064144296521
 30
0.0
 11
656.635181860205
 21
737.064144296521
 31
0.0
  0
LWPOLYLINE
  5
18AE
102
{ACAD_REACTORS
330
184C
102
}
330
A
100
AcDbEntity
  8
シーリング(IBｼﾘｺｰﾝ)
100
AcDbPolyline
 90
       41
 70
     0
 43
0.0
 10
660.581903668011
 20
717.641860645781
 10
660.744871422045
 20
717.875542351452
 10
660.860042386485
 20
718.063050892932
 10
661.057502417956
 20
718.321078297984
 10
661.217567882137
 20
718.662667407822
 10
661.332923039314
 20
718.948634954759
 10
661.4273973452
 20
719.247998458595
 10
661.504819771159
 20
719.520225265238
 10
661.570670588801
 20
719.807569214423
 10
661.580788852618
 20
719.865073761444
 10
661.652836868612
 20
719.97264111288
 10
661.839195854678
 20
720.291048081621
 10
662.005143638264
 20
720.619324957566
 10
662.150206244412
 20
720.956683563811
 10
662.273862095652
 20
721.3022827893
 10
662.375767535043
 20
721.655313339128
 10
662.45548395349
 20
722.014932678288
 10
662.512716482393
 20
722.380171322904
 10
662.547195526808
 20
722.750170763495
 10
662.5580784677
 20
723.102942073558
 10
662.558552826915
 20
723.14425703809
 10
662.558078046139
 20
723.185546401994
 10
662.547193175727
 20
723.538311968805
 10
662.512711924079
 20
723.908311202984
 10
662.455477216419
 20
724.273549506353
 10
662.37575865259
 20
724.633168369979
 10
662.273851107369
 20
724.986198311497
 10
662.150193194393
 20
725.331796799819
 10
662.005128575787
 20
725.66915454009
 10
661.839178834329
 20
725.997430426214
 10
661.652817948248
 20
726.315836283935
 10
661.580769290682
 20
726.423403205372
 10
661.570650683941
 20
726.480907691475
 10
661.504798152208
 20
726.768251248337
 10
661.424091117333
 20
727.052020710787
 10
661.328405573528
 20
727.33165746017
 10
661.223452752805
 20
727.591832951141
 10
661.06720258038
 20
727.954682607604
 10
660.860012361882
 20
728.225421782634
 10
660.744840107298
 20
728.41292991642
 10
660.581870960799
 20
728.646610647491
  0
LWPOLYLINE
  5
18AF
102
{ACAD_REACTORS
330
184C
102
}
330
A
100
AcDbEntity
  8
シーリング(IBｼﾘｺｰﾝ)
100
AcDbPolyline
 90
        7
 70
     0
 43
0.0
 10
660.135181860205
 20
729.244419248971
 10
660.155905559193
 20
729.231602918291
 10
660.29467146036
 20
729.112873158934
 10
660.413415237708
 20
728.974112947057
 10
660.509748436729
 20
728.818348630448
 10
660.581774974846
 20
728.647004147286
 10
660.581870960799
 20
728.646610647491
  0
LWPOLYLINE
  5
18B0
102
{ACAD_REACTORS
330
184C
102
}
330
A
100
AcDbEntity
  8
シーリング(IBｼﾘｺｰﾝ)
100
AcDbPolyline
 90
        7
 70
     0
 43
0.0
 10
660.581903668011
 20
717.641860645781
 10
660.581807683338
 20
717.641467141046
 10
660.509782171255
 20
717.470122238625
 10
660.41344990152
 20
717.314357343945
 10
660.294706950604
 20
717.175596424386
 10
660.155941757133
 20
717.056865834413
 10
660.135181860205
 20
717.0440269467
  0
LINE
  5
18B1
102
{ACAD_REACTORS
330
184C
102
}
330
A
100
AcDbEntity
  8
シーリング(IBｼﾘｺｰﾝ)
100
AcDbLine
 10
660.135181860205
 20
729.244419248971
 30
0.0
 11
660.135181860205
 21
737.064144296521
 31
0.0
  0
LINE
  5
18B2
102
{ACAD_REACTORS
330
184C
102
}
330
A
100
AcDbEntity
  8
シーリング(IBｼﾘｺｰﾝ)
100
AcDbLine
 10
656.635181860205
 20
737.064144296521
 30
0.0
 11
656.635181860205
 21
740.064144296521
 31
0.0
  0
LINE
  5
18B3
330
A
100
AcDbEntity
  8
躯体
100
AcDbLine
 10
680.635181860205
 20
311.064144296521
 30
0.0
 11
680.635181860205
 21
678.748205285294
 31
0.0
  0
HATCH
  5
18B4
330
A
100
AcDbEntity
  8
部材(積層鋼板)
 62
     4
100
AcDbHatch
 10
0.0
 20
0.0
 30
0.0
210
0.0
220
0.0
230
1.0
  2
ANSI31
 70
     0
 71
     0
 91
        2
 92
        7
 72
     0
 73
     1
 93
        6
 10
675.5614674669414
 20
687.3340673589773
 10
686.9685151902086
 20
680.7482052852938
 10
686.9685151902086
 20
657.5764811379195
 10
690.1351818572075
 20
657.5764811379195
 10
690.1351818572075
 20
682.5764811379195
 10
677.1448008004372
 20
690.0764811379195
 97
        0
 92
        7
 72
     0
 73
     1
 93
        4
 10
686.9685151902086
 20
657.5764811379195
 10
686.9685151902086
 20
632.5764811379195
 10
690.1351818572075
 20
632.5764811379195
 10
690.1351818572075
 20
657.5764811379195
 97
        0
 75
     0
 76
     1
 52
264.816710168937
 41
20.0
 77
     0
 78
     1
 53
309.8167101689373
 43
755.38368151553
 44
357.824980796242
 45
1.920242011373987
 46
1.600834350504251
 79
     0
 47
0.0
 98
        2
 10
684.38368151553
 20
684.824980796242
 10
688.38368151553
 20
652.824980796242
1001
ACAD
1010
0.0
1020
0.0
1030
0.0
1001
HATCHBACKGROUNDCOLOR
1071
-939524096
1000

1000

  0
LWPOLYLINE
  5
18B5
330
A
100
AcDbEntity
  8
部材(積層鋼板)
100
AcDbPolyline
 90
        6
 70
     1
 43
0.0
 10
686.968515190209
 20
632.576481137919
 10
686.968515190209
 20
680.748205285294
 10
675.561467466941
 20
687.334067358977
 10
677.144800800437
 20
690.076481137919
 10
690.135181857207
 20
682.576481137919
 10
690.135181857207
 20
632.576481137919
  0
LWPOLYLINE
  5
18B6
330
A
100
AcDbEntity
  8
部材(ﾋﾞｽ類)
100
AcDbPolyline
 90
       32
 70
     0
 43
0.0
 10
647.939491131139
 20
657.220228028775
 10
647.939491131139
 20
657.253405904361
 42
0.126825768809
 10
648.629226214493
 20
657.431218341961
 10
649.946477925034
 20
658.158739460618
 42
-0.256490137263
 10
650.521326519476
 20
658.16524049978
 10
653.489739095625
 20
656.578694830343
 42
0.253636490355
 10
654.628254658288
 20
656.585125115271
 10
657.641943512994
 20
658.03284548191
 42
-0.218900263645
 10
658.029998504295
 20
658.039434254373
 10
661.196124987197
 20
656.66855397429
 42
0.209095404736
 10
662.153249206167
 20
656.67203596855
 10
665.105870179003
 20
657.939769267192
 42
-0.199072424679
 10
665.43620175893
 20
657.943914846372
 10
666.864053299629
 20
657.372854503818
 42
0.099854070822
 10
667.417114406184
 20
657.261291319861
 10
668.227184441319
 20
657.261291319861
 42
3.867768794258
 10
668.227184441319
 20
657.891670955971
 10
667.417114406184
 20
657.891670955971
 42
-0.095438157436
 10
667.121318401892
 20
657.948650401187
 10
665.670797931911
 20
658.529015899701
 42
0.206638844849
 10
664.829484170492
 20
658.506657797756
 10
661.921891224527
 20
657.158681125533
 42
-0.21270382653
 10
661.435830414572
 20
657.151414053696
 10
658.237437794349
 20
658.51957703659
 42
0.20973763421
 10
657.384298474528
 20
658.511667507439
 10
654.320389930566
 20
657.13328191005
 42
-0.270363890763
 10
653.719768020259
 20
657.171768043096
 10
650.798739092985
 20
658.718439356504
 42
0.248644858073
 10
649.679976696061
 20
658.717945846882
 10
648.312722278213
 20
657.992445791286
 42
-0.122570027372
 10
647.939491131139
 20
657.899556371471
 10
647.939491131139
 20
657.932734247057
  0
LWPOLYLINE
  5
18B7
330
A
100
AcDbEntity
  8
部材(ﾋﾞｽ類)
100
AcDbPolyline
 90
       32
 70
     0
 43
0.0
 10
646.23680625821
 20
657.240021829522
 10
647.939491131139
 20
657.220228028775
 42
0.126825813089
 10
648.645266788029
 20
657.402175762378
 10
649.962673846283
 20
658.129782979639
 42
-0.256544899034
 10
650.505687373858
 20
658.13597979999
 10
653.47409555038
 20
656.549436482041
 42
0.251254532285
 10
654.634576446711
 20
656.550798296346
 10
657.656314354521
 20
658.002941463084
 42
-0.218900263645
 10
658.016651132151
 20
658.009059608943
 10
661.182942182691
 20
656.638107544386
 42
0.209095404736
 10
662.166653185763
 20
656.641686260817
 10
665.118959839892
 20
657.909282676599
 42
-0.199109332435
 10
665.423933790247
 20
657.91308836692
 10
666.874821667654
 20
657.332575786109
 42
0.095438169349
 10
667.417114406184
 20
657.228113444275
 10
668.207962999702
 20
657.228113444275
 42
3.649823686132
 10
668.207962999702
 20
657.924848831564
 10
667.417114406184
 20
657.924848831564
 42
-0.105213986763
 10
667.106434615562
 20
657.990956359528
 10
665.682376261
 20
658.56011831198
 42
0.206444475481
 10
664.815529432984
 20
658.536758241768
 10
661.907936487027
 20
657.188781569545
 42
-0.212703826529
 10
661.448879055388
 20
657.181918223912
 10
658.250486435172
 20
658.550081206813
 42
0.209737634211
 10
657.370686511604
 20
658.541924504876
 10
654.306143223002
 20
657.163253349725
 42
-0.271504379566
 10
653.736858207092
 20
657.200260706166
 10
650.814264528439
 20
658.747760548198
 42
0.248644858073
 10
649.664425398267
 20
658.747253329973
 10
648.297170980419
 20
658.021753274385
 42
-0.122570027372
 10
647.939491131139
 20
657.932734247057
 10
646.23680625821
 20
657.912940446316
  0
LWPOLYLINE
  5
18B8
330
A
100
AcDbEntity
  8
部材(ﾋﾞｽ類)
100
AcDbPolyline
 90
        4
 70
     0
 43
0.0
 10
646.23680625821
 20
657.899556371471
 10
647.213999492124
 20
657.899556371471
 10
647.213999492124
 20
657.253405904361
 10
646.23680625821
 20
657.253405904361
  0
LINE
  5
18B9
330
A
100
AcDbEntity
  8
部材(ﾋﾞｽ類)
100
AcDbLine
 10
679.120058201283
 20
654.576481137927
 30
0.0
 11
679.120058201283
 21
660.576481137912
 31
0.0
  0
LINE
  5
18BA
330
A
100
AcDbEntity
  8
部材(ﾋﾞｽ類)
100
AcDbLine
 10
680.635181860205
 20
662.073640741059
 30
0.0
 11
680.635181860205
 21
653.07932153478
 31
0.0
  0
LINE
  5
18BB
330
A
100
AcDbEntity
  8
部材(ﾋﾞｽ類)
100
AcDbLine
 10
690.135181857207
 20
662.076481137919
 30
0.0
 11
690.135181857207
 21
653.076481137919
 31
0.0
  0
LINE
  5
18BC
330
A
100
AcDbEntity
  8
部材(ﾋﾞｽ類)
100
AcDbLine
 10
687.305181857213
 20
655.906481137921
 30
0.0
 11
687.305181857213
 21
659.246481137918
 31
0.0
  0
LINE
  5
18BD
330
A
100
AcDbEntity
  8
部材(ﾋﾞｽ類)
100
AcDbLine
 10
646.23680625821
 20
656.403376550465
 30
0.0
 11
645.185583184939
 21
659.413940600505
 31
0.0
  0
LINE
  5
18BE
330
A
100
AcDbEntity
  8
部材(ﾋﾞｽ類)
100
AcDbLine
 10
646.23680625821
 20
656.689763343762
 30
0.0
 11
645.285583184945
 21
659.413940600505
 31
0.0
  0
LINE
  5
18BF
330
A
100
AcDbEntity
  8
部材(ﾋﾞｽ類)
100
AcDbLine
 10
646.23680625821
 20
656.283478391284
 30
0.0
 11
644.83210366097
 21
658.493094958016
 31
0.0
  0
LINE
  5
18C0
330
A
100
AcDbEntity
  8
部材(ﾋﾞｽ類)
100
AcDbLine
 10
643.36033133301
 20
656.628123344701
 30
0.0
 11
642.788570476201
 21
658.268062824034
 31
0.0
  0
LINE
  5
18C1
330
A
100
AcDbEntity
  8
部材(ﾋﾞｽ類)
100
AcDbLine
 10
643.460331333001
 20
656.628123344701
 30
0.0
 11
642.888570476207
 21
658.268062824034
 31
0.0
  0
LINE
  5
18C2
330
A
100
AcDbEntity
  8
部材(ﾋﾞｽ類)
100
AcDbLine
 10
643.178012685807
 20
657.103079658824
 30
0.0
 11
642.650568067198
 21
657.908554257403
 31
0.0
  0
LINE
  5
18C3
330
A
100
AcDbEntity
  8
部材(ﾋﾞｽ類)
100
AcDbLine
 10
643.775256617853
 20
656.943048629546
 30
0.0
 11
643.121810116339
 21
658.034823183916
 31
0.0
  0
LINE
  5
18C4
330
A
100
AcDbEntity
  8
部材(ﾋﾞｽ類)
100
AcDbLine
 10
646.23680625821
 20
658.869483884555
 30
0.0
 11
645.915999746605
 21
658.783524038845
 31
0.0
  0
LWPOLYLINE
  5
18C5
330
A
100
AcDbEntity
  8
部材(ﾋﾞｽ類)
100
AcDbPolyline
 90
        4
 70
     0
 43
0.0
 10
660.025768091371
 20
660.487589536257
 10
659.776878930097
 20
660.487589536257
 10
659.01243190973
 20
660.185367856662
 10
657.80354518949
 20
660.149808774724
  0
LWPOLYLINE
  5
18C6
330
A
100
AcDbEntity
  8
部材(ﾋﾞｽ類)
100
AcDbPolyline
 90
        4
 70
     0
 43
0.0
 10
653.981323815351
 20
660.096476255007
 10
655.190210533729
 20
660.11424969232
 10
655.990210534474
 20
660.487589536257
 10
656.185767175099
 20
660.487589536257
  0
LWPOLYLINE
  5
18C7
330
A
100
AcDbEntity
  8
部材(ﾋﾞｽ類)
100
AcDbPolyline
 90
        4
 70
     0
 43
0.0
 10
652.363544275453
 20
660.487589536257
 10
652.185767175099
 20
660.487589536257
 10
651.350212670332
 20
660.043143735289
 10
650.141322900941
 20
660.02535809113
  0
LWPOLYLINE
  5
18C8
330
A
100
AcDbEntity
  8
部材(ﾋﾞｽ類)
100
AcDbPolyline
 90
       58
 70
     1
 43
0.0
 10
666.356142576769
 20
652.551039320526
 10
662.890638094636
 20
655.198876346047
 10
667.380056980954
 20
655.198876346039
 42
-0.355962003442
 10
667.582478599157
 20
655.033858269693
 10
667.628946140365
 20
654.825548709421
 10
667.664502169893
 20
654.75444275239
 10
667.664502169893
 20
654.683336795359
 10
667.700058201284
 20
654.612218631017
 10
667.700058201284
 20
654.594445193703
 10
679.037215488803
 20
654.594445193703
 42
-0.19891236738
 10
679.178636845041
 20
654.535866549944
 10
680.635181860205
 20
653.07932153478
 10
681.23680625821
 20
653.07932153478
 10
681.23680625821
 20
662.073640741059
 10
680.635181860205
 20
662.073640741059
 10
679.178636845041
 20
660.617095725895
 42
-0.19891236738
 10
679.037215488803
 20
660.558517082136
 10
667.700058201284
 20
660.558517082136
 10
667.700058201284
 20
660.540743644822
 10
667.664502169893
 20
660.46962548048
 10
667.664502169893
 20
660.398519523449
 10
667.628946140365
 20
660.327413566418
 10
667.582478599157
 20
660.119104006146
 42
-0.355962003442
 10
667.380056980954
 20
659.954085929799
 10
662.890638094636
 20
659.954085929792
 10
666.356142576769
 20
662.601922955313
 42
0.982770495282
 10
665.823508268237
 20
663.324737707524
 10
661.625768090998
 20
660.576481137912
 10
660.025768091371
 20
660.487589536257
 10
660.025768091371
 20
659.420926938787
 10
657.80354518949
 20
659.420926938787
 10
657.80354518949
 20
660.576481137912
 10
656.185767175099
 20
660.487589536257
 10
656.185767175099
 20
659.474247251193
 10
653.981323815351
 20
659.545353208225
 10
653.981323815351
 20
660.576481137912
 10
652.363544275453
 20
660.487589536257
 10
652.363544275453
 20
659.616471372101
 10
650.141322900941
 20
659.687589536443
 10
650.141322900941
 20
660.576481137912
 10
648.000871816184
 20
660.46854849231
 10
646.23680625821
 20
659.826481137912
 10
646.23680625821
 20
655.326481137927
 10
648.000871816199
 20
654.684413783529
 10
650.141322900941
 20
654.576481137927
 10
650.141322900941
 20
655.465372739396
 10
652.363544275453
 20
655.536490903738
 10
652.363544275453
 20
654.665372739582
 10
653.981323815351
 20
654.576481137927
 10
653.981323815351
 20
655.607609067614
 10
656.185767175099
 20
655.678715024645
 10
656.185767175099
 20
654.665372739582
 10
657.80354518949
 20
654.576481137927
 10
657.80354518949
 20
655.732035337052
 10
660.025768091371
 20
655.732035337052
 10
660.025768091371
 20
654.665372739582
 10
661.625768090998
 20
654.576481137927
 10
665.823508268237
 20
651.828224568315
 42
0.982770495282
  0
LWPOLYLINE
  5
18C9
330
A
100
AcDbEntity
  8
部材(ﾋﾞｽ類)
100
AcDbPolyline
 90
        4
 70
     0
 43
0.0
 10
652.363544275453
 20
654.665372739582
 10
652.185767175099
 20
654.665372739582
 10
651.350212670332
 20
655.10981854055
 10
650.141322900941
 20
655.127604184709
  0
LWPOLYLINE
  5
18CA
330
A
100
AcDbEntity
  8
部材(ﾋﾞｽ類)
100
AcDbPolyline
 90
        4
 70
     0
 43
0.0
 10
653.981323815351
 20
655.056486020832
 10
655.190210533729
 20
655.038712583519
 10
655.990210534474
 20
654.665372739582
 10
656.185767175099
 20
654.665372739582
  0
LWPOLYLINE
  5
18CB
330
A
100
AcDbEntity
  8
部材(ﾋﾞｽ類)
100
AcDbPolyline
 90
        4
 70
     0
 43
0.0
 10
660.025768091371
 20
654.665372739582
 10
659.776878930097
 20
654.665372739582
 10
659.01243190973
 20
654.967594419177
 10
657.80354518949
 20
655.003153501115
  0
LWPOLYLINE
  5
18CC
330
A
100
AcDbEntity
  8
部材(ﾋﾞｽ類)
100
AcDbPolyline
 90
        7
 70
     0
 43
0.0
 10
667.487927954644
 20
657.228113444275
 10
667.487891780838
 20
655.732184844499
 10
661.625635921417
 20
655.732184844499
 10
661.625635921417
 20
655.465522246843
 10
662.37855763729
 20
655.465522246843
 42
-0.13354901382
 10
662.631778762312
 20
655.396659187783
 10
662.890638094628
 20
655.198876346047
  0
LWPOLYLINE
  5
18CD
330
A
100
AcDbEntity
  8
部材(ﾋﾞｽ類)
100
AcDbPolyline
 90
        7
 70
     0
 43
0.0
 10
667.48792767257
 20
657.924848122944
 10
667.487891780838
 20
659.42077743134
 10
661.625635921417
 20
659.42077743134
 10
661.625635921417
 20
659.687440028996
 10
662.37855763729
 20
659.687440028996
 42
0.13354901382
 10
662.631778762312
 20
659.756303088056
 10
662.890638094628
 20
659.954085929792
  0
LWPOLYLINE
  5
18CE
330
A
100
AcDbEntity
  8
部材(ﾋﾞｽ類)
100
AcDbPolyline
 90
       10
 70
     0
 43
0.0
 10
681.23680625821
 20
659.246481137918
 10
686.890968294836
 20
659.246481137918
 42
0.19891236738
 10
687.598075076021
 20
659.539374356733
 10
690.135181857207
 20
662.076481137919
 10
690.43518185721
 20
662.076481137919
 10
690.43518185721
 20
653.076481137919
 10
690.135181857207
 20
653.076481137919
 10
687.598075076021
 20
655.613587919106
 42
0.19891236738
 10
686.890968294836
 20
655.906481137921
 10
681.23680625821
 20
655.906481137921
  0
LWPOLYLINE
  5
18CF
330
A
100
AcDbEntity
  8
部材(ﾋﾞｽ類)
100
AcDbPolyline
 90
       15
 70
     0
 43
0.0
 10
646.23680625821
 20
658.362000946261
 10
645.915999746605
 20
658.783524038845
 10
645.285583184945
 20
659.413940600505
 10
645.185583184939
 20
659.413940600505
 10
644.83210366097
 20
658.493094958016
 10
643.121810116339
 20
658.034823183916
 10
642.888570476207
 20
658.268062824034
 10
642.788570476201
 20
658.268062824034
 10
642.650568067198
 20
657.908554257403
 10
641.41125431344
 20
657.576481137919
 10
643.178012685807
 20
657.103079658824
 10
643.36033133301
 20
656.628123344701
 10
643.460331333001
 20
656.628123344701
 10
643.775256617853
 20
656.943048629546
 10
646.23680625821
 20
656.283478391284
  0
LINE
  5
18D0
330
A
100
AcDbEntity
  8
中心線
 48
0.25
100
AcDbLine
 10
644.215856401483
 20
657.576481137919
 30
0.0
 11
693.114039024375
 21
657.576481137919
 31
0.0
  0
LWPOLYLINE
  5
18D1
330
A
100
AcDbEntity
  8
ブチルﾃｰﾌﾟ
100
AcDbPolyline
 90
        4
 70
     1
 43
0.0
 10
681.635181860205
 20
677.748205285294
 10
681.635181860205
 20
637.748205285294
 10
685.968515190209
 20
637.748205285294
 10
685.968515190209
 20
677.748205285294
  0
HATCH
  5
18D2
102
{ACAD_XDICTIONARY
360
18D3
102
}
330
A
100
AcDbEntity
  8
ブチルﾃｰﾌﾟ
 62
     4
100
AcDbHatch
 10
0.0
 20
0.0
 30
0.0
210
0.0
220
0.0
230
1.0
  2
ANSI31
 70
     0
 71
     0
 91
        1
 92
        7
 72
     0
 73
     1
 93
        4
 10
681.6351818602052
 20
677.7482052852938
 10
681.6351818602052
 20
637.7482052852938
 10
685.9685151902086
 20
637.7482052852938
 10
685.9685151902086
 20
677.7482052852938
 97
        0
 75
     0
 76
     1
 52
270.0
 41
10.0
 77
     0
 78
     1
 53
315.0
 43
125.9481616585545
 44
-226.9861492750279
 45
0.8838834764831845
 46
0.8838834764831843
 79
     0
 47
0.0
 98
        1
 10
683.0008963757064
 20
662.7440321182148
1001
ACAD
1010
0.0
1020
0.0
1030
0.0
1001
AcadAnnotative
1000
AnnotativeData
1002
{
1070
     1
1070
     0
1002
}
1001
HATCHBACKGROUNDCOLOR
1071
-939524096
1000

1000

  0
LINE
  5
18D6
330
A
100
AcDbEntity
  8
躯体
100
AcDbLine
 10
680.635181860205
 20
678.748205285294
 30
0.0
 11
655.635181860205
 21
693.181962015035
 31
0.0
  0
HATCH
  5
18D7
330
A
100
AcDbEntity
  8
シーリング(IBｼﾘｺｰﾝ)
100
AcDbHatch
 10
0.0
 20
0.0
 30
0.0
210
0.0
220
0.0
230
1.0
  2
DOTS1
 70
     0
 71
     1
 91
        1
 92
        7
 72
     1
 73
     1
 93
        7
 10
685.9685151902086
 20
678.7482052852938
 42
0.0
 10
685.9685151902086
 20
680.170855016102
 42
0.0
 10
674.1954420631519
 20
686.9680419551951
 42
0.0
 10
676.278775396655
 20
690.5764811379195
 42
0.9999999999999997
 10
672.7460833268706
 20
684.4576789855637
 42
0.0
 10
681.6351818602052
 20
679.3255555544856
 42
0.0
 10
681.6351818602052
 20
678.7482052852938
 42
0.0
 97
        7
330
18D8
330
18D9
330
18DA
330
18DD
330
18DB
330
18DE
330
18DC
 75
     0
 76
     1
 52
135.0
 41
15.0
 77
     0
 78
     1
 53
135.0
 43
2804.89749393698
 44
10581.45340223727
 45
-0.9943689110435826
 46
-0.3314563036811941
 79
     2
 49
0.0
 49
-0.9375
 47
0.0
 98
        1
 10
672.39749393698
 20
686.4534022372682
1001
ACAD
1010
0.0
1020
0.0
1030
0.0
1001
HATCHBACKGROUNDCOLOR
1071
-939524096
1000

1000

  0
LINE
  5
18D8
102
{ACAD_REACTORS
330
18D7
102
}
330
A
100
AcDbEntity
  8
シーリング(IBｼﾘｺｰﾝ)
100
AcDbLine
 10
685.968515190209
 20
678.748205285294
 30
0.0
 11
685.968515190209
 21
680.170855016102
 31
0.0
  0
LINE
  5
18D9
102
{ACAD_REACTORS
330
18D7
102
}
330
A
100
AcDbEntity
  8
シーリング(IBｼﾘｺｰﾝ)
100
AcDbLine
 10
685.968515190209
 20
680.170855016102
 30
0.0
 11
674.195442063152
 21
686.968041955195
 31
0.0
  0
LINE
  5
18DA
102
{ACAD_REACTORS
330
18D7
102
}
330
A
100
AcDbEntity
  8
シーリング(IBｼﾘｺｰﾝ)
100
AcDbLine
 10
674.195442063152
 20
686.968041955195
 30
0.0
 11
676.278775396655
 21
690.576481137919
 31
0.0
  0
LINE
  5
18DB
102
{ACAD_REACTORS
330
18D7
102
}
330
A
100
AcDbEntity
  8
シーリング(IBｼﾘｺｰﾝ)
100
AcDbLine
 10
681.635181860205
 20
679.325555554486
 30
0.0
 11
672.746083326871
 21
684.45767898556
 31
0.0
  0
LINE
  5
18DC
102
{ACAD_REACTORS
330
18D7
102
}
330
A
100
AcDbEntity
  8
シーリング(IBｼﾘｺｰﾝ)
100
AcDbLine
 10
681.635181860205
 20
678.748205285294
 30
0.0
 11
685.968515190209
 21
678.748205285294
 31
0.0
  0
ARC
  5
18DD
102
{ACAD_REACTORS
330
18D7
102
}
330
A
100
AcDbEntity
  8
シーリング(IBｼﾘｺｰﾝ)
100
AcDbCircle
 10
674.512429361763
 20
687.517080061742
 30
0.0
 40
3.532692069781602
100
AcDbArc
 50
59.999999999974
 51
239.999999999974
  0
LINE
  5
18DE
102
{ACAD_REACTORS
330
18D7
102
}
330
A
100
AcDbEntity
  8
シーリング(IBｼﾘｺｰﾝ)
100
AcDbLine
 10
681.635181860205
 20
679.325555554486
 30
0.0
 11
681.635181860205
 21
678.748205285294
 31
0.0
  0
LINE
  5
18DF
330
A
100
AcDbEntity
  8
IBｼｰﾄ
100
AcDbLine
 10
696.135181857207
 20
631.236735175764
 30
0.0
 11
696.135181857207
 21
674.576481137919
 31
0.0
  0
LINE
  5
18E0
330
A
100
AcDbEntity
  8
IBリキッド
100
AcDbLine
 10
691.135181857207
 20
675.576481137919
 30
0.0
 11
696.135181857207
 21
675.576481137919
 31
0.0
  0
ARC
  5
18E1
330
A
100
AcDbEntity
  8
IBリキッド
100
AcDbCircle
 10
688.735181857213
 20
675.576481137919
 30
0.0
 40
7.400000000000468
100
AcDbArc
 50
0.0
 51
71.075355584
  0
LINE
  5
18E2
330
A
100
AcDbEntity
  8
IBｼｰﾄ
100
AcDbLine
 10
691.135181857207
 20
632.576481137919
 30
0.0
 11
691.135181857207
 21
674.576481137919
 31
0.0
  0
LINE
  5
18E3
330
A
100
AcDbEntity
  8
IBリキッド
100
AcDbLine
 10
691.135181857207
 20
675.576481137919
 30
0.0
 11
691.135181857207
 21
682.576481137919
 31
0.0
  0
LINE
  5
18E4
330
A
100
AcDbEntity
  8
IBｼｰﾄ
100
AcDbLine
 10
691.135181857207
 20
674.576481137919
 30
0.0
 11
696.135181857207
 21
674.576481137919
 31
0.0
  0
LINE
  5
18E5
330
A
100
AcDbEntity
  8
IBｼｰﾄ
100
AcDbLine
 10
685.968515193214
 20
623.627551970112
 30
0.0
 11
691.135181857207
 21
632.576481137919
 31
0.0
  0
LINE
  5
18E6
330
A
100
AcDbEntity
  8
IBｼｰﾄ
100
AcDbLine
 10
690.968515193214
 20
622.287806007957
 30
0.0
 11
696.135181857207
 21
631.236735175764
 31
0.0
  0
LINE
  5
18E7
330
A
100
AcDbEntity
  8
寸法線
100
AcDbLine
 10
685.968515191205
 20
655.242015771109
 30
0.0
 11
740.806425429662
 21
560.258880306319
 31
0.0
  0
LINE
  5
18E8
330
A
100
AcDbEntity
  8
寸法線
100
AcDbLine
 10
740.80642542967
 20
560.258880306319
 30
0.0
 11
752.80642542967
 21
560.258880306319
 31
0.0
  0
TEXT
  5
18E9
330
A
100
AcDbEntity
  8
文字
100
AcDbText
 10
757.347004245406
 20
556.420391899803
 30
0.0
 40
12.0
  1
IB積層鋼板♯30(♯32)
  7
基本スタイル
100
AcDbText
1001
AcadAnnotative
1000
AnnotativeData
1002
{
1070
     1
1070
     0
1002
}
  0
LWPOLYLINE
  5
18EA
330
A
100
AcDbEntity
  8
寸法線
100
AcDbPolyline
 90
        3
 70
     0
 43
0.0
 10
690.211134820107
 20
650.999354025902
 10
685.968515191205
 20
655.242015771109
 10
687.521400695819
 20
649.446453105636
  0
LINE
  5
18EB
330
A
100
AcDbEntity
  8
寸法線
100
AcDbLine
 10
725.409512687147
 20
586.927421146102
 30
0.0
 11
737.409512687147
 21
586.927421146102
 31
0.0
  0
TEXT
  5
18EC
330
A
100
AcDbEntity
  8
文字
100
AcDbText
 10
741.950091502884
 20
583.088932739578
 30
0.0
 40
12.0
  1
サンタックシーラーTM-104
  7
基本スタイル
100
AcDbText
1001
AcadAnnotative
1000
AnnotativeData
1002
{
1070
     1
1070
     0
1002
}
  0
LINE
  5
18ED
330
A
100
AcDbEntity
  8
寸法線
100
AcDbLine
 10
694.756809544138
 20
679.87764377144
 30
0.0
 11
729.594891721892
 21
619.535623726664
 31
0.0
  0
LINE
  5
18EE
330
A
100
AcDbEntity
  8
寸法線
100
AcDbLine
 10
729.594891721907
 20
619.535623726664
 30
0.0
 11
741.594891721907
 21
619.535623726664
 31
0.0
  0
TEXT
  5
18EF
330
A
100
AcDbEntity
  8
文字
100
AcDbText
 10
746.135470537643
 20
615.697135320148
 30
0.0
 40
12.0
  1
IBリキッド
  7
基本スタイル
100
AcDbText
1001
AcadAnnotative
1000
AnnotativeData
1002
{
1070
     1
1070
     0
1002
}
  0
LWPOLYLINE
  5
18F0
330
A
100
AcDbEntity
  8
寸法線
100
AcDbPolyline
 90
        3
 70
     0
 43
0.0
 10
698.99942917304
 20
675.634982026233
 10
694.756809544138
 20
679.87764377144
 10
696.309695048752
 20
674.082081105968
  0
LWPOLYLINE
  5
18F1
330
A
100
AcDbEntity
  8
部材(ﾋﾞｽ類)
100
AcDbPolyline
 90
       32
 70
     0
 43
0.0
 10
714.865058332696
 20
263.368453567451
 10
714.83188045711
 20
263.368453567451
 42
0.126825768809
 10
714.65406801951
 20
264.058188650808
 10
713.926546900853
 20
265.375440361349
 42
-0.256490137263
 10
713.920045861691
 20
265.950288955795
 10
715.506591531128
 20
268.91870153194
 42
0.253636490355
 10
715.5001612462
 20
270.057217094603
 10
714.052440879561
 20
273.070905949309
 42
-0.218900263645
 10
714.045852107098
 20
273.458960940607
 10
715.416732387181
 20
276.625087423516
 42
0.209095404736
 10
715.413250392921
 20
277.582211642486
 10
714.145517094279
 20
280.534832615314
 42
-0.199072424679
 10
714.141371515099
 20
280.865164195249
 10
714.712431857653
 20
282.293015735944
 42
0.099854070822
 10
714.82399504161
 20
282.846076842496
 10
714.82399504161
 20
283.656146877631
 42
3.867768794258
 10
714.1936154055
 20
283.656146877631
 10
714.1936154055
 20
282.846076842496
 42
-0.095438157436
 10
714.136635960283
 20
282.550280838208
 10
713.55627046177
 20
281.099760368226
 42
0.206638844849
 10
713.578628563715
 20
280.258446606804
 10
714.926605235938
 20
277.350853660842
 42
-0.21270382653
 10
714.933872307774
 20
276.864792850884
 10
713.565709324881
 20
273.666400230661
 42
0.20973763421
 10
713.573618854032
 20
272.81326091084
 10
714.952004451421
 20
269.749352366878
 42
-0.270363890763
 10
714.913518318375
 20
269.148730456574
 10
713.366847004967
 20
266.2277015293
 42
0.248644858073
 10
713.367340514589
 20
265.108939132373
 10
714.092840570185
 20
263.741684714529
 42
-0.122570027372
 10
714.18572999
 20
263.368453567451
 10
714.152552114414
 20
263.368453567451
  0
LWPOLYLINE
  5
18F2
330
A
100
AcDbEntity
  8
部材(ﾋﾞｽ類)
100
AcDbPolyline
 90
       32
 70
     0
 43
0.0
 10
714.845264531948
 20
261.665768694529
 10
714.865058332696
 20
263.368453567451
 42
0.126825813089
 10
714.683110599093
 20
264.074229224345
 10
713.955503381832
 20
265.391636282598
 42
-0.256544899034
 10
713.949306561481
 20
265.934649810173
 10
715.53584987943
 20
268.903057986699
 42
0.251254532285
 10
715.534488065125
 20
270.063538883027
 10
714.082344898387
 20
273.085276790833
 42
-0.218900263645
 10
714.076226752528
 20
273.445613568467
 10
715.447178817085
 20
276.611904619007
 42
0.209095404736
 10
715.443600100654
 20
277.595615622082
 10
714.176003684872
 20
280.547922276211
 42
-0.199109332435
 10
714.172197994551
 20
280.852896226563
 10
714.752710575362
 20
282.30378410397
 42
0.095438169349
 10
714.857172917196
 20
282.846076842496
 10
714.857172917196
 20
283.636925436018
 42
3.649823686132
 10
714.160437529907
 20
283.636925436018
 10
714.160437529907
 20
282.846076842496
 42
-0.105213986763
 10
714.094330001943
 20
282.535397051874
 10
713.525168049491
 20
281.111338697312
 42
0.206444475481
 10
713.548528119703
 20
280.2444918693
 10
714.896504791926
 20
277.336898923339
 42
-0.212703826529
 10
714.903368137559
 20
276.877841491703
 10
713.535205154658
 20
273.679448871488
 42
0.209737634211
 10
713.543361856595
 20
272.799648947919
 10
714.922033011746
 20
269.735105659322
 42
-0.271504379566
 10
714.885025655305
 20
269.165820643404
 10
713.337525813273
 20
266.243226964758
 42
0.248644858073
 10
713.338033031498
 20
265.093387834579
 10
714.063533087086
 20
263.726133416734
 42
-0.122570027372
 10
714.152552114414
 20
263.368453567451
 10
714.172345915154
 20
261.665768694529
  0
LWPOLYLINE
  5
18F3
330
A
100
AcDbEntity
  8
部材(ﾋﾞｽ類)
100
AcDbPolyline
 90
        4
 70
     0
 43
0.0
 10
714.18572999
 20
261.665768694529
 10
714.18572999
 20
262.642961928439
 10
714.83188045711
 20
262.642961928439
 10
714.83188045711
 20
261.665768694529
  0
LINE
  5
18F4
330
A
100
AcDbEntity
  8
部材(ﾋﾞｽ類)
100
AcDbLine
 10
717.508805223544
 20
309.549020637602
 30
0.0
 11
711.508805223559
 21
309.549020637602
 31
0.0
  0
LINE
  5
18F5
330
A
100
AcDbEntity
  8
部材(ﾋﾞｽ類)
100
AcDbLine
 10
710.011645620412
 20
311.064144296521
 30
0.0
 11
719.005964826691
 21
311.064144296521
 31
0.0
  0
LINE
  5
18F6
330
A
100
AcDbEntity
  8
部材(ﾋﾞｽ類)
100
AcDbLine
 10
715.681909811006
 20
261.665768694529
 30
0.0
 11
712.671345760966
 21
260.614545621258
 31
0.0
  0
LINE
  5
18F7
330
A
100
AcDbEntity
  8
部材(ﾋﾞｽ類)
100
AcDbLine
 10
715.395523017709
 20
261.665768694529
 30
0.0
 11
712.671345760966
 21
260.714545621257
 31
0.0
  0
LINE
  5
18F8
330
A
100
AcDbEntity
  8
部材(ﾋﾞｽ類)
100
AcDbLine
 10
715.801807970187
 20
261.665768694529
 30
0.0
 11
713.592191403455
 21
260.26106609729
 31
0.0
  0
LINE
  5
18F9
330
A
100
AcDbEntity
  8
部材(ﾋﾞｽ類)
100
AcDbLine
 10
715.45716301677
 20
258.789293769321
 30
0.0
 11
713.817223537437
 21
258.21753291252
 31
0.0
  0
LINE
  5
18FA
330
A
100
AcDbEntity
  8
部材(ﾋﾞｽ類)
100
AcDbLine
 10
715.45716301677
 20
258.88929376932
 30
0.0
 11
713.817223537437
 21
258.317532912526
 31
0.0
  0
LINE
  5
18FB
330
A
100
AcDbEntity
  8
部材(ﾋﾞｽ類)
100
AcDbLine
 10
714.982206702647
 20
258.606975122118
 30
0.0
 11
714.176732104068
 21
258.07953050351
 31
0.0
  0
LINE
  5
18FC
330
A
100
AcDbEntity
  8
部材(ﾋﾞｽ類)
100
AcDbLine
 10
715.142237731925
 20
259.204219054165
 30
0.0
 11
714.050463177555
 21
258.550772552651
 31
0.0
  0
LINE
  5
18FD
330
A
100
AcDbEntity
  8
部材(ﾋﾞｽ類)
100
AcDbLine
 10
713.215802476916
 20
261.665768694529
 30
0.0
 11
713.301762322626
 21
261.344962182917
 31
0.0
  0
LWPOLYLINE
  5
18FE
330
A
100
AcDbEntity
  8
部材(ﾋﾞｽ類)
100
AcDbPolyline
 90
        4
 70
     0
 43
0.0
 10
711.597696825214
 20
275.454730527686
 10
711.597696825214
 20
275.205841366413
 10
711.899918504809
 20
274.441394346046
 10
711.935477586747
 20
273.232507625806
  0
LWPOLYLINE
  5
18FF
330
A
100
AcDbEntity
  8
部材(ﾋﾞｽ類)
100
AcDbPolyline
 90
        4
 70
     0
 43
0.0
 10
711.988810106464
 20
269.410286251667
 10
711.971036669151
 20
270.619172970044
 10
711.597696825214
 20
271.419172970789
 10
711.597696825214
 20
271.614729611414
  0
LWPOLYLINE
  5
1900
330
A
100
AcDbEntity
  8
部材(ﾋﾞｽ類)
100
AcDbPolyline
 90
        4
 70
     0
 43
0.0
 10
711.597696825214
 20
267.792506711769
 10
711.597696825214
 20
267.614729611414
 10
712.042142626182
 20
266.779175106647
 10
712.059928270341
 20
265.570285337257
  0
LWPOLYLINE
  5
1901
330
A
100
AcDbEntity
  8
部材(ﾋﾞｽ類)
100
AcDbPolyline
 90
       58
 70
     1
 43
0.0
 10
719.534247040945
 20
281.785105013081
 10
716.886410015424
 20
278.319600530951
 10
716.886410015431
 20
282.809019417273
 42
-0.355962003442
 10
717.051428091778
 20
283.011441035476
 10
717.25973765205
 20
283.057908576684
 10
717.330843609081
 20
283.093464606212
 10
717.401949566112
 20
283.093464606212
 10
717.473067730454
 20
283.129020637603
 10
717.490841167768
 20
283.129020637603
 10
717.490841167768
 20
309.466177925122
 42
-0.19891236738
 10
717.549419811527
 20
309.60759928136
 10
719.005964826691
 20
311.064144296521
 10
719.005964826691
 20
311.665768694529
 10
710.011645620412
 20
311.665768694529
 10
710.011645620412
 20
311.064144296521
 10
711.468190635576
 20
309.60759928136
 42
-0.19891236738
 10
711.526769279335
 20
309.466177925122
 10
711.526769279335
 20
283.129020637603
 10
711.544542716649
 20
283.129020637603
 10
711.615660880991
 20
283.093464606212
 10
711.686766838022
 20
283.093464606212
 10
711.757872795053
 20
283.057908576684
 10
711.966182355325
 20
283.011441035476
 42
-0.355962003442
 10
712.131200431671
 20
282.809019417273
 10
712.131200431679
 20
278.319600530951
 10
709.483363406158
 20
281.785105013081
 42
0.982770495282
 10
708.760548653947
 20
281.252470704552
 10
711.508805223559
 20
277.054730527314
 10
711.597696825214
 20
275.454730527686
 10
712.664359422684
 20
275.454730527686
 10
712.664359422684
 20
273.232507625806
 10
711.508805223559
 20
273.232507625806
 10
711.597696825214
 20
271.614729611414
 10
712.611039110277
 20
271.614729611414
 10
712.539933153246
 20
269.410286251667
 10
711.508805223559
 20
269.410286251667
 10
711.597696825214
 20
267.792506711769
 10
712.46881498937
 20
267.792506711769
 10
712.397696825028
 20
265.570285337257
 10
711.508805223559
 20
265.570285337257
 10
711.616737869161
 20
263.429834252503
 10
712.258805223559
 20
261.665768694529
 10
716.758805223544
 20
261.665768694529
 10
717.400872577942
 20
263.429834252514
 10
717.508805223544
 20
265.570285337257
 10
716.619913622075
 20
265.570285337257
 10
716.548795457733
 20
267.792506711769
 10
717.419913621889
 20
267.792506711769
 10
717.508805223544
 20
269.410286251667
 10
716.477677293857
 20
269.410286251667
 10
716.406571336825
 20
271.614729611414
 10
717.419913621889
 20
271.614729611414
 10
717.508805223544
 20
273.232507625806
 10
716.353251024419
 20
273.232507625806
 10
716.353251024419
 20
275.454730527686
 10
717.419913621889
 20
275.454730527686
 10
717.508805223544
 20
277.054730527314
 10
720.257061793156
 20
281.252470704552
 42
0.982770495282
  0
LWPOLYLINE
  5
1902
330
A
100
AcDbEntity
  8
部材(ﾋﾞｽ類)
100
AcDbPolyline
 90
        4
 70
     0
 43
0.0
 10
717.419913621889
 20
267.792506711769
 10
717.419913621889
 20
267.614729611414
 10
716.975467820921
 20
266.779175106647
 10
716.957682176762
 20
265.570285337257
  0
LWPOLYLINE
  5
1903
330
A
100
AcDbEntity
  8
部材(ﾋﾞｽ類)
100
AcDbPolyline
 90
        4
 70
     0
 43
0.0
 10
717.028800340639
 20
269.410286251667
 10
717.046573777952
 20
270.619172970044
 10
717.419913621889
 20
271.419172970789
 10
717.419913621889
 20
271.614729611414
  0
LWPOLYLINE
  5
1904
330
A
100
AcDbEntity
  8
部材(ﾋﾞｽ類)
100
AcDbPolyline
 90
        4
 70
     0
 43
0.0
 10
717.419913621889
 20
275.454730527686
 10
717.419913621889
 20
275.205841366413
 10
717.117691942294
 20
274.441394346046
 10
717.082132860356
 20
273.232507625806
  0
LWPOLYLINE
  5
1905
330
A
100
AcDbEntity
  8
部材(ﾋﾞｽ類)
100
AcDbPolyline
 90
        7
 70
     0
 43
0.0
 10
714.857172917196
 20
282.916890390959
 10
716.353101516972
 20
282.91685421715
 10
716.353101516972
 20
277.054598357729
 10
716.619764114628
 20
277.054598357729
 10
716.619764114628
 20
277.807520073606
 42
-0.13354901382
 10
716.688627173688
 20
278.060741198624
 10
716.886410015424
 20
278.319600530947
  0
LWPOLYLINE
  5
1906
330
A
100
AcDbEntity
  8
部材(ﾋﾞｽ類)
100
AcDbPolyline
 90
        7
 70
     0
 43
0.0
 10
714.160438238527
 20
282.916890108881
 10
712.664508930131
 20
282.91685421715
 10
712.664508930131
 20
277.054598357729
 10
712.397846332475
 20
277.054598357729
 10
712.397846332475
 20
277.807520073606
 42
0.13354901382
 10
712.328983273415
 20
278.060741198624
 10
712.131200431679
 20
278.319600530947
  0
LWPOLYLINE
  5
1907
330
A
100
AcDbEntity
  8
部材(ﾋﾞｽ類)
100
AcDbPolyline
 90
       15
 70
     0
 43
0.0
 10
713.72328541521
 20
261.665768694529
 10
713.301762322626
 20
261.344962182917
 10
712.671345760966
 20
260.714545621257
 10
712.671345760966
 20
260.614545621258
 10
713.592191403455
 20
260.26106609729
 10
714.050463177555
 20
258.550772552651
 10
713.817223537437
 20
258.317532912526
 10
713.817223537437
 20
258.21753291252
 10
714.176732104068
 20
258.07953050351
 10
714.508805223551
 20
256.840216749752
 10
714.982206702647
 20
258.606975122118
 10
715.45716301677
 20
258.789293769321
 10
715.45716301677
 20
258.88929376932
 10
715.142237731925
 20
259.204219054165
 10
715.801807970187
 20
261.665768694529
  0
LINE
  5
1908
330
A
100
AcDbEntity
  8
中心線
 48
0.25
100
AcDbLine
 10
714.508805223551
 20
256.496113980469
 30
0.0
 11
714.508805223551
 21
320.394296603361
 31
0.0
  0
HATCH
  5
1909
330
A
100
AcDbEntity
  8
部材(積層鋼板)
 62
     4
100
AcDbHatch
 10
0.0
 20
0.0
 30
0.0
210
0.0
220
0.0
230
1.0
  2
ANSI31
 70
     0
 71
     0
 91
        3
 92
        7
 72
     1
 73
     1
 93
        8
 10
697.8578465537794
 20
316.3974776295217
 42
0.0
 10
714.5088052235733
 20
316.3974776295217
 42
0.0
 10
714.5088052235733
 20
319.5641442955202
 42
0.0
 10
697.8578465537794
 20
319.5641442955202
 42
-0.3639702342664197
 10
690.2419999298363
 20
325.9545983887801
 42
0.0
 10
689.0870730770912
 20
332.5045140517577
 42
0.0
 10
685.9685151932135
 20
331.9546281559305
 42
0.0
 10
687.1234420459587
 20
325.4047124929639
 42
0.3639702342665697
 97
        0
 92
        7
 72
     0
 73
     1
 93
        4
 10
714.5088052235733
 20
316.3974776295217
 10
734.5088052235733
 20
316.3974776295217
 10
734.5088052235733
 20
319.5641442955202
 10
714.5088052235733
 20
319.5641442955202
 97
        0
 92
        7
 72
     0
 73
     1
 93
        4
 10
749.5088052235733
 20
316.3974776295217
 10
749.5088052235733
 20
319.5641442955202
 10
734.5088052235733
 20
319.5641442955202
 10
734.5088052235733
 20
316.3974776295217
 97
        0
 75
     0
 76
     1
 52
0.0
 41
20.0
 77
     0
 78
     1
 53
45.0
 43
704.8100592625342
 44
225.8823113051913
 45
-1.767766952966369
 46
1.767766952966369
 79
     0
 47
0.0
 98
        3
 10
689.2100592625357
 20
327.082311305192
 10
717.2100592625357
 20
318.2823113051891
 10
738.4100592625327
 20
317.6823113051905
1001
ACAD
1010
0.0
1020
0.0
1030
0.0
1001
HATCHBACKGROUNDCOLOR
1071
-939524096
1000

1000

  0
LWPOLYLINE
  5
190A
330
A
100
AcDbEntity
  8
部材(積層鋼板)
100
AcDbPolyline
 90
        8
 70
     1
 43
0.0
 10
697.857846553779
 20
316.397477629522
 10
749.508805223573
 20
316.397477629522
 10
749.508805223573
 20
319.56414429552
 10
697.857846553779
 20
319.56414429552
 42
-0.363970234266
 10
690.241999929836
 20
325.95459838878
 10
689.087073077091
 20
332.504514051758
 10
685.968515193214
 20
331.954628155931
 10
687.123442045959
 20
325.404712492964
 42
0.363970234266
  0
LINE
  5
190B
330
A
100
AcDbEntity
  8
IBｼｰﾄ
100
AcDbLine
 10
749.508805223573
 20
320.56414429552
 30
0.0
 11
704.857846553779
 21
320.56414429552
 31
0.0
  0
ARC
  5
190C
330
A
100
AcDbEntity
  8
IBｼｰﾄ
100
AcDbCircle
 10
697.857846553779
 20
327.297477629512
 30
0.0
 40
6.733333333992315
100
AcDbArc
 50
189.999999999967
 51
247.888120325931
  0
LINE
  5
190D
330
A
100
AcDbEntity
  8
IBｼｰﾄ
100
AcDbLine
 10
691.226807682848
 20
326.128246566444
 30
0.0
 11
690.071880830103
 21
332.678162229426
 31
0.0
  0
LINE
  5
190E
330
A
100
AcDbEntity
  8
中心線
100
AcDbLine
 10
734.508805223573
 20
323.812643953817
 30
0.0
 11
734.508805223573
 21
305.812643953817
 31
0.0
  0
LINE
  5
190F
330
A
100
AcDbEntity
  8
IBｼｰﾄ
100
AcDbLine
 10
690.071880830103
 20
332.678162229426
 30
0.0
 11
685.968515193214
 21
337.568362968912
 31
0.0
  0
LINE
  5
1910
330
A
100
AcDbEntity
  8
IBｼｰﾄ
100
AcDbLine
 10
694.763275150297
 20
334.865795328358
 30
0.0
 11
690.968515193214
 21
339.388214140246
 31
0.0
  0
LINE
  5
1911
330
A
100
AcDbEntity
  8
IBｼｰﾄ
100
AcDbLine
 10
696.100568135276
 20
327.281629935125
 30
0.0
 11
694.763275150297
 21
334.865795328358
 31
0.0
  0
LINE
  5
1912
330
A
100
AcDbEntity
  8
IBｼｰﾄ
100
AcDbLine
 10
750.848551185729
 20
325.56414429552
 30
0.0
 11
704.857846553779
 21
325.56414429552
 31
0.0
  0
LINE
  5
1913
330
A
100
AcDbEntity
  8
IBｼｰﾄ
100
AcDbLine
 10
749.508805223573
 20
320.56414429552
 30
0.0
 11
756.725683587283
 21
316.397477629522
 31
0.0
  0
LINE
  5
1914
330
A
100
AcDbEntity
  8
IBｼｰﾄ
100
AcDbLine
 10
750.848551185729
 20
325.56414429552
 30
0.0
 11
758.065429549439
 21
321.397477629522
 31
0.0
  0
LINE
  5
1915
330
A
100
AcDbEntity
  8
IBｼｰﾄ
100
AcDbLine
 10
704.857846553779
 20
320.56414429552
 30
0.0
 11
704.857846553779
 21
325.56414429552
 31
0.0
  0
LINE
  5
1916
330
A
100
AcDbEntity
  8
IBリキッド
100
AcDbLine
 10
750.848551185729
 20
326.56414429552
 30
0.0
 11
743.848551185729
 21
326.56414429552
 31
0.0
  0
LINE
  5
1917
330
A
100
AcDbEntity
  8
IBｼｰﾄ
100
AcDbLine
 10
695.323309723026
 20
321.059376889687
 30
0.0
 11
704.857846553779
 21
326.56414429552
 31
0.0
  0
LINE
  5
1918
330
A
100
AcDbEntity
  8
IBｼｰﾄ
100
AcDbLine
 10
696.100568135276
 20
327.281629935125
 30
0.0
 11
703.518100591624
 21
331.56414429552
 31
0.0
  0
LINE
  5
1919
330
A
100
AcDbEntity
  8
IBリキッド
100
AcDbLine
 10
743.848551185729
 20
326.56414429552
 30
0.0
 11
743.848551185729
 21
331.56414429552
 31
0.0
  0
LINE
  5
191A
330
A
100
AcDbEntity
  8
IBｼｰﾄ
100
AcDbLine
 10
742.848551185729
 20
326.56414429552
 30
0.0
 11
742.848551185729
 21
331.56414429552
 31
0.0
  0
LINE
  5
191B
330
A
100
AcDbEntity
  8
IBｼｰﾄ
100
AcDbLine
 10
742.848551185729
 20
331.56414429552
 30
0.0
 11
703.518100591624
 21
331.56414429552
 31
0.0
  0
LINE
  5
191C
330
A
100
AcDbEntity
  8
IBｼｰﾄ
100
AcDbLine
 10
742.848551185729
 20
326.56414429552
 30
0.0
 11
704.857846553779
 21
326.56414429552
 31
0.0
  0
ARC
  5
191D
330
A
100
AcDbEntity
  8
IBリキッド
100
AcDbCircle
 10
743.848551185729
 20
324.164144295519
 30
0.0
 40
7.400000000000472
100
AcDbArc
 50
18.924644416062
 51
90.0
  0
LINE
  5
191E
330
A
100
AcDbEntity
  8
寸法線
100
AcDbLine
 10
775.550066848264
 20
436.535522072892
 30
0.0
 11
787.550066848264
 21
436.535522072892
 31
0.0
  0
TEXT
  5
191F
330
A
100
AcDbEntity
  8
文字
100
AcDbText
 10
792.090645664
 20
432.697033666369
 30
0.0
 40
12.0
  1
IB積層鋼鈑♯16
  7
基本スタイル
100
AcDbText
1001
AcadAnnotative
1000
AnnotativeData
1002
{
1070
     1
1070
     0
1002
}
  0
LWPOLYLINE
  5
1920
330
A
100
AcDbEntity
  8
寸法線
100
AcDbPolyline
 90
        3
 70
     0
 43
0.0
 10
712.260004136922
 20
323.806806040728
 10
708.017384508021
 20
319.56414429552
 10
709.570270012635
 20
325.359706960997
  0
LINE
  5
1921
330
A
100
AcDbEntity
  8
寸法線
100
AcDbLine
 10
708.017384508021
 20
319.56414429552
 30
0.0
 11
775.550066848264
 21
436.535522072892
 31
0.0
  0
LWPOLYLINE
  5
1922
330
A
100
AcDbEntity
  8
寸法線
100
AcDbPolyline
 90
        3
 70
     0
 43
0.0
 10
752.392333448151
 20
334.428433727651
 10
748.14971381925
 20
330.185771982444
 10
749.702599323864
 20
335.98133464792
  0
LINE
  5
1923
330
A
100
AcDbEntity
  8
寸法線
100
AcDbLine
 10
794.10722519808
 20
409.787429119631
 30
0.0
 11
806.10722519808
 21
409.787429119631
 31
0.0
  0
TEXT
  5
1924
330
A
100
AcDbEntity
  8
文字
100
AcDbText
 10
810.647804013817
 20
405.948940713115
 30
0.0
 40
12.0
  1
IBリキッド
  7
基本スタイル
100
AcDbText
1001
AcadAnnotative
1000
AnnotativeData
1002
{
1070
     1
1070
     0
1002
}
  0
LINE
  5
1925
330
A
100
AcDbEntity
  8
寸法線
100
AcDbLine
 10
748.14971381925
 20
330.185771982447
 30
0.0
 11
794.10722519808
 21
409.787429119631
 31
0.0
  0
LINE
  5
1926
330
A
100
AcDbEntity
  8
部材(ﾋﾞｽ類)
100
AcDbLine
 10
710.008805223551
 20
319.56414429552
 30
0.0
 11
719.008805223551
 21
319.56414429552
 31
0.0
  0
LINE
  5
1927
330
A
100
AcDbEntity
  8
部材(ﾋﾞｽ類)
100
AcDbLine
 10
716.17880522355
 20
316.734144295526
 30
0.0
 11
712.838805223553
 21
316.734144295526
 31
0.0
  0
LWPOLYLINE
  5
1928
330
A
100
AcDbEntity
  8
部材(ﾋﾞｽ類)
100
AcDbPolyline
 90
       10
 70
     0
 43
0.0
 10
712.838805223553
 20
311.665768694529
 10
712.838805223553
 20
316.319930733149
 42
0.19891236738
 10
712.545912004738
 20
317.027037514334
 10
710.008805223551
 20
319.56414429552
 10
710.008805223551
 20
319.864144295523
 10
719.008805223551
 20
319.864144295523
 10
719.008805223551
 20
319.56414429552
 10
716.471698442365
 20
317.027037514334
 42
0.19891236738
 10
716.17880522355
 20
316.319930733149
 10
716.17880522355
 20
311.665768694529
  0
LINE
  5
1929
330
A
100
AcDbEntity
  8
IBｼｰﾄ
100
AcDbLine
 10
685.968515193214
 20
337.568362968912
 30
0.0
 11
685.968515193214
 21
623.627551970112
 31
0.0
  0
LINE
  5
192A
330
A
100
AcDbEntity
  8
IBｼｰﾄ
100
AcDbLine
 10
690.968515193214
 20
339.388214140246
 30
0.0
 11
690.968515193214
 21
622.287806007957
 31
0.0
  0
LINE
  5
192B
330
A
100
AcDbEntity
  8
緩衝フォーム
100
AcDbLine
 10
681.635181860205
 20
636.748205285294
 30
0.0
 11
681.635181860205
 21
312.064144296521
 31
0.0
  0
LINE
  5
192C
330
A
100
AcDbEntity
  8
緩衝フォーム
100
AcDbLine
 10
684.968515193214
 20
636.748205285294
 30
0.0
 11
684.968515193214
 21
315.397477629522
 31
0.0
  0
LINE
  5
192D
330
A
100
AcDbEntity
  8
緩衝フォーム
100
AcDbLine
 10
684.968515193214
 20
636.748205285294
 30
0.0
 11
681.635181860205
 21
636.748205285294
 31
0.0
  0
LINE
  5
192E
330
A
100
AcDbEntity
  8
IBｼｰﾄ
100
AcDbLine
 10
756.725683587283
 20
316.397477629522
 30
0.0
 11
1280.635181860205
 21
316.397477629522
 31
0.0
  0
LINE
  5
192F
330
A
100
AcDbEntity
  8
IBｼｰﾄ
100
AcDbLine
 10
758.065429549439
 20
321.397477629522
 30
0.0
 11
1280.635181860205
 21
321.397477629522
 31
0.0
  0
LINE
  5
1930
330
A
100
AcDbEntity
  8
寸法線
100
AcDbLine
 10
1048.801873081604
 20
315.397477629522
 30
0.0
 11
1118.740153969011
 21
436.535522073897
 31
0.0
  0
LINE
  5
1931
330
A
100
AcDbEntity
  8
寸法線
100
AcDbLine
 10
1118.740153969011
 20
436.535522073897
 30
0.0
 11
1130.740153969011
 21
436.535522073897
 31
0.0
  0
TEXT
  5
1932
330
A
100
AcDbEntity
  8
文字
100
AcDbText
 10
1135.280732784748
 20
432.697033667366
 30
0.0
 40
12.0
  1
サンタックIB-LLシート 1.5㎜
  7
基本スタイル
100
AcDbText
1001
AcadAnnotative
1000
AnnotativeData
1002
{
1070
     1
1070
     0
1002
}
  0
LWPOLYLINE
  5
1933
330
A
100
AcDbEntity
  8
寸法線
100
AcDbPolyline
 90
        3
 70
     0
 43
0.0
 10
1053.044492710505
 20
319.640139374729
 10
1048.801873081604
 20
315.397477629522
 10
1050.354758586218
 20
321.193040294998
  0
LINE
  5
1934
330
A
100
AcDbEntity
  8
寸法線
100
AcDbLine
 10
1103.343241226488
 20
409.866981234107
 30
0.0
 11
1115.343241226488
 21
409.866981234107
 31
0.0
  0
TEXT
  5
1935
330
A
100
AcDbEntity
  8
文字
100
AcDbText
 10
1119.883820042225
 20
406.028492827591
 30
0.0
 40
12.0
  1
緩衝フォーム 1.0㎜
  7
基本スタイル
100
AcDbText
1001
AcadAnnotative
1000
AnnotativeData
1002
{
1070
     1
1070
     0
1002
}
  0
LINE
  5
1936
330
A
100
AcDbEntity
  8
緩衝フォーム
100
AcDbLine
 10
681.635181860205
 20
312.064144296521
 30
0.0
 11
1280.635181860205
 21
312.064144296521
 31
0.0
  0
LINE
  5
1937
330
A
100
AcDbEntity
  8
緩衝フォーム
100
AcDbLine
 10
684.968515193214
 20
315.397477629522
 30
0.0
 11
1280.635181860205
 21
315.397477629522
 31
0.0
  0
LINE
  5
1938
330
A
100
AcDbEntity
  8
寸法線
100
AcDbLine
 10
684.968515193214
 20
599.263038207984
 30
0.0
 11
739.509883338098
 21
504.793534603396
 31
0.0
  0
LINE
  5
1939
330
A
100
AcDbEntity
  8
寸法線
100
AcDbLine
 10
739.509883338098
 20
504.793534603396
 30
0.0
 11
751.509883338098
 21
504.793534603396
 31
0.0
  0
TEXT
  5
193A
330
A
100
AcDbEntity
  8
文字
100
AcDbText
 10
756.050462153835
 20
500.955046196872
 30
0.0
 40
12.0
  1
サンタックIB-LLシート 1.5㎜
  7
基本スタイル
100
AcDbText
1001
AcadAnnotative
1000
AnnotativeData
1002
{
1070
     1
1070
     0
1002
}
  0
LWPOLYLINE
  5
193B
330
A
100
AcDbEntity
  8
寸法線
100
AcDbPolyline
 90
        3
 70
     0
 43
0.0
 10
689.211134822115
 20
595.020376462777
 10
684.968515193214
 20
599.263038207984
 10
686.521400697828
 20
593.467475542504
  0
LINE
  5
193C
330
A
100
AcDbEntity
  8
寸法線
100
AcDbLine
 10
724.112970595575
 20
531.462075443178
 30
0.0
 11
736.112970595575
 21
531.462075443178
 31
0.0
  0
TEXT
  5
193D
330
A
100
AcDbEntity
  8
文字
100
AcDbText
 10
740.653549411312
 20
527.623587036654
 30
0.0
 40
12.0
  1
緩衝フォーム 1.0㎜
  7
基本スタイル
100
AcDbText
1001
AcadAnnotative
1000
AnnotativeData
1002
{
1070
     1
1070
     0
1002
}
  0
VIEWPORT
  5
1D
330
B
100
AcDbEntity
 67
     1
  8
0
100
AcDbViewport
 10
210.0
 20
148.5
 30
0.0
 40
420.0
 41
297.0
 68
     1
 69
     1
 12
4.5
 22
3.259162
 13
0.0
 23
0.0
 14
1.0
 24
1.0
 15
0.0
 25
0.0
 16
0.0
 26
0.0
 36
1.0
 17
0.0
 27
0.0
 37
0.0
 42
50.0
 43
0.0
 44
0.0
 45
9.311892
 50
0.0
 51
0.0
 72
   100
 90
   557216
  1

281
     0
 71
     1
 74
     0
110
0.0
120
0.0
130
0.0
111
1.0
121
0.0
131
0.0
112
0.0
122
1.0
132
0.0
 79
     0
146
0.0
170
     0
 61
     5
348
15D0
292
     0
282
     1
141
0.0
142
0.0
 63
   250
421
  3355443
  0
ENDSEC
  0
SECTION
  2
OBJECTS
  0
DICTIONARY
  5
19
330
0
100
AcDbDictionary
281
     1
  3
ACAD_COLOR
350
165F
  3
ACAD_DETAILVIEWSTYLE
350
1639
  3
ACAD_FIELDLIST
350
19D8
  3
ACAD_GROUP
350
1A
  3
ACAD_IMAGE_VARS
350
163B
  3
ACAD_LAYOUT
350
15C8
  3
ACAD_MATERIAL
350
15E4
  3
ACAD_MLEADERSTYLE
350
15EA
  3
ACAD_MLINESTYLE
350
1B
  3
ACAD_PLOTSETTINGS
350
15A3
  3
ACAD_PLOTSTYLENAME
350
15A4
  3
ACAD_SCALELIST
350
15A6
  3
ACAD_SECTIONVIEWSTYLE
350
163A
  3
ACAD_TABLESTYLE
350
15E8
  3
ACAD_VISUALSTYLE
350
15CB
  3
ACDB_RECOMPOSE_DATA
350
1A11
  3
AcDbVariableDictionary
350
15F4
  0
SUN
  5
15ED
330
15
100
AcDbSun
 90
        1
290
     0
 63
     7
421
 16777215
 40
1.0
291
     1
 91
  2455826
 92
 54000000
292
     0
 70
     2
 71
   256
280
     1
  0
DICTIONARY
  5
1809
330
2
100
AcDbDictionary
280
     1
281
     1
  3
ACAD_LAYERSTATES
360
180A
  0
DICTIONARY
  5
163E
330
163D
100
AcDbDictionary
280
     1
281
     1
  3
ADSK_XREC_LAYER_RECONCILED
360
163F
  0
DICTIONARY
  5
164B
330
164A
100
AcDbDictionary
280
     1
281
     1
  3
ADSK_XREC_LAYER_RECONCILED
360
164C
  0
DICTIONARY
  5
16BB
330
16BA
100
AcDbDictionary
280
     1
281
     1
  3
ACAD_SORTENTS
360
16BC
  0
DICTIONARY
  5
16C7
330
16C6
100
AcDbDictionary
280
     1
281
     1
  3
ACAD_SORTENTS
360
16C8
  0
DICTIONARY
  5
16D3
330
16D2
100
AcDbDictionary
280
     1
281
     1
  3
ACAD_SORTENTS
360
16D4
  0
DICTIONARY
  5
16DF
330
16DE
100
AcDbDictionary
280
     1
281
     1
  3
ACAD_SORTENTS
360
16E0
  0
DICTIONARY
  5
16F4
330
16F3
100
AcDbDictionary
280
     1
281
     1
  3
ACAD_SORTENTS
360
16F5
  0
DICTIONARY
  5
19D9
330
1858
100
AcDbDictionary
280
     1
281
     1
  3
ACAD_XREC_ROUNDTRIP
360
19DA
  0
DICTIONARY
  5
185B
330
185A
100
AcDbDictionary
280
     1
281
     1
  3
AcDbContextDataManager
360
185C
  0
DICTIONARY
  5
185F
330
185E
100
AcDbDictionary
280
     1
281
     1
  3
AcDbContextDataManager
360
1860
  0
DICTIONARY
  5
1863
330
1862
100
AcDbDictionary
280
     1
281
     1
  3
AcDbContextDataManager
360
1864
  0
DICTIONARY
  5
1867
330
1866
100
AcDbDictionary
280
     1
281
     1
  3
AcDbContextDataManager
360
1868
  0
DICTIONARY
  5
186B
330
186A
100
AcDbDictionary
280
     1
281
     1
  3
AcDbContextDataManager
360
186C
  0
DICTIONARY
  5
186F
330
186E
100
AcDbDictionary
280
     1
281
     1
  3
AcDbContextDataManager
360
1870
  0
DICTIONARY
  5
1874
330
1873
100
AcDbDictionary
280
     1
281
     1
  3
AcDbContextDataManager
360
1875
  0
DICTIONARY
  5
1878
330
1877
100
AcDbDictionary
280
     1
281
     1
  3
AcDbContextDataManager
360
1879
  0
DICTIONARY
  5
187C
330
187B
100
AcDbDictionary
280
     1
281
     1
  3
AcDbContextDataManager
360
187D
  0
DICTIONARY
  5
18D3
330
18D2
100
AcDbDictionary
280
     1
281
     1
  3
AcDbContextDataManager
360
18D4
  0
DICTIONARY
  5
165F
102
{ACAD_REACTORS
330
19
102
}
330
19
100
AcDbDictionary
281
     1
  0
DICTIONARY
  5
1639
102
{ACAD_REACTORS
330
19
102
}
330
19
100
AcDbDictionary
281
     1
  0
FIELDLIST
  5
19D8
102
{ACAD_REACTORS
330
19
102
}
330
19
100
AcDbIdSet
 90
        0
100
AcDbFieldList
  0
DICTIONARY
  5
1A
102
{ACAD_REACTORS
330
19
102
}
330
19
100
AcDbDictionary
281
     1
  0
RASTERVARIABLES
  5
163B
102
{ACAD_REACTORS
330
19
102
}
330
19
100
AcDbRasterVariables
 90
        0
 70
     1
 71
     1
 72
     0
  0
DICTIONARY
  5
15C8
102
{ACAD_REACTORS
330
19
102
}
330
19
100
AcDbDictionary
281
     1
  3
Model
350
15C9
  3
レイアウト1
350
15CA
  0
DICTIONARY
  5
15E4
102
{ACAD_REACTORS
330
19
102
}
330
19
100
AcDbDictionary
281
     1
  3
ByBlock
350
15E6
  3
ByLayer
350
15E5
  3
Global
350
15E7
  0
DICTIONARY
  5
15EA
102
{ACAD_REACTORS
330
19
102
}
330
19
100
AcDbDictionary
281
     1
  3
Standard
350
15EB
  0
DICTIONARY
  5
1B
102
{ACAD_REACTORS
330
19
102
}
330
19
100
AcDbDictionary
281
     1
  3
STANDARD
350
1C
  0
DICTIONARY
  5
15A3
102
{ACAD_REACTORS
330
19
102
}
330
19
100
AcDbDictionary
281
     1
  0
ACDBDICTIONARYWDFLT
  5
15A4
102
{ACAD_REACTORS
330
19
102
}
330
19
100
AcDbDictionary
281
     1
  3
Normal
350
15A5
100
AcDbDictionaryWithDefault
340
15A5
  0
DICTIONARY
  5
15A6
102
{ACAD_REACTORS
330
19
102
}
330
19
100
AcDbDictionary
281
     1
  3
A0
350
15A7
  3
A1
350
15A8
  3
A2
350
15A9
  3
A3
350
15AA
  3
A4
350
15AB
  3
A5
350
15AC
  3
A6
350
15AD
  3
A7
350
15AE
  3
A8
350
15AF
  3
A9
350
15B0
  3
B0
350
15B1
  3
B1
350
15B2
  3
B2
350
15B3
  3
B3
350
15B4
  3
B4
350
15B5
  3
B5
350
15B6
  3
B6
350
15B7
  3
B7
350
15B8
  3
B8
350
15B9
  3
B9
350
15BA
  3
C0
350
15BB
  3
C1
350
15BC
  3
C2
350
15BD
  3
C3
350
15BE
  3
C4
350
15BF
  3
C5
350
15C0
  3
C6
350
15C1
  3
C7
350
15C2
  3
C8
350
15C3
  3
C9
350
15C4
  3
D0
350
15C5
  3
D1
350
15C6
  3
D2
350
15C7
  0
DICTIONARY
  5
163A
102
{ACAD_REACTORS
330
19
102
}
330
19
100
AcDbDictionary
281
     1
  0
DICTIONARY
  5
15E8
102
{ACAD_REACTORS
330
19
102
}
330
19
100
AcDbDictionary
281
     1
  3
HISTORY_TABLE
350
1662
  3
Standard
350
15E9
  0
DICTIONARY
  5
15CB
102
{ACAD_REACTORS
330
19
102
}
330
19
100
AcDbDictionary
281
     1
  3
2dWireframe
350
15D0
  3
Basic
350
15D3
  3
Brighten
350
15D7
  3
ColorChange
350
15DB
  3
Conceptual
350
15D5
  3
Dim
350
15D6
  3
EdgeColorOff
350
15DE
  3
Facepattern
350
15DA
  3
Flat
350
15CC
  3
FlatWithEdges
350
15CD
  3
Gouraud
350
15CE
  3
GouraudWithEdges
350
15CF
  3
Hidden
350
15D2
  3
JitterOff
350
15DC
  3
Linepattern
350
15D9
  3
Modeling
350
15EC
  3
OverhangOff
350
15DD
  3
Realistic
350
15D4
  3
Shaded
350
15E3
  3
Shaded with edges
350
15E2
  3
Shades of Gray
350
15DF
  3
Sketchy
350
15E0
  3
Thicken
350
15D8
  3
Wireframe
350
15D1
  3
X-Ray
350
15E1
  0
XRECORD
  5
1A11
102
{ACAD_REACTORS
330
19
102
}
330
19
100
AcDbXrecord
280
     1
 90
        1
330
15E9
330
1662
330
1858
  0
DICTIONARY
  5
15F4
102
{ACAD_REACTORS
330
19
102
}
330
19
100
AcDbDictionary
281
     1
  3
CANNOSCALE
350
15F5
  3
CMLEADERSTYLE
350
1637
  3
CTABLESTYLE
350
1636
  3
MSLTSCALE
350
1638
  3
XCLIPFRAME
350
15F6
  0
DICTIONARY
  5
180A
102
{ACAD_REACTORS
330
1809
102
}
330
1809
100
AcDbDictionary
281
     1
  0
XRECORD
  5
163F
102
{ACAD_REACTORS
330
163E
102
}
330
163E
100
AcDbXrecord
280
     1
290
     1
  0
XRECORD
  5
164C
102
{ACAD_REACTORS
330
164B
102
}
330
164B
100
AcDbXrecord
280
     1
290
     1
  0
SORTENTSTABLE
  5
16BC
102
{ACAD_REACTORS
330
16BB
102
}
330
16BB
100
AcDbSortentsTable
330
16BA
331
16BE
  5
16BF
331
16BF
  5
16BE
  0
SORTENTSTABLE
  5
16C8
102
{ACAD_REACTORS
330
16C7
102
}
330
16C7
100
AcDbSortentsTable
330
16C6
331
16CA
  5
16CB
331
16CB
  5
16CA
  0
SORTENTSTABLE
  5
16D4
102
{ACAD_REACTORS
330
16D3
102
}
330
16D3
100
AcDbSortentsTable
330
16D2
331
16D6
  5
16D7
331
16D7
  5
16D6
  0
SORTENTSTABLE
  5
16E0
102
{ACAD_REACTORS
330
16DF
102
}
330
16DF
100
AcDbSortentsTable
330
16DE
331
16E2
  5
16E3
331
16E3
  5
16E2
  0
SORTENTSTABLE
  5
16F5
102
{ACAD_REACTORS
330
16F4
102
}
330
16F4
100
AcDbSortentsTable
330
16F3
331
16F7
  5
1723
331
16F8
  5
1722
331
16F9
  5
1721
331
16FA
  5
1720
331
16FB
  5
171F
331
16FC
  5
171E
331
16FD
  5
171D
331
16FE
  5
171C
331
16FF
  5
171B
331
1700
  5
171A
331
1701
  5
1719
331
1702
  5
1718
331
1703
  5
1717
331
1704
  5
1716
331
1705
  5
1715
331
1706
  5
1714
331
1707
  5
1713
331
1708
  5
1712
331
1709
  5
1711
331
170A
  5
1710
331
170B
  5
170F
331
170C
  5
170E
331
170E
  5
170C
331
170F
  5
170B
331
1710
  5
170A
331
1711
  5
1709
331
1712
  5
1708
331
1713
  5
1707
331
1714
  5
1706
331
1715
  5
1705
331
1716
  5
1704
331
1717
  5
1703
331
1718
  5
1702
331
1719
  5
1701
331
171A
  5
1700
331
171B
  5
16FF
331
171C
  5
16FE
331
171D
  5
16FD
331
171E
  5
16FC
331
171F
  5
16FB
331
1720
  5
16FA
331
1721
  5
16F9
331
1722
  5
16F8
331
1723
  5
16F7
  0
XRECORD
  5
19DA
102
{ACAD_REACTORS
330
19D9
102
}
330
19D9
100
AcDbXrecord
280
     1
102
ACAD_ROUNDTRIP_2008_TABLE_ENTITY
360
19D6
 70
     2
 90
        1
 10
0.0
 20
0.0
 30
0.0
 90
        0
 90
        4
361
19D7
  0
DICTIONARY
  5
185C
102
{ACAD_REACTORS
330
185B
102
}
330
185B
100
AcDbDictionary
281
     1
  3
ACDB_ANNOTATIONSCALES
350
185D
  0
DICTIONARY
  5
1860
102
{ACAD_REACTORS
330
185F
102
}
330
185F
100
AcDbDictionary
281
     1
  3
ACDB_ANNOTATIONSCALES
350
1861
  0
DICTIONARY
  5
1864
102
{ACAD_REACTORS
330
1863
102
}
330
1863
100
AcDbDictionary
281
     1
  3
ACDB_ANNOTATIONSCALES
350
1865
  0
DICTIONARY
  5
1868
102
{ACAD_REACTORS
330
1867
102
}
330
1867
100
AcDbDictionary
281
     1
  3
ACDB_ANNOTATIONSCALES
350
1869
  0
DICTIONARY
  5
186C
102
{ACAD_REACTORS
330
186B
102
}
330
186B
100
AcDbDictionary
281
     1
  3
ACDB_ANNOTATIONSCALES
350
186D
  0
DICTIONARY
  5
1870
102
{ACAD_REACTORS
330
186F
102
}
330
186F
100
AcDbDictionary
281
     1
  3
ACDB_ANNOTATIONSCALES
350
1871
  0
DICTIONARY
  5
1875
102
{ACAD_REACTORS
330
1874
102
}
330
1874
100
AcDbDictionary
281
     1
  3
ACDB_ANNOTATIONSCALES
350
1876
  0
DICTIONARY
  5
1879
102
{ACAD_REACTORS
330
1878
102
}
330
1878
100
AcDbDictionary
281
     1
  3
ACDB_ANNOTATIONSCALES
350
187A
  0
DICTIONARY
  5
187D
102
{ACAD_REACTORS
330
187C
102
}
330
187C
100
AcDbDictionary
281
     1
  3
ACDB_ANNOTATIONSCALES
350
187E
  0
DICTIONARY
  5
18D4
102
{ACAD_REACTORS
330
18D3
102
}
330
18D3
100
AcDbDictionary
281
     1
  3
ACDB_ANNOTATIONSCALES
350
18D5
  0
LAYOUT
  5
15C9
102
{ACAD_REACTORS
330
15C8
102
}
330
15C8
100
AcDbPlotSettings
  1

  2
none_device
  4
Letter_(8.50_x_11.00_Inches)
  6

 40
6.35
 41
6.35
 42
6.35000508
 43
6.35000508
 44
215.9
 45
279.4
 46
0.0
 47
0.0
 48
0.0
 49
0.0
140
0.0
141
0.0
142
1.0
143
28.28571482449
 70
  1712
 72
     0
 73
     0
 74
     0
  7

 75
     0
 76
     0
 77
     2
 78
   300
147
0.03535353468
148
-958.8054484
149
0.0
100
AcDbLayout
  1
Model
 70
     1
 71
     0
 10
0.0
 20
0.0
 11
420.0
 21
297.0
 12
0.0
 22
0.0
 32
0.0
 14
0.0
 24
0.0
 34
0.0
 15
1680.0
 25
1188.0
 35
0.0
146
0.0
 13
0.0
 23
0.0
 33
0.0
 16
1.0
 26
0.0
 36
0.0
 17
0.0
 27
1.0
 37
0.0
 76
     0
330
A
331
15
  0
LAYOUT
  5
15CA
102
{ACAD_REACTORS
330
15C8
102
}
330
15C8
100
AcDbPlotSettings
  1

  2
none_device
  4

  6

 40
0.0
 41
0.0
 42
0.0
 43
0.0
 44
0.0
 45
0.0
 46
0.0
 47
0.0
 48
0.0
 49
0.0
140
0.0
141
0.0
142
1.0
143
1.0
 70
   688
 72
     0
 73
     0
 74
     5
  7

 75
    16
 76
     0
 77
     2
 78
   300
147
1.0
148
0.0
149
0.0
100
AcDbLayout
  1
レイアウト1
 70
     0
 71
     1
 10
0.0
 20
0.0
 11
12.0
 21
9.0
 12
0.0
 22
0.0
 32
0.0
 14
1.000000000000E+20
 24
1.000000000000E+20
 34
1.000000000000E+20
 15
-1.000000000000E+20
 25
-1.000000000000E+20
 35
-1.000000000000E+20
146
0.0
 13
0.0
 23
0.0
 33
0.0
 16
1.0
 26
0.0
 36
0.0
 17
0.0
 27
1.0
 37
0.0
 76
     0
330
B
331
1D
  0
MATERIAL
  5
15E6
102
{ACAD_REACTORS
330
15E4
102
}
330
15E4
100
AcDbMaterial
  1
ByBlock
 72
     1
 94
      127
  0
MATERIAL
  5
15E5
102
{ACAD_REACTORS
330
15E4
102
}
330
15E4
100
AcDbMaterial
  1
ByLayer
 72
     1
 94
      127
  0
MATERIAL
  5
15E7
102
{ACAD_REACTORS
330
15E4
102
}
330
15E4
100
AcDbMaterial
  1
Global
 72
     1
 94
      127
  0
MLEADERSTYLE
  5
15EB
102
{ACAD_REACTORS
330
15EA
102
}
330
15EA
100
AcDbMLeaderStyle
179
     2
170
     2
171
     1
172
     0
 90
        2
 40
0.0
 41
0.0
173
     1
 91
-1056964608
340
11
 92
       -2
290
     1
 42
0.09
291
     1
 43
0.36
  3
Standard
341
0
 44
0.18
300

342
17
174
     1
178
     6
175
     1
176
     0
 93
-1056964608
 45
0.18
292
     0
297
     0
 46
0.18
343
0
 94
-1056964608
 47
1.0
 49
1.0
140
1.0
293
     1
141
0.0
294
     1
177
     0
142
1.0
295
     0
296
     0
143
0.125
271
     0
272
     9
273
     9
  0
MLINESTYLE
  5
1C
102
{ACAD_REACTORS
330
1B
102
}
330
1B
100
AcDbMlineStyle
  2
STANDARD
 70
     0
  3

 62
     0
 51
90.0
 52
90.0
 71
     2
 49
0.5
 62
   256
  6
BYLAYER
 49
-0.5
 62
   256
  6
BYLAYER
  0
ACDBPLACEHOLDER
  5
15A5
102
{ACAD_REACTORS
330
15A4
102
}
330
15A4
  0
SCALE
  5
15A7
102
{ACAD_REACTORS
330
15A6
102
}
330
15A6
100
AcDbScale
 70
     0
300
1:1
140
1.0
141
1.0
290
     1
  0
SCALE
  5
15A8
102
{ACAD_REACTORS
330
15A6
102
}
330
15A6
100
AcDbScale
 70
     0
300
1:2
140
1.0
141
2.0
290
     0
  0
SCALE
  5
15A9
102
{ACAD_REACTORS
330
15A6
102
}
330
15A6
100
AcDbScale
 70
     0
300
1:4
140
1.0
141
4.0
290
     0
  0
SCALE
  5
15AA
102
{ACAD_REACTORS
330
15A6
102
}
330
15A6
100
AcDbScale
 70
     0
300
1:5
140
1.0
141
5.0
290
     0
  0
SCALE
  5
15AB
102
{ACAD_REACTORS
330
15A6
102
}
330
15A6
100
AcDbScale
 70
     0
300
1:8
140
1.0
141
8.0
290
     0
  0
SCALE
  5
15AC
102
{ACAD_REACTORS
330
15A6
102
}
330
15A6
100
AcDbScale
 70
     0
300
1:10
140
1.0
141
10.0
290
     0
  0
SCALE
  5
15AD
102
{ACAD_REACTORS
330
15A6
102
}
330
15A6
100
AcDbScale
 70
     0
300
1:16
140
1.0
141
16.0
290
     0
  0
SCALE
  5
15AE
102
{ACAD_REACTORS
330
15A6
102
}
330
15A6
100
AcDbScale
 70
     0
300
1:20
140
1.0
141
20.0
290
     0
  0
SCALE
  5
15AF
102
{ACAD_REACTORS
330
15A6
102
}
330
15A6
100
AcDbScale
 70
     0
300
1:30
140
1.0
141
30.0
290
     0
  0
SCALE
  5
15B0
102
{ACAD_REACTORS
330
15A6
102
}
330
15A6
100
AcDbScale
 70
     0
300
1:40
140
1.0
141
40.0
290
     0
  0
SCALE
  5
15B1
102
{ACAD_REACTORS
330
15A6
102
}
330
15A6
100
AcDbScale
 70
     0
300
1:50
140
1.0
141
50.0
290
     0
  0
SCALE
  5
15B2
102
{ACAD_REACTORS
330
15A6
102
}
330
15A6
100
AcDbScale
 70
     0
300
1:100
140
1.0
141
100.0
290
     0
  0
SCALE
  5
15B3
102
{ACAD_REACTORS
330
15A6
102
}
330
15A6
100
AcDbScale
 70
     0
300
2:1
140
2.0
141
1.0
290
     0
  0
SCALE
  5
15B4
102
{ACAD_REACTORS
330
15A6
102
}
330
15A6
100
AcDbScale
 70
     0
300
4:1
140
4.0
141
1.0
290
     0
  0
SCALE
  5
15B5
102
{ACAD_REACTORS
330
15A6
102
}
330
15A6
100
AcDbScale
 70
     0
300
8:1
140
8.0
141
1.0
290
     0
  0
SCALE
  5
15B6
102
{ACAD_REACTORS
330
15A6
102
}
330
15A6
100
AcDbScale
 70
     0
300
10:1
140
10.0
141
1.0
290
     0
  0
SCALE
  5
15B7
102
{ACAD_REACTORS
330
15A6
102
}
330
15A6
100
AcDbScale
 70
     0
300
100:1
140
100.0
141
1.0
290
     0
  0
SCALE
  5
15B8
102
{ACAD_REACTORS
330
15A6
102
}
330
15A6
100
AcDbScale
 70
     0
300
1/128" = 1'-0"
140
0.0078125
141
12.0
290
     0
  0
SCALE
  5
15B9
102
{ACAD_REACTORS
330
15A6
102
}
330
15A6
100
AcDbScale
 70
     0
300
1/64" = 1'-0"
140
0.015625
141
12.0
290
     0
  0
SCALE
  5
15BA
102
{ACAD_REACTORS
330
15A6
102
}
330
15A6
100
AcDbScale
 70
     0
300
1/32" = 1'-0"
140
0.03125
141
12.0
290
     0
  0
SCALE
  5
15BB
102
{ACAD_REACTORS
330
15A6
102
}
330
15A6
100
AcDbScale
 70
     0
300
1/16" = 1'-0"
140
0.0625
141
12.0
290
     0
  0
SCALE
  5
15BC
102
{ACAD_REACTORS
330
15A6
102
}
330
15A6
100
AcDbScale
 70
     0
300
3/32" = 1'-0"
140
0.09375
141
12.0
290
     0
  0
SCALE
  5
15BD
102
{ACAD_REACTORS
330
15A6
102
}
330
15A6
100
AcDbScale
 70
     0
300
1/8" = 1'-0"
140
0.125
141
12.0
290
     0
  0
SCALE
  5
15BE
102
{ACAD_REACTORS
330
15A6
102
}
330
15A6
100
AcDbScale
 70
     0
300
3/16" = 1'-0"
140
0.1875
141
12.0
290
     0
  0
SCALE
  5
15BF
102
{ACAD_REACTORS
330
15A6
102
}
330
15A6
100
AcDbScale
 70
     0
300
1/4" = 1'-0"
140
0.25
141
12.0
290
     0
  0
SCALE
  5
15C0
102
{ACAD_REACTORS
330
15A6
102
}
330
15A6
100
AcDbScale
 70
     0
300
3/8" = 1'-0"
140
0.375
141
12.0
290
     0
  0
SCALE
  5
15C1
102
{ACAD_REACTORS
330
15A6
102
}
330
15A6
100
AcDbScale
 70
     0
300
1/2" = 1'-0"
140
0.5
141
12.0
290
     0
  0
SCALE
  5
15C2
102
{ACAD_REACTORS
330
15A6
102
}
330
15A6
100
AcDbScale
 70
     0
300
3/4" = 1'-0"
140
0.75
141
12.0
290
     0
  0
SCALE
  5
15C3
102
{ACAD_REACTORS
330
15A6
102
}
330
15A6
100
AcDbScale
 70
     0
300
1" = 1'-0"
140
1.0
141
12.0
290
     0
  0
SCALE
  5
15C4
102
{ACAD_REACTORS
330
15A6
102
}
330
15A6
100
AcDbScale
 70
     0
300
1-1/2" = 1'-0"
140
1.5
141
12.0
290
     0
  0
SCALE
  5
15C5
102
{ACAD_REACTORS
330
15A6
102
}
330
15A6
100
AcDbScale
 70
     0
300
3" = 1'-0"
140
3.0
141
12.0
290
     0
  0
SCALE
  5
15C6
102
{ACAD_REACTORS
330
15A6
102
}
330
15A6
100
AcDbScale
 70
     0
300
6" = 1'-0"
140
6.0
141
12.0
290
     0
  0
SCALE
  5
15C7
102
{ACAD_REACTORS
330
15A6
102
}
330
15A6
100
AcDbScale
 70
     0
300
1'-0" = 1'-0"
140
12.0
141
12.0
290
     0
  0
TABLESTYLE
  5
1662
102
{ACAD_REACTORS
330
15E8
330
1858
102
}
102
{ACAD_XDICTIONARY
360
1A0F
102
}
330
15E8
100
AcDbTableStyle
  3

 70
     1
 71
     0
 40
1.5
 41
1.5
280
     0
281
     0
  7
ＭＳ ゴシック
140
6.0
170
     2
 62
     0
 63
   257
283
     0
 90
        4
 91
        0
  1

274
    -2
284
     1
 64
     0
275
    -2
285
     1
 65
     0
276
    -2
286
     1
 66
     0
277
    -2
287
     1
 67
     0
278
    -2
288
     1
 68
     0
279
    -2
289
     1
 69
     0
  7
ＭＳ ゴシック
140
1.0
170
     5
 62
     0
 63
   257
283
     0
 90
        4
 91
        0
  1

274
    -2
284
     1
 64
     0
275
    -2
285
     1
 65
     0
276
    -2
286
     1
 66
     0
277
    -2
287
     1
 67
     0
278
    -2
288
     1
 68
     0
279
    -2
289
     1
 69
     0
  7
ＭＳ ゴシック
140
6.0
170
     5
 62
     0
 63
   257
283
     0
 90
        4
 91
        0
  1

274
    -2
284
     1
 64
     0
275
    -2
285
     1
 65
     0
276
    -2
286
     1
 66
     0
277
    -2
287
     1
 67
     0
278
    -2
288
     1
 68
     0
279
    -2
289
     1
 69
     0
  0
TABLESTYLE
  5
15E9
102
{ACAD_REACTORS
330
15E8
102
}
102
{ACAD_XDICTIONARY
360
1A0D
102
}
330
15E8
100
AcDbTableStyle
  3
Standard
 70
     0
 71
     0
 40
0.06
 41
0.06
280
     0
281
     0
  7
STANDARD
140
0.18
170
     2
 62
     0
 63
   257
283
     0
 90
        4
 91
        0
  1

274
    -2
284
     1
 64
     0
275
    -2
285
     1
 65
     0
276
    -2
286
     1
 66
     0
277
    -2
287
     1
 67
     0
278
    -2
288
     1
 68
     0
279
    -2
289
     1
 69
     0
  7
STANDARD
140
0.25
170
     5
 62
     0
 63
   257
283
     0
 90
        4
 91
        0
  1

274
    -2
284
     1
 64
     0
275
    -2
285
     1
 65
     0
276
    -2
286
     1
 66
     0
277
    -2
287
     1
 67
     0
278
    -2
288
     1
 68
     0
279
    -2
289
     1
 69
     0
  7
STANDARD
140
0.18
170
     5
 62
     0
 63
   257
283
     0
 90
        4
 91
        0
  1

274
    -2
284
     1
 64
     0
275
    -2
285
     1
 65
     0
276
    -2
286
     1
 66
     0
277
    -2
287
     1
 67
     0
278
    -2
288
     1
 68
     0
279
    -2
289
     1
 69
     0
  0
VISUALSTYLE
  5
15D0
102
{ACAD_REACTORS
330
15CB
102
}
102
{ACAD_XDICTIONARY
360
19E3
102
}
330
15CB
100
AcDbVisualStyle
  2
2dWireframe
 70
     4
177
     2
291
     0
 71
     0
176
     1
 72
     2
176
     1
 73
     0
176
     1
 90
        0
176
     1
 40
0.6
176
     1
 41
30.0
176
     1
 62
     5
 63
     7
421
 16777215
176
     1
 74
     1
176
     1
 91
        4
176
     1
 64
     7
176
     1
 65
   257
176
     1
 75
     1
176
     1
175
     1
176
     1
 42
1.0
176
     1
 92
        0
176
     1
 66
   257
176
     1
 43
1.0
176
     1
 76
     1
176
     1
 77
     6
176
     1
 78
     2
176
     1
 67
     7
176
     1
 79
     5
176
     1
170
     0
176
     1
171
     0
176
     1
290
     0
176
     1
 93
        1
176
     1
 44
0.0
176
     1
173
     0
176
     1
  0
VISUALSTYLE
  5
15D3
102
{ACAD_REACTORS
330
15CB
102
}
102
{ACAD_XDICTIONARY
360
19E9
102
}
330
15CB
100
AcDbVisualStyle
  2
Basic
 70
     7
177
     2
291
     1
 71
     1
176
     1
 72
     0
176
     1
 73
     1
176
     1
 90
        0
176
     1
 40
0.6
176
     1
 41
30.0
176
     1
 62
     5
 63
     7
421
 16777215
176
     1
 74
     0
176
     1
 91
        4
176
     1
 64
     7
176
     1
 65
   257
176
     1
 75
     1
176
     1
175
     1
176
     1
 42
1.0
176
     1
 92
        8
176
     1
 66
     7
176
     1
 43
1.0
176
     1
 76
     1
176
     1
 77
     6
176
     1
 78
     2
176
     1
 67
     7
176
     1
 79
     5
176
     1
170
     0
176
     1
171
     0
176
     1
290
     0
176
     1
 93
        1
176
     1
 44
0.0
176
     1
173
     0
176
     1
  0
VISUALSTYLE
  5
15D7
102
{ACAD_REACTORS
330
15CB
102
}
102
{ACAD_XDICTIONARY
360
19F1
102
}
330
15CB
100
AcDbVisualStyle
  2
Brighten
 70
    12
177
     2
291
     1
 71
     2
176
     1
 72
     2
176
     1
 73
     0
176
     1
 90
        0
176
     1
 40
0.6
176
     1
 41
30.0
176
     1
 62
     5
 63
     7
421
 16777215
176
     1
 74
     1
176
     1
 91
        4
176
     1
 64
     7
176
     1
 65
   257
176
     1
 75
     1
176
     1
175
     1
176
     1
 42
1.0
176
     1
 92
        8
176
     1
 66
     7
176
     1
 43
1.0
176
     1
 76
     1
176
     1
 77
     6
176
     1
 78
     2
176
     1
 67
     7
176
     1
 79
     5
176
     1
170
     0
176
     1
171
     0
176
     1
290
     0
176
     1
 93
        1
176
     1
 44
50.0
176
     1
173
     0
176
     1
  0
VISUALSTYLE
  5
15DB
102
{ACAD_REACTORS
330
15CB
102
}
102
{ACAD_XDICTIONARY
360
19F9
102
}
330
15CB
100
AcDbVisualStyle
  2
ColorChange
 70
    16
177
     2
291
     1
 71
     2
176
     1
 72
     2
176
     1
 73
     3
176
     1
 90
        0
176
     1
 40
0.6
176
     1
 41
30.0
176
     1
 62
     5
 63
     8
421
  8421504
176
     1
 74
     1
176
     1
 91
        4
176
     1
 64
     7
176
     1
 65
   257
176
     1
 75
     1
176
     1
175
     1
176
     1
 42
1.0
176
     1
 92
        8
176
     1
 66
     8
424
  8421504
176
     1
 43
1.0
176
     1
 76
     1
176
     1
 77
     6
176
     1
 78
     2
176
     1
 67
     7
176
     1
 79
     5
176
     1
170
     0
176
     1
171
     0
176
     1
290
     0
176
     1
 93
        1
176
     1
 44
0.0
176
     1
173
     0
176
     1
  0
VISUALSTYLE
  5
15D5
102
{ACAD_REACTORS
330
15CB
102
}
102
{ACAD_XDICTIONARY
360
19ED
102
}
330
15CB
100
AcDbVisualStyle
  2
Conceptual
 70
     9
177
     2
291
     0
 71
     3
176
     1
 72
     2
176
     1
 73
     0
176
     1
 90
        0
176
     1
 40
0.6
176
     1
 41
30.0
176
     1
 62
     5
 63
     7
421
 16777215
176
     1
 74
     2
176
     1
 91
        2
176
     1
 64
     7
176
     1
 65
   257
176
     1
 75
     1
176
     1
175
     1
176
     1
 42
179.0
176
     1
 92
        8
176
     1
 66
     7
176
     1
 43
1.0
176
     1
 76
     1
176
     1
 77
     6
176
     1
 78
     2
176
     1
 67
     7
176
     1
 79
     3
176
     1
170
     0
176
     1
171
     0
176
     1
290
     0
176
     1
 93
        1
176
     1
 44
0.0
176
     1
173
     0
176
     1
  0
VISUALSTYLE
  5
15D6
102
{ACAD_REACTORS
330
15CB
102
}
102
{ACAD_XDICTIONARY
360
19EF
102
}
330
15CB
100
AcDbVisualStyle
  2
Dim
 70
    11
177
     2
291
     1
 71
     2
176
     1
 72
     2
176
     1
 73
     0
176
     1
 90
        0
176
     1
 40
0.6
176
     1
 41
30.0
176
     1
 62
     5
 63
     7
421
 16777215
176
     1
 74
     1
176
     1
 91
        4
176
     1
 64
     7
176
     1
 65
   257
176
     1
 75
     1
176
     1
175
     1
176
     1
 42
1.0
176
     1
 92
        8
176
     1
 66
     7
176
     1
 43
1.0
176
     1
 76
     1
176
     1
 77
     6
176
     1
 78
     2
176
     1
 67
     7
176
     1
 79
     5
176
     1
170
     0
176
     1
171
     0
176
     1
290
     0
176
     1
 93
        1
176
     1
 44
-50.0
176
     1
173
     0
176
     1
  0
VISUALSTYLE
  5
15DE
102
{ACAD_REACTORS
330
15CB
102
}
102
{ACAD_XDICTIONARY
360
19FF
102
}
330
15CB
100
AcDbVisualStyle
  2
EdgeColorOff
 70
    22
177
     2
291
     1
 71
     2
176
     0
 72
     2
176
     0
 73
     0
176
     0
 90
        0
176
     0
 40
0.6
176
     0
 41
30.0
176
     0
 62
     5
 63
     7
421
 16777215
176
     0
 74
     1
176
     0
 91
        4
176
     0
 64
     7
176
     0
 65
   257
176
     0
 75
     1
176
     0
175
     1
176
     0
 42
1.0
176
     0
 92
        8
176
     2
 66
     7
176
     0
 43
1.0
176
     0
 76
     1
176
     0
 77
     6
176
     0
 78
     2
176
     0
 67
     7
176
     0
 79
     5
176
     0
170
     0
176
     0
171
     0
176
     0
290
     0
176
     0
 93
        1
176
     0
 44
0.0
176
     0
173
     0
176
     0
  0
VISUALSTYLE
  5
15DA
102
{ACAD_REACTORS
330
15CB
102
}
102
{ACAD_XDICTIONARY
360
19F7
102
}
330
15CB
100
AcDbVisualStyle
  2
Facepattern
 70
    15
177
     2
291
     1
 71
     2
176
     1
 72
     2
176
     1
 73
     0
176
     1
 90
        0
176
     1
 40
0.6
176
     1
 41
30.0
176
     1
 62
     5
 63
     7
421
 16777215
176
     1
 74
     1
176
     1
 91
        4
176
     1
 64
     7
176
     1
 65
   257
176
     1
 75
     1
176
     1
175
     1
176
     1
 42
1.0
176
     1
 92
        8
176
     1
 66
     7
176
     1
 43
1.0
176
     1
 76
     1
176
     1
 77
     6
176
     1
 78
     2
176
     1
 67
     7
176
     1
 79
     5
176
     1
170
     0
176
     1
171
     0
176
     1
290
     0
176
     1
 93
        1
176
     1
 44
0.0
176
     1
173
     0
176
     1
  0
VISUALSTYLE
  5
15CC
102
{ACAD_REACTORS
330
15CB
102
}
102
{ACAD_XDICTIONARY
360
19DB
102
}
330
15CB
100
AcDbVisualStyle
  2
Flat
 70
     0
177
     2
291
     1
 71
     2
176
     1
 72
     1
176
     1
 73
     1
176
     1
 90
        2
176
     1
 40
0.6
176
     1
 41
30.0
176
     1
 62
     5
 63
     7
421
 16777215
176
     1
 74
     0
176
     1
 91
        0
176
     1
 64
     7
176
     1
 65
   257
176
     1
 75
     1
176
     1
175
     1
176
     1
 42
1.0
176
     1
 92
        8
176
     1
 66
     7
176
     1
 43
1.0
176
     1
 76
     1
176
     1
 77
     6
176
     1
 78
     2
176
     1
 67
     7
176
     1
 79
     5
176
     1
170
     0
176
     1
171
     0
176
     1
290
     0
176
     1
 93
       13
176
     1
 44
0.0
176
     1
173
     0
176
     1
  0
VISUALSTYLE
  5
15CD
102
{ACAD_REACTORS
330
15CB
102
}
102
{ACAD_XDICTIONARY
360
19DD
102
}
330
15CB
100
AcDbVisualStyle
  2
FlatWithEdges
 70
     1
177
     2
291
     1
 71
     2
176
     1
 72
     1
176
     1
 73
     1
176
     1
 90
        2
176
     1
 40
0.6
176
     1
 41
30.0
176
     1
 62
     5
 63
     7
421
 16777215
176
     1
 74
     1
176
     1
 91
        0
176
     1
 64
     7
176
     1
 65
   257
176
     1
 75
     1
176
     1
175
     1
176
     1
 42
1.0
176
     1
 92
        0
176
     1
 66
   257
176
     1
 43
1.0
176
     1
 76
     1
176
     1
 77
     6
176
     1
 78
     2
176
     1
 67
     7
176
     1
 79
     5
176
     1
170
     0
176
     1
171
     0
176
     1
290
     0
176
     1
 93
       13
176
     1
 44
0.0
176
     1
173
     0
176
     1
  0
VISUALSTYLE
  5
15CE
102
{ACAD_REACTORS
330
15CB
102
}
102
{ACAD_XDICTIONARY
360
19DF
102
}
330
15CB
100
AcDbVisualStyle
  2
Gouraud
 70
     2
177
     2
291
     1
 71
     2
176
     1
 72
     2
176
     1
 73
     1
176
     1
 90
        2
176
     1
 40
0.6
176
     1
 41
30.0
176
     1
 62
     5
 63
     7
421
 16777215
176
     1
 74
     0
176
     1
 91
        0
176
     1
 64
     7
176
     1
 65
   257
176
     1
 75
     1
176
     1
175
     1
176
     1
 42
1.0
176
     1
 92
        0
176
     1
 66
     7
176
     1
 43
1.0
176
     1
 76
     1
176
     1
 77
     6
176
     1
 78
     2
176
     1
 67
     7
176
     1
 79
     5
176
     1
170
     0
176
     1
171
     0
176
     1
290
     0
176
     1
 93
       13
176
     1
 44
0.0
176
     1
173
     0
176
     1
  0
VISUALSTYLE
  5
15CF
102
{ACAD_REACTORS
330
15CB
102
}
102
{ACAD_XDICTIONARY
360
19E1
102
}
330
15CB
100
AcDbVisualStyle
  2
GouraudWithEdges
 70
     3
177
     2
291
     1
 71
     2
176
     1
 72
     2
176
     1
 73
     1
176
     1
 90
        2
176
     1
 40
0.6
176
     1
 41
30.0
176
     1
 62
     5
 63
     7
421
 16777215
176
     1
 74
     1
176
     1
 91
        0
176
     1
 64
     7
176
     1
 65
   257
176
     1
 75
     1
176
     1
175
     1
176
     1
 42
1.0
176
     1
 92
        0
176
     1
 66
   257
176
     1
 43
1.0
176
     1
 76
     1
176
     1
 77
     6
176
     1
 78
     2
176
     1
 67
     7
176
     1
 79
     5
176
     1
170
     0
176
     1
171
     0
176
     1
290
     0
176
     1
 93
       13
176
     1
 44
0.0
176
     1
173
     0
176
     1
  0
VISUALSTYLE
  5
15D2
102
{ACAD_REACTORS
330
15CB
102
}
102
{ACAD_XDICTIONARY
360
19E7
102
}
330
15CB
100
AcDbVisualStyle
  2
Hidden
 70
     6
177
     2
291
     0
 71
     1
176
     1
 72
     2
176
     1
 73
     2
176
     1
 90
        0
176
     1
 40
0.6
176
     1
 41
30.0
176
     1
 62
     5
 63
     7
421
 16777215
176
     1
 74
     2
176
     1
 91
        2
176
     1
 64
     7
176
     1
 65
   257
176
     1
 75
     2
176
     1
175
     1
176
     1
 42
40.0
176
     1
 92
        0
176
     1
 66
   257
176
     1
 43
1.0
176
     1
 76
     1
176
     1
 77
     6
176
     1
 78
     2
176
     1
 67
     7
176
     1
 79
     3
176
     1
170
     0
176
     1
171
     0
176
     1
290
     0
176
     1
 93
        1
176
     1
 44
0.0
176
     1
173
     0
176
     1
  0
VISUALSTYLE
  5
15DC
102
{ACAD_REACTORS
330
15CB
102
}
102
{ACAD_XDICTIONARY
360
19FB
102
}
330
15CB
100
AcDbVisualStyle
  2
JitterOff
 70
    20
177
     2
291
     1
 71
     2
176
     0
 72
     2
176
     0
 73
     0
176
     0
 90
        0
176
     0
 40
0.6
176
     0
 41
30.0
176
     0
 62
     5
 63
     7
421
 16777215
176
     0
 74
     1
176
     0
 91
        4
176
     0
 64
     7
176
     0
 65
   257
176
     0
 75
     1
176
     0
175
     1
176
     0
 42
1.0
176
     0
 92
       10
176
     2
 66
     7
176
     0
 43
1.0
176
     0
 76
     1
176
     0
 77
     6
176
     0
 78
     2
176
     0
 67
     7
176
     0
 79
     5
176
     0
170
     0
176
     0
171
     0
176
     0
290
     0
176
     0
 93
        1
176
     0
 44
0.0
176
     0
173
     0
176
     0
  0
VISUALSTYLE
  5
15D9
102
{ACAD_REACTORS
330
15CB
102
}
102
{ACAD_XDICTIONARY
360
19F5
102
}
330
15CB
100
AcDbVisualStyle
  2
Linepattern
 70
    14
177
     2
291
     1
 71
     2
176
     1
 72
     2
176
     1
 73
     0
176
     1
 90
        0
176
     1
 40
0.6
176
     1
 41
30.0
176
     1
 62
     5
 63
     7
421
 16777215
176
     1
 74
     1
176
     1
 91
        4
176
     1
 64
     7
176
     1
 65
   257
176
     1
 75
     7
176
     1
175
     7
176
     1
 42
1.0
176
     1
 92
        8
176
     1
 66
     7
176
     1
 43
1.0
176
     1
 76
     1
176
     1
 77
     6
176
     1
 78
     2
176
     1
 67
     7
176
     1
 79
     5
176
     1
170
     0
176
     1
171
     0
176
     1
290
     0
176
     1
 93
        1
176
     1
 44
0.0
176
     1
173
     0
176
     1
  0
VISUALSTYLE
  5
15EC
102
{ACAD_REACTORS
330
15CB
102
}
102
{ACAD_XDICTIONARY
360
1A0B
102
}
330
15CB
100
AcDbVisualStyle
  2
Modeling
 70
    10
177
     2
291
     0
 71
     2
176
     1
 72
     3
176
     1
 73
     0
176
     1
 90
        2
176
     1
 40
0.6
176
     1
 41
30.0
176
     1
 62
     5
 63
     7
421
 16777215
176
     1
 74
     2
176
     1
 91
        0
176
     1
 64
     7
176
     1
 65
   257
176
     1
 75
     1
176
     1
175
     1
176
     1
 42
180.0
176
     1
 92
        8
176
     1
 66
     8
424
  7895160
176
     1
 43
1.0
176
     1
 76
     1
176
     1
 77
     6
176
     1
 78
     2
176
     1
 67
     7
176
     1
 79
     5
176
     1
170
     0
176
     1
171
     0
176
     1
290
     0
176
     1
 93
       13
176
     1
 44
0.0
176
     1
173
     0
176
     1
  0
VISUALSTYLE
  5
15DD
102
{ACAD_REACTORS
330
15CB
102
}
102
{ACAD_XDICTIONARY
360
19FD
102
}
330
15CB
100
AcDbVisualStyle
  2
OverhangOff
 70
    21
177
     2
291
     1
 71
     2
176
     0
 72
     2
176
     0
 73
     0
176
     0
 90
        0
176
     0
 40
0.6
176
     0
 41
30.0
176
     0
 62
     5
 63
     7
421
 16777215
176
     0
 74
     1
176
     0
 91
        4
176
     0
 64
     7
176
     0
 65
   257
176
     0
 75
     1
176
     0
175
     1
176
     0
 42
1.0
176
     0
 92
        9
176
     2
 66
     7
176
     0
 43
1.0
176
     0
 76
     1
176
     0
 77
     6
176
     0
 78
     2
176
     0
 67
     7
176
     0
 79
     5
176
     0
170
     0
176
     0
171
     0
176
     0
290
     0
176
     0
 93
        1
176
     0
 44
0.0
176
     0
173
     0
176
     0
  0
VISUALSTYLE
  5
15D4
102
{ACAD_REACTORS
330
15CB
102
}
102
{ACAD_XDICTIONARY
360
19EB
102
}
330
15CB
100
AcDbVisualStyle
  2
Realistic
 70
     8
177
     2
291
     0
 71
     2
176
     1
 72
     3
176
     1
 73
     0
176
     1
 90
        2
176
     1
 40
0.6
176
     1
 41
30.0
176
     1
 62
     5
 63
     7
421
 16777215
176
     1
 74
     0
176
     1
 91
        0
176
     1
 64
     7
176
     1
 65
   257
176
     1
 75
     1
176
     1
175
     1
176
     1
 42
1.0
176
     1
 92
        8
176
     1
 66
   257
176
     1
 43
1.0
176
     1
 76
     1
176
     1
 77
     6
176
     1
 78
     2
176
     1
 67
     7
176
     1
 79
     3
176
     1
170
     0
176
     1
171
     0
176
     1
290
     0
176
     1
 93
       13
176
     1
 44
0.0
176
     1
173
     0
176
     1
  0
VISUALSTYLE
  5
15E3
102
{ACAD_REACTORS
330
15CB
102
}
102
{ACAD_XDICTIONARY
360
1A09
102
}
330
15CB
100
AcDbVisualStyle
  2
Shaded
 70
    27
177
     2
291
     0
 71
     2
176
     1
 72
     2
176
     1
 73
     1
176
     1
 90
        2
176
     1
 40
0.6
176
     1
 41
30.0
176
     1
 62
     5
 63
     7
421
 16777215
176
     1
 74
     0
176
     1
 91
        4
176
     1
 64
     7
176
     1
 65
   257
176
     1
 75
     1
176
     1
175
     1
176
     1
 42
1.0
176
     1
 92
        8
176
     1
 66
   257
176
     1
 43
1.0
176
     1
 76
     1
176
     1
 77
     6
176
     1
 78
     2
176
     1
 67
     8
425
  7895160
176
     1
 79
     3
176
     1
170
     0
176
     1
171
     0
176
     1
290
     0
176
     1
 93
        5
176
     1
 44
0.0
176
     1
173
     0
176
     1
  0
VISUALSTYLE
  5
15E2
102
{ACAD_REACTORS
330
15CB
102
}
102
{ACAD_XDICTIONARY
360
1A07
102
}
330
15CB
100
AcDbVisualStyle
  2
Shaded with edges
 70
    26
177
     2
291
     0
 71
     2
176
     1
 72
     2
176
     1
 73
     1
176
     1
 90
        2
176
     1
 40
0.6
176
     1
 41
30.0
176
     1
 62
     5
 63
     7
421
 16777215
176
     1
 74
     1
176
     1
 91
       10
176
     1
 64
     7
176
     1
 65
   257
176
     1
 75
     2
176
     1
175
     1
176
     1
 42
1.0
176
     1
 92
        8
176
     1
 66
   257
176
     1
 43
1.0
176
     1
 76
     1
176
     1
 77
     6
176
     1
 78
     2
176
     1
 67
     7
176
     1
 79
     3
176
     1
170
     0
176
     1
171
     0
176
     1
290
     0
176
     1
 93
        5
176
     1
 44
0.0
176
     1
173
     0
176
     1
  0
VISUALSTYLE
  5
15DF
102
{ACAD_REACTORS
330
15CB
102
}
102
{ACAD_XDICTIONARY
360
1A01
102
}
330
15CB
100
AcDbVisualStyle
  2
Shades of Gray
 70
    23
177
     2
291
     0
 71
     2
176
     1
 72
     2
176
     1
 73
     3
176
     1
 90
        0
176
     1
 40
0.6
176
     1
 41
30.0
176
     1
 62
     5
 63
     7
421
 16777215
176
     1
 74
     2
176
     1
 91
        2
176
     1
 64
     7
176
     1
 65
     7
176
     1
 75
     1
176
     1
175
     1
176
     1
 42
40.0
176
     1
 92
        8
176
     1
 66
     7
176
     1
 43
1.0
176
     1
 76
     1
176
     1
 77
     6
176
     1
 78
     2
176
     1
 67
     7
176
     1
 79
     3
176
     1
170
     0
176
     1
171
     0
176
     1
290
     0
176
     1
 93
        1
176
     1
 44
0.0
176
     1
173
     0
176
     1
  0
VISUALSTYLE
  5
15E0
102
{ACAD_REACTORS
330
15CB
102
}
102
{ACAD_XDICTIONARY
360
1A03
102
}
330
15CB
100
AcDbVisualStyle
  2
Sketchy
 70
    24
177
     2
291
     0
 71
     1
176
     1
 72
     2
176
     1
 73
     2
176
     1
 90
        0
176
     1
 40
0.6
176
     1
 41
30.0
176
     1
 62
     5
 63
     7
421
 16777215
176
     1
 74
     2
176
     1
 91
        2
176
     1
 64
     7
176
     1
 65
     7
176
     1
 75
     1
176
     1
175
     1
176
     1
 42
40.0
176
     1
 92
       11
176
     1
 66
     7
176
     1
 43
1.0
176
     1
 76
     1
176
     1
 77
     6
176
     1
 78
     2
176
     1
 67
     7
176
     1
 79
     6
176
     1
170
     0
176
     1
171
     0
176
     1
290
     0
176
     1
 93
        1
176
     1
 44
0.0
176
     1
173
     0
176
     1
  0
VISUALSTYLE
  5
15D8
102
{ACAD_REACTORS
330
15CB
102
}
102
{ACAD_XDICTIONARY
360
19F3
102
}
330
15CB
100
AcDbVisualStyle
  2
Thicken
 70
    13
177
     2
291
     1
 71
     2
176
     1
 72
     2
176
     1
 73
     0
176
     1
 90
        0
176
     1
 40
0.6
176
     1
 41
30.0
176
     1
 62
     5
 63
     7
421
 16777215
176
     1
 74
     1
176
     1
 91
        4
176
     1
 64
     7
176
     1
 65
   257
176
     1
 75
     1
176
     1
175
     1
176
     1
 42
1.0
176
     1
 92
       12
176
     1
 66
     7
176
     1
 43
1.0
176
     1
 76
     1
176
     1
 77
     6
176
     1
 78
     2
176
     1
 67
     7
176
     1
 79
     5
176
     1
170
     0
176
     1
171
     0
176
     1
290
     0
176
     1
 93
        1
176
     1
 44
0.0
176
     1
173
     0
176
     1
  0
VISUALSTYLE
  5
15D1
102
{ACAD_REACTORS
330
15CB
102
}
102
{ACAD_XDICTIONARY
360
19E5
102
}
330
15CB
100
AcDbVisualStyle
  2
Wireframe
 70
     5
177
     2
291
     0
 71
     0
176
     1
 72
     2
176
     1
 73
     0
176
     1
 90
        0
176
     1
 40
0.6
176
     1
 41
30.0
176
     1
 62
     5
 63
     7
421
 16777215
176
     1
 74
     1
176
     1
 91
        4
176
     1
 64
     7
176
     1
 65
   257
176
     1
 75
     1
176
     1
175
     1
176
     1
 42
1.0
176
     1
 92
        0
176
     1
 66
   257
176
     1
 43
1.0
176
     1
 76
     1
176
     1
 77
     6
176
     1
 78
     2
176
     1
 67
     7
176
     1
 79
     3
176
     1
170
     0
176
     1
171
     0
176
     1
290
     0
176
     1
 93
        1
176
     1
 44
0.0
176
     1
173
     0
176
     1
  0
VISUALSTYLE
  5
15E1
102
{ACAD_REACTORS
330
15CB
102
}
102
{ACAD_XDICTIONARY
360
1A05
102
}
330
15CB
100
AcDbVisualStyle
  2
X-Ray
 70
    25
177
     2
291
     0
 71
     2
176
     1
 72
     2
176
     1
 73
     1
176
     1
 90
        1
176
     1
 40
0.5
176
     1
 41
30.0
176
     1
 62
     5
 63
     7
421
 16777215
176
     1
 74
     1
176
     1
 91
        0
176
     1
 64
     7
176
     1
 65
   257
176
     1
 75
     1
176
     1
175
     1
176
     1
 42
1.0
176
     1
 92
        8
176
     1
 66
     7
176
     1
 43
1.0
176
     1
 76
     1
176
     1
 77
     6
176
     1
 78
     2
176
     1
 67
     7
176
     1
 79
     3
176
     1
170
     0
176
     1
171
     0
176
     1
290
     0
176
     1
 93
       13
176
     1
 44
0.0
176
     1
173
     0
176
     1
  0
DICTIONARYVAR
  5
15F5
102
{ACAD_REACTORS
330
15F4
102
}
330
15F4
100
DictionaryVariables
280
     0
  1
1:1
  0
DICTIONARYVAR
  5
1637
102
{ACAD_REACTORS
330
15F4
102
}
330
15F4
100
DictionaryVariables
280
     0
  1
Standard
  0
DICTIONARYVAR
  5
1636
102
{ACAD_REACTORS
330
15F4
102
}
330
15F4
100
DictionaryVariables
280
     0
  1
Standard
  0
DICTIONARYVAR
  5
1638
102
{ACAD_REACTORS
330
15F4
102
}
330
15F4
100
DictionaryVariables
280
     0
  1
0
  0
DICTIONARYVAR
  5
15F6
102
{ACAD_REACTORS
330
15F4
102
}
330
15F4
100
DictionaryVariables
280
     0
  1
2
  0
TABLECONTENT
  5
19D6
330
19DA
100
AcDbLinkedData
  1

300

100
AcDbLinkedTableData
 90
        4
300
COLUMN
  1
LINKEDTABLEDATACOLUMN_BEGIN
300

 91
        0
301
CUSTOMDATA
  1
DATAMAP_BEGIN
 90
        0
309
DATAMAP_END
309
LINKEDTABLEDATACOLUMN_END
  1
FORMATTEDTABLEDATACOLUMN_BEGIN
300
COLUMNTABLEFORMAT
  1
TABLEFORMAT_BEGIN
 90
        3
170
     1
 91
      128
 92
        0
 62
   257
 93
        1
300
CONTENTFORMAT
  1
CONTENTFORMAT_BEGIN
 90
      128
 91
        0
 92
      512
 93
        0
300

 40
0.0
140
1.0
 94
        1
 62
     0
340
0
144
0.225
309
CONTENTFORMAT_END
171
     0
 94
        0
309
TABLEFORMAT_END
309
FORMATTEDTABLEDATACOLUMN_END
  1
TABLECOLUMN_BEGIN
 90
        0
 40
37.5
309
TABLECOLUMN_END
300
COLUMN
  1
LINKEDTABLEDATACOLUMN_BEGIN
300

 91
        0
301
CUSTOMDATA
  1
DATAMAP_BEGIN
 90
        0
309
DATAMAP_END
309
LINKEDTABLEDATACOLUMN_END
  1
FORMATTEDTABLEDATACOLUMN_BEGIN
300
COLUMNTABLEFORMAT
  1
TABLEFORMAT_BEGIN
 90
        3
170
     1
 91
      128
 92
        0
 62
   257
 93
        1
300
CONTENTFORMAT
  1
CONTENTFORMAT_BEGIN
 90
      128
 91
        0
 92
      512
 93
        0
300

 40
0.0
140
1.0
 94
        1
 62
     0
340
0
144
0.225
309
CONTENTFORMAT_END
171
     0
 94
        0
309
TABLEFORMAT_END
309
FORMATTEDTABLEDATACOLUMN_END
  1
TABLECOLUMN_BEGIN
 90
        0
 40
50.0
309
TABLECOLUMN_END
300
COLUMN
  1
LINKEDTABLEDATACOLUMN_BEGIN
300

 91
        0
301
CUSTOMDATA
  1
DATAMAP_BEGIN
 90
        0
309
DATAMAP_END
309
LINKEDTABLEDATACOLUMN_END
  1
FORMATTEDTABLEDATACOLUMN_BEGIN
300
COLUMNTABLEFORMAT
  1
TABLEFORMAT_BEGIN
 90
        3
170
     1
 91
      128
 92
        0
 62
   257
 93
        1
300
CONTENTFORMAT
  1
CONTENTFORMAT_BEGIN
 90
      128
 91
        0
 92
      512
 93
        0
300

 40
0.0
140
1.0
 94
        1
 62
     0
340
0
144
0.225
309
CONTENTFORMAT_END
171
     0
 94
        0
309
TABLEFORMAT_END
309
FORMATTEDTABLEDATACOLUMN_END
  1
TABLECOLUMN_BEGIN
 90
        0
 40
37.5
309
TABLECOLUMN_END
300
COLUMN
  1
LINKEDTABLEDATACOLUMN_BEGIN
300

 91
        0
301
CUSTOMDATA
  1
DATAMAP_BEGIN
 90
        0
309
DATAMAP_END
309
LINKEDTABLEDATACOLUMN_END
  1
FORMATTEDTABLEDATACOLUMN_BEGIN
300
COLUMNTABLEFORMAT
  1
TABLEFORMAT_BEGIN
 90
        3
170
     1
 91
      128
 92
        0
 62
   257
 93
        1
300
CONTENTFORMAT
  1
CONTENTFORMAT_BEGIN
 90
      128
 91
        0
 92
      512
 93
        0
300

 40
0.0
140
1.0
 94
        1
 62
     0
340
0
144
0.225
309
CONTENTFORMAT_END
171
     0
 94
        0
309
TABLEFORMAT_END
309
FORMATTEDTABLEDATACOLUMN_END
  1
TABLECOLUMN_BEGIN
 90
        0
 40
325.0
309
TABLECOLUMN_END
 91
        5
301
ROW
  1
LINKEDTABLEDATAROW_BEGIN
 90
        4
300
CELL
  1
LINKEDTABLEDATACELL_BEGIN
 90
        0
300

 91
        0
301
CUSTOMDATA
  1
DATAMAP_BEGIN
 90
        0
309
DATAMAP_END
 92
        0
 95
        1
302
CONTENT
  1
CELLCONTENT_BEGIN
 90
        1
300
VALUE
 93
        4
 90
        4
  1
符号
 94
        0
300

302
符号
304
ACVALUE_END
 91
        0
309
CELLCONTENT_END
  1
FORMATTEDCELLCONTENT_BEGIN
170
     1
300
CONTENTFORMAT
  1
CONTENTFORMAT_BEGIN
 90
      129
 91
        0
 92
        4
 93
        0
300

 40
0.0
140
1.0
 94
        1
 62
     0
340
0
144
7.5
309
CONTENTFORMAT_END
309
FORMATTEDCELLCONTENT_END
309
LINKEDTABLEDATACELL_END
  1
FORMATTEDTABLEDATACELL_BEGIN
300
CELLTABLEFORMAT
  1
TABLEFORMAT_BEGIN
 90
        1
170
     1
 91
   408576
 92
        0
 62
   257
 93
        1
300
CONTENTFORMAT
  1
CONTENTFORMAT_BEGIN
 90
        0
 91
        0
 92
      512
 93
        0
300

 40
0.0
140
1.0
 94
        1
 62
     0
340
0
144
0.18
309
CONTENTFORMAT_END
171
     1
301
MARGIN
  1
CELLMARGIN_BEGIN
 40
1.875
 40
1.875
 40
1.875
 40
1.875
 40
1.875
 40
1.875
309
CELLMARGIN_END
 94
        0
309
TABLEFORMAT_END
309
FORMATTEDTABLEDATACELL_END
  1
TABLECELL_BEGIN
 90
        2
 91
        0
309
TABLECELL_END
300
CELL
  1
LINKEDTABLEDATACELL_BEGIN
 90
        0
300

 91
        0
301
CUSTOMDATA
  1
DATAMAP_BEGIN
 90
        0
309
DATAMAP_END
 92
        0
 95
        1
302
CONTENT
  1
CELLCONTENT_BEGIN
 90
        1
300
VALUE
 93
        4
 90
        4
  1
日付
 94
        0
300

302
日付
304
ACVALUE_END
 91
        0
309
CELLCONTENT_END
  1
FORMATTEDCELLCONTENT_BEGIN
170
     1
300
CONTENTFORMAT
  1
CONTENTFORMAT_BEGIN
 90
      129
 91
        0
 92
        4
 93
        0
300

 40
0.0
140
1.0
 94
        1
 62
     0
340
0
144
7.5
309
CONTENTFORMAT_END
309
FORMATTEDCELLCONTENT_END
309
LINKEDTABLEDATACELL_END
  1
FORMATTEDTABLEDATACELL_BEGIN
300
CELLTABLEFORMAT
  1
TABLEFORMAT_BEGIN
 90
        1
170
     1
 91
   408576
 92
        0
 62
   257
 93
        1
300
CONTENTFORMAT
  1
CONTENTFORMAT_BEGIN
 90
        0
 91
        0
 92
      512
 93
        0
300

 40
0.0
140
1.0
 94
        1
 62
     0
340
0
144
0.18
309
CONTENTFORMAT_END
171
     1
301
MARGIN
  1
CELLMARGIN_BEGIN
 40
1.875
 40
1.875
 40
1.875
 40
1.875
 40
1.875
 40
1.875
309
CELLMARGIN_END
 94
        0
309
TABLEFORMAT_END
309
FORMATTEDTABLEDATACELL_END
  1
TABLECELL_BEGIN
 90
        2
 91
        0
309
TABLECELL_END
300
CELL
  1
LINKEDTABLEDATACELL_BEGIN
 90
        0
300

 91
        0
301
CUSTOMDATA
  1
DATAMAP_BEGIN
 90
        0
309
DATAMAP_END
 92
        0
 95
        1
302
CONTENT
  1
CELLCONTENT_BEGIN
 90
        1
300
VALUE
 93
        4
 90
        4
  1
訂正者
 94
        0
300

302
訂正者
304
ACVALUE_END
 91
        0
309
CELLCONTENT_END
  1
FORMATTEDCELLCONTENT_BEGIN
170
     1
300
CONTENTFORMAT
  1
CONTENTFORMAT_BEGIN
 90
      129
 91
        0
 92
        4
 93
        0
300

 40
0.0
140
1.0
 94
        1
 62
     0
340
0
144
7.5
309
CONTENTFORMAT_END
309
FORMATTEDCELLCONTENT_END
309
LINKEDTABLEDATACELL_END
  1
FORMATTEDTABLEDATACELL_BEGIN
300
CELLTABLEFORMAT
  1
TABLEFORMAT_BEGIN
 90
        1
170
     1
 91
   408576
 92
        0
 62
   257
 93
        1
300
CONTENTFORMAT
  1
CONTENTFORMAT_BEGIN
 90
        0
 91
        0
 92
      512
 93
        0
300

 40
0.0
140
1.0
 94
        1
 62
     0
340
0
144
0.18
309
CONTENTFORMAT_END
171
     1
301
MARGIN
  1
CELLMARGIN_BEGIN
 40
1.875
 40
1.875
 40
1.875
 40
1.875
 40
1.875
 40
1.875
309
CELLMARGIN_END
 94
        0
309
TABLEFORMAT_END
309
FORMATTEDTABLEDATACELL_END
  1
TABLECELL_BEGIN
 90
        2
 91
        0
309
TABLECELL_END
300
CELL
  1
LINKEDTABLEDATACELL_BEGIN
 90
        0
300

 91
        0
301
CUSTOMDATA
  1
DATAMAP_BEGIN
 90
        0
309
DATAMAP_END
 92
        0
 95
        1
302
CONTENT
  1
CELLCONTENT_BEGIN
 90
        1
300
VALUE
 93
        4
 90
        4
  1
訂正概要
 94
        0
300

302
訂正概要
304
ACVALUE_END
 91
        0
309
CELLCONTENT_END
  1
FORMATTEDCELLCONTENT_BEGIN
170
     1
300
CONTENTFORMAT
  1
CONTENTFORMAT_BEGIN
 90
      129
 91
        0
 92
        4
 93
        0
300

 40
0.0
140
1.0
 94
        1
 62
     0
340
0
144
7.5
309
CONTENTFORMAT_END
309
FORMATTEDCELLCONTENT_END
309
LINKEDTABLEDATACELL_END
  1
FORMATTEDTABLEDATACELL_BEGIN
300
CELLTABLEFORMAT
  1
TABLEFORMAT_BEGIN
 90
        1
170
     1
 91
   408576
 92
        0
 62
   257
 93
        1
300
CONTENTFORMAT
  1
CONTENTFORMAT_BEGIN
 90
        0
 91
        0
 92
      512
 93
        0
300

 40
0.0
140
1.0
 94
        1
 62
     0
340
0
144
0.18
309
CONTENTFORMAT_END
171
     1
301
MARGIN
  1
CELLMARGIN_BEGIN
 40
1.875
 40
1.875
 40
1.875
 40
1.875
 40
1.875
 40
1.875
309
CELLMARGIN_END
 94
        0
309
TABLEFORMAT_END
309
FORMATTEDTABLEDATACELL_END
  1
TABLECELL_BEGIN
 90
        2
 91
        0
309
TABLECELL_END
 91
        0
301
CUSTOMDATA
  1
DATAMAP_BEGIN
 90
        0
309
DATAMAP_END
309
LINKEDTABLEDATAROW_END
  1
FORMATTEDTABLEDATAROW_BEGIN
300
ROWTABLEFORMAT
  1
TABLEFORMAT_BEGIN
 90
        2
170
     1
 91
      128
 92
        0
 62
   257
 93
        1
300
CONTENTFORMAT
  1
CONTENTFORMAT_BEGIN
 90
      128
 91
        0
 92
      512
 93
        0
300

 40
0.0
140
1.0
 94
        1
 62
     0
340
0
144
7.5
309
CONTENTFORMAT_END
171
     0
 94
        0
309
TABLEFORMAT_END
309
FORMATTEDTABLEDATAROW_END
  1
TABLEROW_BEGIN
 90
        1
 40
13.75
309
TABLEROW_END
301
ROW
  1
LINKEDTABLEDATAROW_BEGIN
 90
        4
300
CELL
  1
LINKEDTABLEDATACELL_BEGIN
 90
        0
300

 91
        0
301
CUSTOMDATA
  1
DATAMAP_BEGIN
 90
        0
309
DATAMAP_END
 92
        0
 95
        3
302
CONTENT
  1
CELLCONTENT_BEGIN
 90
        1
300
VALUE
 93
        4
 90
        4
  1

 94
        0
300

302

304
ACVALUE_END
 91
        0
309
CELLCONTENT_END
  1
FORMATTEDCELLCONTENT_BEGIN
170
     1
300
CONTENTFORMAT
  1
CONTENTFORMAT_BEGIN
 90
      129
 91
        0
 92
        4
 93
        0
300

 40
0.0
140
1.0
 94
        1
 62
     0
340
0
144
7.5
309
CONTENTFORMAT_END
309
FORMATTEDCELLCONTENT_END
302
CONTENT
  1
CELLCONTENT_BEGIN
 90
        4
340
0
 91
        0
309
CELLCONTENT_END
  1
FORMATTEDCELLCONTENT_BEGIN
170
     1
300
CONTENTFORMAT
  1
CONTENTFORMAT_BEGIN
 90
        8
 91
        0
 92
      512
 93
        0
300

 40
0.0
140
1.0
 94
        1
 62
     0
340
0
144
0.18
309
CONTENTFORMAT_END
309
FORMATTEDCELLCONTENT_END
302
CONTENT
  1
CELLCONTENT_BEGIN
 90
        4
340
16BA
 91
        0
309
CELLCONTENT_END
  1
FORMATTEDCELLCONTENT_BEGIN
170
     1
300
CONTENTFORMAT
  1
CONTENTFORMAT_BEGIN
 90
      264
 91
      256
 92
      512
 93
        0
300

 40
0.0
140
1.0
 94
        1
 62
     0
340
0
144
0.18
309
CONTENTFORMAT_END
309
FORMATTEDCELLCONTENT_END
309
LINKEDTABLEDATACELL_END
  1
FORMATTEDTABLEDATACELL_BEGIN
300
CELLTABLEFORMAT
  1
TABLEFORMAT_BEGIN
 90
        1
170
     1
 91
   408592
 92
        0
 62
   257
 93
        1
300
CONTENTFORMAT
  1
CONTENTFORMAT_BEGIN
 90
       16
 91
        0
 92
      512
 93
        0
300

 40
0.0
140
1.0
 94
        5
 62
     0
340
0
144
0.18
309
CONTENTFORMAT_END
171
     1
301
MARGIN
  1
CELLMARGIN_BEGIN
 40
1.875
 40
1.875
 40
1.875
 40
1.875
 40
1.875
 40
1.875
309
CELLMARGIN_END
 94
        0
309
TABLEFORMAT_END
309
FORMATTEDTABLEDATACELL_END
  1
TABLECELL_BEGIN
 90
        3
 91
        0
309
TABLECELL_END
300
CELL
  1
LINKEDTABLEDATACELL_BEGIN
 90
        0
300

 91
        0
301
CUSTOMDATA
  1
DATAMAP_BEGIN
 90
        0
309
DATAMAP_END
 92
        0
 95
        1
302
CONTENT
  1
CELLCONTENT_BEGIN
 90
        1
300
VALUE
 93
        4
 90
        4
  1

 94
        0
300

302

304
ACVALUE_END
 91
        0
309
CELLCONTENT_END
  1
FORMATTEDCELLCONTENT_BEGIN
170
     1
300
CONTENTFORMAT
  1
CONTENTFORMAT_BEGIN
 90
      129
 91
        0
 92
        4
 93
        0
300

 40
0.0
140
1.0
 94
        1
 62
     0
340
0
144
7.5
309
CONTENTFORMAT_END
309
FORMATTEDCELLCONTENT_END
309
LINKEDTABLEDATACELL_END
  1
FORMATTEDTABLEDATACELL_BEGIN
300
CELLTABLEFORMAT
  1
TABLEFORMAT_BEGIN
 90
        1
170
     1
 91
   408592
 92
        0
 62
   257
 93
        1
300
CONTENTFORMAT
  1
CONTENTFORMAT_BEGIN
 90
       16
 91
        0
 92
      512
 93
        0
300

 40
0.0
140
1.0
 94
        5
 62
     0
340
0
144
0.18
309
CONTENTFORMAT_END
171
     1
301
MARGIN
  1
CELLMARGIN_BEGIN
 40
1.875
 40
1.875
 40
1.875
 40
1.875
 40
1.875
 40
1.875
309
CELLMARGIN_END
 94
        0
309
TABLEFORMAT_END
309
FORMATTEDTABLEDATACELL_END
  1
TABLECELL_BEGIN
 90
        3
 91
        0
309
TABLECELL_END
300
CELL
  1
LINKEDTABLEDATACELL_BEGIN
 90
        0
300

 91
        0
301
CUSTOMDATA
  1
DATAMAP_BEGIN
 90
        0
309
DATAMAP_END
 92
        0
 95
        1
302
CONTENT
  1
CELLCONTENT_BEGIN
 90
        1
300
VALUE
 93
        4
 90
        4
  1

 94
        0
300

302

304
ACVALUE_END
 91
        0
309
CELLCONTENT_END
  1
FORMATTEDCELLCONTENT_BEGIN
170
     1
300
CONTENTFORMAT
  1
CONTENTFORMAT_BEGIN
 90
      129
 91
        0
 92
        4
 93
        0
300

 40
0.0
140
1.0
 94
        1
 62
     0
340
0
144
7.5
309
CONTENTFORMAT_END
309
FORMATTEDCELLCONTENT_END
309
LINKEDTABLEDATACELL_END
  1
FORMATTEDTABLEDATACELL_BEGIN
300
CELLTABLEFORMAT
  1
TABLEFORMAT_BEGIN
 90
        1
170
     1
 91
   408592
 92
        0
 62
   257
 93
        1
300
CONTENTFORMAT
  1
CONTENTFORMAT_BEGIN
 90
       16
 91
        0
 92
      512
 93
        0
300

 40
0.0
140
1.0
 94
        5
 62
     0
340
0
144
0.18
309
CONTENTFORMAT_END
171
     1
301
MARGIN
  1
CELLMARGIN_BEGIN
 40
1.875
 40
1.875
 40
1.875
 40
1.875
 40
1.875
 40
1.875
309
CELLMARGIN_END
 94
        0
309
TABLEFORMAT_END
309
FORMATTEDTABLEDATACELL_END
  1
TABLECELL_BEGIN
 90
        3
 91
        0
309
TABLECELL_END
300
CELL
  1
LINKEDTABLEDATACELL_BEGIN
 90
        0
300

 91
        0
301
CUSTOMDATA
  1
DATAMAP_BEGIN
 90
        0
309
DATAMAP_END
 92
        0
 95
        1
302
CONTENT
  1
CELLCONTENT_BEGIN
 90
        1
300
VALUE
 93
        4
 90
        4
  1

 94
        0
300

302

304
ACVALUE_END
 91
        0
309
CELLCONTENT_END
  1
FORMATTEDCELLCONTENT_BEGIN
170
     1
300
CONTENTFORMAT
  1
CONTENTFORMAT_BEGIN
 90
      129
 91
        0
 92
        4
 93
        0
300

 40
0.0
140
1.0
 94
        1
 62
     0
340
0
144
7.5
309
CONTENTFORMAT_END
309
FORMATTEDCELLCONTENT_END
309
LINKEDTABLEDATACELL_END
  1
FORMATTEDTABLEDATACELL_BEGIN
300
CELLTABLEFORMAT
  1
TABLEFORMAT_BEGIN
 90
        1
170
     1
 91
   408592
 92
        0
 62
   257
 93
        1
300
CONTENTFORMAT
  1
CONTENTFORMAT_BEGIN
 90
       16
 91
        0
 92
      512
 93
        0
300

 40
0.0
140
1.0
 94
        4
 62
     0
340
0
144
0.18
309
CONTENTFORMAT_END
171
     1
301
MARGIN
  1
CELLMARGIN_BEGIN
 40
1.875
 40
1.875
 40
1.875
 40
1.875
 40
1.875
 40
1.875
309
CELLMARGIN_END
 94
        0
309
TABLEFORMAT_END
309
FORMATTEDTABLEDATACELL_END
  1
TABLECELL_BEGIN
 90
        3
 91
        0
309
TABLECELL_END
 91
        0
301
CUSTOMDATA
  1
DATAMAP_BEGIN
 90
        0
309
DATAMAP_END
309
LINKEDTABLEDATAROW_END
  1
FORMATTEDTABLEDATAROW_BEGIN
300
ROWTABLEFORMAT
  1
TABLEFORMAT_BEGIN
 90
        2
170
     1
 91
      128
 92
        0
 62
   257
 93
        1
300
CONTENTFORMAT
  1
CONTENTFORMAT_BEGIN
 90
      128
 91
        0
 92
      512
 93
        0
300

 40
0.0
140
1.0
 94
        1
 62
     0
340
0
144
7.5
309
CONTENTFORMAT_END
171
     0
 94
        0
309
TABLEFORMAT_END
309
FORMATTEDTABLEDATAROW_END
  1
TABLEROW_BEGIN
 90
        2
 40
13.75
309
TABLEROW_END
301
ROW
  1
LINKEDTABLEDATAROW_BEGIN
 90
        4
300
CELL
  1
LINKEDTABLEDATACELL_BEGIN
 90
        0
300

 91
        0
301
CUSTOMDATA
  1
DATAMAP_BEGIN
 90
        0
309
DATAMAP_END
 92
        0
 95
        2
302
CONTENT
  1
CELLCONTENT_BEGIN
 90
        1
300
VALUE
 93
        4
 90
        4
  1

 94
        0
300

302

304
ACVALUE_END
 91
        0
309
CELLCONTENT_END
  1
FORMATTEDCELLCONTENT_BEGIN
170
     1
300
CONTENTFORMAT
  1
CONTENTFORMAT_BEGIN
 90
      129
 91
        0
 92
        4
 93
        0
300

 40
0.0
140
1.0
 94
        1
 62
     0
340
0
144
7.5
309
CONTENTFORMAT_END
309
FORMATTEDCELLCONTENT_END
302
CONTENT
  1
CELLCONTENT_BEGIN
 90
        4
340
16C6
 91
        0
309
CELLCONTENT_END
  1
FORMATTEDCELLCONTENT_BEGIN
170
     1
300
CONTENTFORMAT
  1
CONTENTFORMAT_BEGIN
 90
      264
 91
      256
 92
      512
 93
        0
300

 40
0.0
140
1.0
 94
        1
 62
     0
340
0
144
0.18
309
CONTENTFORMAT_END
309
FORMATTEDCELLCONTENT_END
309
LINKEDTABLEDATACELL_END
  1
FORMATTEDTABLEDATACELL_BEGIN
300
CELLTABLEFORMAT
  1
TABLEFORMAT_BEGIN
 90
        1
170
     1
 91
   408592
 92
        0
 62
   257
 93
        1
300
CONTENTFORMAT
  1
CONTENTFORMAT_BEGIN
 90
       16
 91
        0
 92
      512
 93
        0
300

 40
0.0
140
1.0
 94
        5
 62
     0
340
0
144
0.18
309
CONTENTFORMAT_END
171
     1
301
MARGIN
  1
CELLMARGIN_BEGIN
 40
1.875
 40
1.875
 40
1.875
 40
1.875
 40
1.875
 40
1.875
309
CELLMARGIN_END
 94
        0
309
TABLEFORMAT_END
309
FORMATTEDTABLEDATACELL_END
  1
TABLECELL_BEGIN
 90
        3
 91
        0
309
TABLECELL_END
300
CELL
  1
LINKEDTABLEDATACELL_BEGIN
 90
        0
300

 91
        0
301
CUSTOMDATA
  1
DATAMAP_BEGIN
 90
        0
309
DATAMAP_END
 92
        0
 95
        1
302
CONTENT
  1
CELLCONTENT_BEGIN
 90
        1
300
VALUE
 93
        4
 90
        4
  1

 94
        0
300

302

304
ACVALUE_END
 91
        0
309
CELLCONTENT_END
  1
FORMATTEDCELLCONTENT_BEGIN
170
     1
300
CONTENTFORMAT
  1
CONTENTFORMAT_BEGIN
 90
      129
 91
        0
 92
        4
 93
        0
300

 40
0.0
140
1.0
 94
        1
 62
     0
340
0
144
7.5
309
CONTENTFORMAT_END
309
FORMATTEDCELLCONTENT_END
309
LINKEDTABLEDATACELL_END
  1
FORMATTEDTABLEDATACELL_BEGIN
300
CELLTABLEFORMAT
  1
TABLEFORMAT_BEGIN
 90
        1
170
     1
 91
   408592
 92
        0
 62
   257
 93
        1
300
CONTENTFORMAT
  1
CONTENTFORMAT_BEGIN
 90
       16
 91
        0
 92
      512
 93
        0
300

 40
0.0
140
1.0
 94
        5
 62
     0
340
0
144
0.18
309
CONTENTFORMAT_END
171
     1
301
MARGIN
  1
CELLMARGIN_BEGIN
 40
1.875
 40
1.875
 40
1.875
 40
1.875
 40
1.875
 40
1.875
309
CELLMARGIN_END
 94
        0
309
TABLEFORMAT_END
309
FORMATTEDTABLEDATACELL_END
  1
TABLECELL_BEGIN
 90
        3
 91
        0
309
TABLECELL_END
300
CELL
  1
LINKEDTABLEDATACELL_BEGIN
 90
        0
300

 91
        0
301
CUSTOMDATA
  1
DATAMAP_BEGIN
 90
        0
309
DATAMAP_END
 92
        0
 95
        1
302
CONTENT
  1
CELLCONTENT_BEGIN
 90
        1
300
VALUE
 93
        4
 90
        4
  1

 94
        0
300

302

304
ACVALUE_END
 91
        0
309
CELLCONTENT_END
  1
FORMATTEDCELLCONTENT_BEGIN
170
     1
300
CONTENTFORMAT
  1
CONTENTFORMAT_BEGIN
 90
      129
 91
        0
 92
        4
 93
        0
300

 40
0.0
140
1.0
 94
        1
 62
     0
340
0
144
7.5
309
CONTENTFORMAT_END
309
FORMATTEDCELLCONTENT_END
309
LINKEDTABLEDATACELL_END
  1
FORMATTEDTABLEDATACELL_BEGIN
300
CELLTABLEFORMAT
  1
TABLEFORMAT_BEGIN
 90
        1
170
     1
 91
   408592
 92
        0
 62
   257
 93
        1
300
CONTENTFORMAT
  1
CONTENTFORMAT_BEGIN
 90
       16
 91
        0
 92
      512
 93
        0
300

 40
0.0
140
1.0
 94
        5
 62
     0
340
0
144
0.18
309
CONTENTFORMAT_END
171
     1
301
MARGIN
  1
CELLMARGIN_BEGIN
 40
1.875
 40
1.875
 40
1.875
 40
1.875
 40
1.875
 40
1.875
309
CELLMARGIN_END
 94
        0
309
TABLEFORMAT_END
309
FORMATTEDTABLEDATACELL_END
  1
TABLECELL_BEGIN
 90
        3
 91
        0
309
TABLECELL_END
300
CELL
  1
LINKEDTABLEDATACELL_BEGIN
 90
        0
300

 91
        0
301
CUSTOMDATA
  1
DATAMAP_BEGIN
 90
        0
309
DATAMAP_END
 92
        0
 95
        1
302
CONTENT
  1
CELLCONTENT_BEGIN
 90
        1
300
VALUE
 93
        4
 90
        4
  1

 94
        0
300

302

304
ACVALUE_END
 91
        0
309
CELLCONTENT_END
  1
FORMATTEDCELLCONTENT_BEGIN
170
     1
300
CONTENTFORMAT
  1
CONTENTFORMAT_BEGIN
 90
      129
 91
        0
 92
        4
 93
        0
300

 40
0.0
140
1.0
 94
        1
 62
     0
340
0
144
7.5
309
CONTENTFORMAT_END
309
FORMATTEDCELLCONTENT_END
309
LINKEDTABLEDATACELL_END
  1
FORMATTEDTABLEDATACELL_BEGIN
300
CELLTABLEFORMAT
  1
TABLEFORMAT_BEGIN
 90
        1
170
     1
 91
   408592
 92
        0
 62
   257
 93
        1
300
CONTENTFORMAT
  1
CONTENTFORMAT_BEGIN
 90
       16
 91
        0
 92
      512
 93
        0
300

 40
0.0
140
1.0
 94
        4
 62
     0
340
0
144
0.18
309
CONTENTFORMAT_END
171
     1
301
MARGIN
  1
CELLMARGIN_BEGIN
 40
1.875
 40
1.875
 40
1.875
 40
1.875
 40
1.875
 40
1.875
309
CELLMARGIN_END
 94
        0
309
TABLEFORMAT_END
309
FORMATTEDTABLEDATACELL_END
  1
TABLECELL_BEGIN
 90
        3
 91
        0
309
TABLECELL_END
 91
        0
301
CUSTOMDATA
  1
DATAMAP_BEGIN
 90
        0
309
DATAMAP_END
309
LINKEDTABLEDATAROW_END
  1
FORMATTEDTABLEDATAROW_BEGIN
300
ROWTABLEFORMAT
  1
TABLEFORMAT_BEGIN
 90
        2
170
     1
 91
      128
 92
        0
 62
   257
 93
        1
300
CONTENTFORMAT
  1
CONTENTFORMAT_BEGIN
 90
      128
 91
        0
 92
      512
 93
        0
300

 40
0.0
140
1.0
 94
        1
 62
     0
340
0
144
7.5
309
CONTENTFORMAT_END
171
     0
 94
        0
309
TABLEFORMAT_END
309
FORMATTEDTABLEDATAROW_END
  1
TABLEROW_BEGIN
 90
        3
 40
13.75
309
TABLEROW_END
301
ROW
  1
LINKEDTABLEDATAROW_BEGIN
 90
        4
300
CELL
  1
LINKEDTABLEDATACELL_BEGIN
 90
        0
300

 91
        0
301
CUSTOMDATA
  1
DATAMAP_BEGIN
 90
        0
309
DATAMAP_END
 92
        0
 95
        2
302
CONTENT
  1
CELLCONTENT_BEGIN
 90
        1
300
VALUE
 93
        4
 90
        4
  1

 94
        0
300

302

304
ACVALUE_END
 91
        0
309
CELLCONTENT_END
  1
FORMATTEDCELLCONTENT_BEGIN
170
     1
300
CONTENTFORMAT
  1
CONTENTFORMAT_BEGIN
 90
      129
 91
        0
 92
        4
 93
        0
300

 40
0.0
140
1.0
 94
        1
 62
     0
340
0
144
7.5
309
CONTENTFORMAT_END
309
FORMATTEDCELLCONTENT_END
302
CONTENT
  1
CELLCONTENT_BEGIN
 90
        4
340
16D2
 91
        0
309
CELLCONTENT_END
  1
FORMATTEDCELLCONTENT_BEGIN
170
     1
300
CONTENTFORMAT
  1
CONTENTFORMAT_BEGIN
 90
      264
 91
      256
 92
      512
 93
        0
300

 40
0.0
140
1.0
 94
        1
 62
     0
340
0
144
0.18
309
CONTENTFORMAT_END
309
FORMATTEDCELLCONTENT_END
309
LINKEDTABLEDATACELL_END
  1
FORMATTEDTABLEDATACELL_BEGIN
300
CELLTABLEFORMAT
  1
TABLEFORMAT_BEGIN
 90
        1
170
     1
 91
   408592
 92
        0
 62
   257
 93
        1
300
CONTENTFORMAT
  1
CONTENTFORMAT_BEGIN
 90
       16
 91
        0
 92
      512
 93
        0
300

 40
0.0
140
1.0
 94
        5
 62
     0
340
0
144
0.18
309
CONTENTFORMAT_END
171
     1
301
MARGIN
  1
CELLMARGIN_BEGIN
 40
1.875
 40
1.875
 40
1.875
 40
1.875
 40
1.875
 40
1.875
309
CELLMARGIN_END
 94
        0
309
TABLEFORMAT_END
309
FORMATTEDTABLEDATACELL_END
  1
TABLECELL_BEGIN
 90
        3
 91
        0
309
TABLECELL_END
300
CELL
  1
LINKEDTABLEDATACELL_BEGIN
 90
        0
300

 91
        0
301
CUSTOMDATA
  1
DATAMAP_BEGIN
 90
        0
309
DATAMAP_END
 92
        0
 95
        1
302
CONTENT
  1
CELLCONTENT_BEGIN
 90
        1
300
VALUE
 93
        4
 90
        4
  1

 94
        0
300

302

304
ACVALUE_END
 91
        0
309
CELLCONTENT_END
  1
FORMATTEDCELLCONTENT_BEGIN
170
     1
300
CONTENTFORMAT
  1
CONTENTFORMAT_BEGIN
 90
      129
 91
        0
 92
        4
 93
        0
300

 40
0.0
140
1.0
 94
        1
 62
     0
340
0
144
7.5
309
CONTENTFORMAT_END
309
FORMATTEDCELLCONTENT_END
309
LINKEDTABLEDATACELL_END
  1
FORMATTEDTABLEDATACELL_BEGIN
300
CELLTABLEFORMAT
  1
TABLEFORMAT_BEGIN
 90
        1
170
     1
 91
   408592
 92
        0
 62
   257
 93
        1
300
CONTENTFORMAT
  1
CONTENTFORMAT_BEGIN
 90
       16
 91
        0
 92
      512
 93
        0
300

 40
0.0
140
1.0
 94
        5
 62
     0
340
0
144
0.18
309
CONTENTFORMAT_END
171
     1
301
MARGIN
  1
CELLMARGIN_BEGIN
 40
1.875
 40
1.875
 40
1.875
 40
1.875
 40
1.875
 40
1.875
309
CELLMARGIN_END
 94
        0
309
TABLEFORMAT_END
309
FORMATTEDTABLEDATACELL_END
  1
TABLECELL_BEGIN
 90
        3
 91
        0
309
TABLECELL_END
300
CELL
  1
LINKEDTABLEDATACELL_BEGIN
 90
        0
300

 91
        0
301
CUSTOMDATA
  1
DATAMAP_BEGIN
 90
        0
309
DATAMAP_END
 92
        0
 95
        1
302
CONTENT
  1
CELLCONTENT_BEGIN
 90
        1
300
VALUE
 93
        4
 90
        4
  1

 94
        0
300

302

304
ACVALUE_END
 91
        0
309
CELLCONTENT_END
  1
FORMATTEDCELLCONTENT_BEGIN
170
     1
300
CONTENTFORMAT
  1
CONTENTFORMAT_BEGIN
 90
      129
 91
        0
 92
        4
 93
        0
300

 40
0.0
140
1.0
 94
        1
 62
     0
340
0
144
7.5
309
CONTENTFORMAT_END
309
FORMATTEDCELLCONTENT_END
309
LINKEDTABLEDATACELL_END
  1
FORMATTEDTABLEDATACELL_BEGIN
300
CELLTABLEFORMAT
  1
TABLEFORMAT_BEGIN
 90
        1
170
     1
 91
   408592
 92
        0
 62
   257
 93
        1
300
CONTENTFORMAT
  1
CONTENTFORMAT_BEGIN
 90
       16
 91
        0
 92
      512
 93
        0
300

 40
0.0
140
1.0
 94
        5
 62
     0
340
0
144
0.18
309
CONTENTFORMAT_END
171
     1
301
MARGIN
  1
CELLMARGIN_BEGIN
 40
1.875
 40
1.875
 40
1.875
 40
1.875
 40
1.875
 40
1.875
309
CELLMARGIN_END
 94
        0
309
TABLEFORMAT_END
309
FORMATTEDTABLEDATACELL_END
  1
TABLECELL_BEGIN
 90
        3
 91
        0
309
TABLECELL_END
300
CELL
  1
LINKEDTABLEDATACELL_BEGIN
 90
        0
300

 91
        0
301
CUSTOMDATA
  1
DATAMAP_BEGIN
 90
        0
309
DATAMAP_END
 92
        0
 95
        1
302
CONTENT
  1
CELLCONTENT_BEGIN
 90
        1
300
VALUE
 93
        4
 90
        4
  1

 94
        0
300

302

304
ACVALUE_END
 91
        0
309
CELLCONTENT_END
  1
FORMATTEDCELLCONTENT_BEGIN
170
     1
300
CONTENTFORMAT
  1
CONTENTFORMAT_BEGIN
 90
      129
 91
        0
 92
        4
 93
        0
300

 40
0.0
140
1.0
 94
        1
 62
     0
340
0
144
7.5
309
CONTENTFORMAT_END
309
FORMATTEDCELLCONTENT_END
309
LINKEDTABLEDATACELL_END
  1
FORMATTEDTABLEDATACELL_BEGIN
300
CELLTABLEFORMAT
  1
TABLEFORMAT_BEGIN
 90
        1
170
     1
 91
   408592
 92
        0
 62
   257
 93
        1
300
CONTENTFORMAT
  1
CONTENTFORMAT_BEGIN
 90
       16
 91
        0
 92
      512
 93
        0
300

 40
0.0
140
1.0
 94
        4
 62
     0
340
0
144
0.18
309
CONTENTFORMAT_END
171
     1
301
MARGIN
  1
CELLMARGIN_BEGIN
 40
1.875
 40
1.875
 40
1.875
 40
1.875
 40
1.875
 40
1.875
309
CELLMARGIN_END
 94
        0
309
TABLEFORMAT_END
309
FORMATTEDTABLEDATACELL_END
  1
TABLECELL_BEGIN
 90
        3
 91
        0
309
TABLECELL_END
 91
        0
301
CUSTOMDATA
  1
DATAMAP_BEGIN
 90
        0
309
DATAMAP_END
309
LINKEDTABLEDATAROW_END
  1
FORMATTEDTABLEDATAROW_BEGIN
300
ROWTABLEFORMAT
  1
TABLEFORMAT_BEGIN
 90
        2
170
     1
 91
      128
 92
        0
 62
   257
 93
        1
300
CONTENTFORMAT
  1
CONTENTFORMAT_BEGIN
 90
      128
 91
        0
 92
      512
 93
        0
300

 40
0.0
140
1.0
 94
        1
 62
     0
340
0
144
7.5
309
CONTENTFORMAT_END
171
     0
 94
        0
309
TABLEFORMAT_END
309
FORMATTEDTABLEDATAROW_END
  1
TABLEROW_BEGIN
 90
        3
 40
13.75
309
TABLEROW_END
301
ROW
  1
LINKEDTABLEDATAROW_BEGIN
 90
        4
300
CELL
  1
LINKEDTABLEDATACELL_BEGIN
 90
        0
300

 91
        0
301
CUSTOMDATA
  1
DATAMAP_BEGIN
 90
        0
309
DATAMAP_END
 92
        0
 95
        2
302
CONTENT
  1
CELLCONTENT_BEGIN
 90
        1
300
VALUE
 93
        4
 90
        4
  1

 94
        0
300

302

304
ACVALUE_END
 91
        0
309
CELLCONTENT_END
  1
FORMATTEDCELLCONTENT_BEGIN
170
     1
300
CONTENTFORMAT
  1
CONTENTFORMAT_BEGIN
 90
      129
 91
        0
 92
        4
 93
        0
300

 40
0.0
140
1.0
 94
        1
 62
     0
340
0
144
7.5
309
CONTENTFORMAT_END
309
FORMATTEDCELLCONTENT_END
302
CONTENT
  1
CELLCONTENT_BEGIN
 90
        4
340
16DE
 91
        0
309
CELLCONTENT_END
  1
FORMATTEDCELLCONTENT_BEGIN
170
     1
300
CONTENTFORMAT
  1
CONTENTFORMAT_BEGIN
 90
      264
 91
      256
 92
      512
 93
        0
300

 40
0.0
140
1.0
 94
        1
 62
     0
340
0
144
0.18
309
CONTENTFORMAT_END
309
FORMATTEDCELLCONTENT_END
309
LINKEDTABLEDATACELL_END
  1
FORMATTEDTABLEDATACELL_BEGIN
300
CELLTABLEFORMAT
  1
TABLEFORMAT_BEGIN
 90
        1
170
     1
 91
   408592
 92
        0
 62
   257
 93
        1
300
CONTENTFORMAT
  1
CONTENTFORMAT_BEGIN
 90
       16
 91
        0
 92
      512
 93
        0
300

 40
0.0
140
1.0
 94
        5
 62
     0
340
0
144
0.18
309
CONTENTFORMAT_END
171
     1
301
MARGIN
  1
CELLMARGIN_BEGIN
 40
1.875
 40
1.875
 40
1.875
 40
1.875
 40
1.875
 40
1.875
309
CELLMARGIN_END
 94
        0
309
TABLEFORMAT_END
309
FORMATTEDTABLEDATACELL_END
  1
TABLECELL_BEGIN
 90
        3
 91
        0
309
TABLECELL_END
300
CELL
  1
LINKEDTABLEDATACELL_BEGIN
 90
        0
300

 91
        0
301
CUSTOMDATA
  1
DATAMAP_BEGIN
 90
        0
309
DATAMAP_END
 92
        0
 95
        1
302
CONTENT
  1
CELLCONTENT_BEGIN
 90
        1
300
VALUE
 93
        4
 90
        4
  1

 94
        0
300

302

304
ACVALUE_END
 91
        0
309
CELLCONTENT_END
  1
FORMATTEDCELLCONTENT_BEGIN
170
     1
300
CONTENTFORMAT
  1
CONTENTFORMAT_BEGIN
 90
      129
 91
        0
 92
        4
 93
        0
300

 40
0.0
140
1.0
 94
        1
 62
     0
340
0
144
7.5
309
CONTENTFORMAT_END
309
FORMATTEDCELLCONTENT_END
309
LINKEDTABLEDATACELL_END
  1
FORMATTEDTABLEDATACELL_BEGIN
300
CELLTABLEFORMAT
  1
TABLEFORMAT_BEGIN
 90
        1
170
     1
 91
   408592
 92
        0
 62
   257
 93
        1
300
CONTENTFORMAT
  1
CONTENTFORMAT_BEGIN
 90
       16
 91
        0
 92
      512
 93
        0
300

 40
0.0
140
1.0
 94
        5
 62
     0
340
0
144
0.18
309
CONTENTFORMAT_END
171
     1
301
MARGIN
  1
CELLMARGIN_BEGIN
 40
1.875
 40
1.875
 40
1.875
 40
1.875
 40
1.875
 40
1.875
309
CELLMARGIN_END
 94
        0
309
TABLEFORMAT_END
309
FORMATTEDTABLEDATACELL_END
  1
TABLECELL_BEGIN
 90
        3
 91
        0
309
TABLECELL_END
300
CELL
  1
LINKEDTABLEDATACELL_BEGIN
 90
        0
300

 91
        0
301
CUSTOMDATA
  1
DATAMAP_BEGIN
 90
        0
309
DATAMAP_END
 92
        0
 95
        1
302
CONTENT
  1
CELLCONTENT_BEGIN
 90
        1
300
VALUE
 93
        4
 90
        4
  1

 94
        0
300

302

304
ACVALUE_END
 91
        0
309
CELLCONTENT_END
  1
FORMATTEDCELLCONTENT_BEGIN
170
     1
300
CONTENTFORMAT
  1
CONTENTFORMAT_BEGIN
 90
      129
 91
        0
 92
        4
 93
        0
300

 40
0.0
140
1.0
 94
        1
 62
     0
340
0
144
7.5
309
CONTENTFORMAT_END
309
FORMATTEDCELLCONTENT_END
309
LINKEDTABLEDATACELL_END
  1
FORMATTEDTABLEDATACELL_BEGIN
300
CELLTABLEFORMAT
  1
TABLEFORMAT_BEGIN
 90
        1
170
     1
 91
   408592
 92
        0
 62
   257
 93
        1
300
CONTENTFORMAT
  1
CONTENTFORMAT_BEGIN
 90
       16
 91
        0
 92
      512
 93
        0
300

 40
0.0
140
1.0
 94
        5
 62
     0
340
0
144
0.18
309
CONTENTFORMAT_END
171
     1
301
MARGIN
  1
CELLMARGIN_BEGIN
 40
1.875
 40
1.875
 40
1.875
 40
1.875
 40
1.875
 40
1.875
309
CELLMARGIN_END
 94
        0
309
TABLEFORMAT_END
309
FORMATTEDTABLEDATACELL_END
  1
TABLECELL_BEGIN
 90
        3
 91
        0
309
TABLECELL_END
300
CELL
  1
LINKEDTABLEDATACELL_BEGIN
 90
        0
300

 91
        0
301
CUSTOMDATA
  1
DATAMAP_BEGIN
 90
        0
309
DATAMAP_END
 92
        0
 95
        1
302
CONTENT
  1
CELLCONTENT_BEGIN
 90
        1
300
VALUE
 93
        4
 90
        4
  1

 94
        0
300

302

304
ACVALUE_END
 91
        0
309
CELLCONTENT_END
  1
FORMATTEDCELLCONTENT_BEGIN
170
     1
300
CONTENTFORMAT
  1
CONTENTFORMAT_BEGIN
 90
      129
 91
        0
 92
        4
 93
        0
300

 40
0.0
140
1.0
 94
        1
 62
     0
340
0
144
7.5
309
CONTENTFORMAT_END
309
FORMATTEDCELLCONTENT_END
309
LINKEDTABLEDATACELL_END
  1
FORMATTEDTABLEDATACELL_BEGIN
300
CELLTABLEFORMAT
  1
TABLEFORMAT_BEGIN
 90
        1
170
     1
 91
   408592
 92
        0
 62
   257
 93
        1
300
CONTENTFORMAT
  1
CONTENTFORMAT_BEGIN
 90
       16
 91
        0
 92
      512
 93
        0
300

 40
0.0
140
1.0
 94
        4
 62
     0
340
0
144
0.18
309
CONTENTFORMAT_END
171
     1
301
MARGIN
  1
CELLMARGIN_BEGIN
 40
1.875
 40
1.875
 40
1.875
 40
1.875
 40
1.875
 40
1.875
309
CELLMARGIN_END
 94
        0
309
TABLEFORMAT_END
309
FORMATTEDTABLEDATACELL_END
  1
TABLECELL_BEGIN
 90
        3
 91
        0
309
TABLECELL_END
 91
        0
301
CUSTOMDATA
  1
DATAMAP_BEGIN
 90
        0
309
DATAMAP_END
309
LINKEDTABLEDATAROW_END
  1
FORMATTEDTABLEDATAROW_BEGIN
300
ROWTABLEFORMAT
  1
TABLEFORMAT_BEGIN
 90
        2
170
     1
 91
      128
 92
        0
 62
   257
 93
        1
300
CONTENTFORMAT
  1
CONTENTFORMAT_BEGIN
 90
      128
 91
        0
 92
      512
 93
        0
300

 40
0.0
140
1.0
 94
        1
 62
     0
340
0
144
7.5
309
CONTENTFORMAT_END
171
     0
 94
        0
309
TABLEFORMAT_END
309
FORMATTEDTABLEDATAROW_END
  1
TABLEROW_BEGIN
 90
        3
 40
13.75
309
TABLEROW_END
 92
        0
100
AcDbFormattedTableData
300
TABLEFORMAT
  1
TABLEFORMAT_BEGIN
 90
        4
170
     1
 91
   408576
 92
    65536
 62
   257
 93
        1
300
CONTENTFORMAT
  1
CONTENTFORMAT_BEGIN
 90
        0
 91
        0
 92
      512
 93
        0
300

 40
0.0
140
1.0
 94
        1
 62
     0
340
0
144
0.18
309
CONTENTFORMAT_END
171
     1
301
MARGIN
  1
CELLMARGIN_BEGIN
 40
1.875
 40
1.875
 40
1.875
 40
1.875
 40
0.075
 40
0.075
309
CELLMARGIN_END
 94
        0
309
TABLEFORMAT_END
 90
        0
100
AcDbTableContent
340
1662
  0
TABLEGEOMETRY
  5
19D7
330
19DA
100
AcDbTableGeometry
 90
        5
 91
        4
 92
       20
 93
        0
 40
0.0
 41
0.0
330
0
 94
        0
 93
        0
 40
0.0
 41
0.0
330
0
 94
        0
 93
        0
 40
0.0
 41
0.0
330
0
 94
        0
 93
        0
 40
0.0
 41
0.0
330
0
 94
        0
 93
        0
 40
0.0
 41
0.0
330
0
 94
        0
 93
        0
 40
0.0
 41
0.0
330
0
 94
        0
 93
        0
 40
0.0
 41
0.0
330
0
 94
        0
 93
        0
 40
0.0
 41
0.0
330
0
 94
        0
 93
        0
 40
0.0
 41
0.0
330
0
 94
        0
 93
        0
 40
0.0
 41
0.0
330
0
 94
        0
 93
        0
 40
0.0
 41
0.0
330
0
 94
        0
 93
        0
 40
0.0
 41
0.0
330
0
 94
        0
 93
        0
 40
0.0
 41
0.0
330
0
 94
        0
 93
        0
 40
0.0
 41
0.0
330
0
 94
        0
 93
        0
 40
0.0
 41
0.0
330
0
 94
        0
 93
        0
 40
0.0
 41
0.0
330
0
 94
        0
 93
        0
 40
0.0
 41
0.0
330
0
 94
        0
 93
        0
 40
0.0
 41
0.0
330
0
 94
        0
 93
        0
 40
0.0
 41
0.0
330
0
 94
        0
 93
        0
 40
0.0
 41
0.0
330
0
 94
        0
  0
DICTIONARY
  5
185D
102
{ACAD_REACTORS
330
185C
102
}
330
185C
100
AcDbDictionary
281
     1
  0
DICTIONARY
  5
1861
102
{ACAD_REACTORS
330
1860
102
}
330
1860
100
AcDbDictionary
281
     1
  0
DICTIONARY
  5
1865
102
{ACAD_REACTORS
330
1864
102
}
330
1864
100
AcDbDictionary
281
     1
  0
DICTIONARY
  5
1869
102
{ACAD_REACTORS
330
1868
102
}
330
1868
100
AcDbDictionary
281
     1
  0
DICTIONARY
  5
186D
102
{ACAD_REACTORS
330
186C
102
}
330
186C
100
AcDbDictionary
281
     1
  0
DICTIONARY
  5
1871
102
{ACAD_REACTORS
330
1870
102
}
330
1870
100
AcDbDictionary
281
     1
  0
DICTIONARY
  5
1876
102
{ACAD_REACTORS
330
1875
102
}
330
1875
100
AcDbDictionary
281
     1
  0
DICTIONARY
  5
187A
102
{ACAD_REACTORS
330
1879
102
}
330
1879
100
AcDbDictionary
281
     1
  0
DICTIONARY
  5
187E
102
{ACAD_REACTORS
330
187D
102
}
330
187D
100
AcDbDictionary
281
     1
  0
DICTIONARY
  5
18D5
102
{ACAD_REACTORS
330
18D4
102
}
330
18D4
100
AcDbDictionary
281
     1
  0
DICTIONARY
  5
1A0F
330
1662
100
AcDbDictionary
280
     1
281
     1
  3
ACAD_ROUNDTRIP_2008_TABLESTYLE_CELLSTYLEMAP
360
1A10
  0
DICTIONARY
  5
1A0D
330
15E9
100
AcDbDictionary
280
     1
281
     1
  3
ACAD_ROUNDTRIP_2008_TABLESTYLE_CELLSTYLEMAP
360
1A0E
  0
DICTIONARY
  5
19E3
330
15D0
100
AcDbDictionary
280
     1
281
     1
  3
ACAD_XREC_ROUNDTRIP
360
19E4
  0
DICTIONARY
  5
19E9
330
15D3
100
AcDbDictionary
280
     1
281
     1
  3
ACAD_XREC_ROUNDTRIP
360
19EA
  0
DICTIONARY
  5
19F1
330
15D7
100
AcDbDictionary
280
     1
281
     1
  3
ACAD_XREC_ROUNDTRIP
360
19F2
  0
DICTIONARY
  5
19F9
330
15DB
100
AcDbDictionary
280
     1
281
     1
  3
ACAD_XREC_ROUNDTRIP
360
19FA
  0
DICTIONARY
  5
19ED
330
15D5
100
AcDbDictionary
280
     1
281
     1
  3
ACAD_XREC_ROUNDTRIP
360
19EE
  0
DICTIONARY
  5
19EF
330
15D6
100
AcDbDictionary
280
     1
281
     1
  3
ACAD_XREC_ROUNDTRIP
360
19F0
  0
DICTIONARY
  5
19FF
330
15DE
100
AcDbDictionary
280
     1
281
     1
  3
ACAD_XREC_ROUNDTRIP
360
1A00
  0
DICTIONARY
  5
19F7
330
15DA
100
AcDbDictionary
280
     1
281
     1
  3
ACAD_XREC_ROUNDTRIP
360
19F8
  0
DICTIONARY
  5
19DB
330
15CC
100
AcDbDictionary
280
     1
281
     1
  3
ACAD_XREC_ROUNDTRIP
360
19DC
  0
DICTIONARY
  5
19DD
330
15CD
100
AcDbDictionary
280
     1
281
     1
  3
ACAD_XREC_ROUNDTRIP
360
19DE
  0
DICTIONARY
  5
19DF
330
15CE
100
AcDbDictionary
280
     1
281
     1
  3
ACAD_XREC_ROUNDTRIP
360
19E0
  0
DICTIONARY
  5
19E1
330
15CF
100
AcDbDictionary
280
     1
281
     1
  3
ACAD_XREC_ROUNDTRIP
360
19E2
  0
DICTIONARY
  5
19E7
330
15D2
100
AcDbDictionary
280
     1
281
     1
  3
ACAD_XREC_ROUNDTRIP
360
19E8
  0
DICTIONARY
  5
19FB
330
15DC
100
AcDbDictionary
280
     1
281
     1
  3
ACAD_XREC_ROUNDTRIP
360
19FC
  0
DICTIONARY
  5
19F5
330
15D9
100
AcDbDictionary
280
     1
281
     1
  3
ACAD_XREC_ROUNDTRIP
360
19F6
  0
DICTIONARY
  5
1A0B
330
15EC
100
AcDbDictionary
280
     1
281
     1
  3
ACAD_XREC_ROUNDTRIP
360
1A0C
  0
DICTIONARY
  5
19FD
330
15DD
100
AcDbDictionary
280
     1
281
     1
  3
ACAD_XREC_ROUNDTRIP
360
19FE
  0
DICTIONARY
  5
19EB
330
15D4
100
AcDbDictionary
280
     1
281
     1
  3
ACAD_XREC_ROUNDTRIP
360
19EC
  0
DICTIONARY
  5
1A09
330
15E3
100
AcDbDictionary
280
     1
281
     1
  3
ACAD_XREC_ROUNDTRIP
360
1A0A
  0
DICTIONARY
  5
1A07
330
15E2
100
AcDbDictionary
280
     1
281
     1
  3
ACAD_XREC_ROUNDTRIP
360
1A08
  0
DICTIONARY
  5
1A01
330
15DF
100
AcDbDictionary
280
     1
281
     1
  3
ACAD_XREC_ROUNDTRIP
360
1A02
  0
DICTIONARY
  5
1A03
330
15E0
100
AcDbDictionary
280
     1
281
     1
  3
ACAD_XREC_ROUNDTRIP
360
1A04
  0
DICTIONARY
  5
19F3
330
15D8
100
AcDbDictionary
280
     1
281
     1
  3
ACAD_XREC_ROUNDTRIP
360
19F4
  0
DICTIONARY
  5
19E5
330
15D1
100
AcDbDictionary
280
     1
281
     1
  3
ACAD_XREC_ROUNDTRIP
360
19E6
  0
DICTIONARY
  5
1A05
330
15E1
100
AcDbDictionary
280
     1
281
     1
  3
ACAD_XREC_ROUNDTRIP
360
1A06
  0
CELLSTYLEMAP
  5
1A10
102
{ACAD_REACTORS
330
1A0F
102
}
330
1A0F
100
AcDbCellStyleMap
 90
        3
300
CELLSTYLE
  1
TABLEFORMAT_BEGIN
 90
        5
170
     1
 91
        0
 92
    32768
 62
   257
 93
        1
300
CONTENTFORMAT
  1
CONTENTFORMAT_BEGIN
 90
        0
 91
        0
 92
        4
 93
        0
300

 40
0.0
140
1.0
 94
        5
 62
     0
340
165D
144
1.0
309
CONTENTFORMAT_END
171
     1
301
MARGIN
  1
CELLMARGIN_BEGIN
 40
1.5
 40
1.5
 40
1.5
 40
1.5
 40
1.5
 40
1.5
309
CELLMARGIN_END
 94
        6
 95
        1
302
GRIDFORMAT
  1
GRIDFORMAT_BEGIN
 90
        0
 91
        1
 62
     0
 92
       -2
340
11
 93
        0
 40
0.045
309
GRIDFORMAT_END
 95
        2
302
GRIDFORMAT
  1
GRIDFORMAT_BEGIN
 90
        0
 91
        1
 62
     0
 92
       -2
340
11
 93
        0
 40
0.045
309
GRIDFORMAT_END
 95
        4
302
GRIDFORMAT
  1
GRIDFORMAT_BEGIN
 90
        0
 91
        1
 62
     0
 92
       -2
340
11
 93
        0
 40
0.045
309
GRIDFORMAT_END
 95
        8
302
GRIDFORMAT
  1
GRIDFORMAT_BEGIN
 90
        0
 91
        1
 62
     0
 92
       -2
340
11
 93
        0
 40
0.045
309
GRIDFORMAT_END
 95
       16
302
GRIDFORMAT
  1
GRIDFORMAT_BEGIN
 90
        0
 91
        1
 62
     0
 92
       -2
340
11
 93
        0
 40
0.045
309
GRIDFORMAT_END
 95
       32
302
GRIDFORMAT
  1
GRIDFORMAT_BEGIN
 90
        0
 91
        1
 62
     0
 92
       -2
340
11
 93
        0
 40
0.045
309
GRIDFORMAT_END
309
TABLEFORMAT_END
  1
CELLSTYLE_BEGIN
 90
        1
 91
        1
300
_TITLE
309
CELLSTYLE_END
300
CELLSTYLE
  1
TABLEFORMAT_BEGIN
 90
        5
170
     1
 91
        0
 92
        0
 62
   257
 93
        1
300
CONTENTFORMAT
  1
CONTENTFORMAT_BEGIN
 90
        0
 91
        0
 92
        4
 93
        0
300

 40
0.0
140
1.0
 94
        5
 62
     0
340
165D
144
6.0
309
CONTENTFORMAT_END
171
     1
301
MARGIN
  1
CELLMARGIN_BEGIN
 40
1.5
 40
1.5
 40
1.5
 40
1.5
 40
1.5
 40
1.5
309
CELLMARGIN_END
 94
        6
 95
        1
302
GRIDFORMAT
  1
GRIDFORMAT_BEGIN
 90
        0
 91
        1
 62
     0
 92
       -2
340
11
 93
        0
 40
0.045
309
GRIDFORMAT_END
 95
        2
302
GRIDFORMAT
  1
GRIDFORMAT_BEGIN
 90
        0
 91
        1
 62
     0
 92
       -2
340
11
 93
        0
 40
0.045
309
GRIDFORMAT_END
 95
        4
302
GRIDFORMAT
  1
GRIDFORMAT_BEGIN
 90
        0
 91
        1
 62
     0
 92
       -2
340
11
 93
        0
 40
0.045
309
GRIDFORMAT_END
 95
        8
302
GRIDFORMAT
  1
GRIDFORMAT_BEGIN
 90
        0
 91
        1
 62
     0
 92
       -2
340
11
 93
        0
 40
0.045
309
GRIDFORMAT_END
 95
       16
302
GRIDFORMAT
  1
GRIDFORMAT_BEGIN
 90
        0
 91
        1
 62
     0
 92
       -2
340
11
 93
        0
 40
0.045
309
GRIDFORMAT_END
 95
       32
302
GRIDFORMAT
  1
GRIDFORMAT_BEGIN
 90
        0
 91
        1
 62
     0
 92
       -2
340
11
 93
        0
 40
0.045
309
GRIDFORMAT_END
309
TABLEFORMAT_END
  1
CELLSTYLE_BEGIN
 90
        2
 91
        1
300
_HEADER
309
CELLSTYLE_END
300
CELLSTYLE
  1
TABLEFORMAT_BEGIN
 90
        5
170
     1
 91
        0
 92
        0
 62
   257
 93
        1
300
CONTENTFORMAT
  1
CONTENTFORMAT_BEGIN
 90
        0
 91
        0
 92
        4
 93
        0
300

 40
0.0
140
1.0
 94
        2
 62
     0
340
165D
144
6.0
309
CONTENTFORMAT_END
171
     1
301
MARGIN
  1
CELLMARGIN_BEGIN
 40
1.5
 40
1.5
 40
1.5
 40
1.5
 40
1.5
 40
1.5
309
CELLMARGIN_END
 94
        6
 95
        1
302
GRIDFORMAT
  1
GRIDFORMAT_BEGIN
 90
        0
 91
        1
 62
     0
 92
       -2
340
11
 93
        0
 40
0.045
309
GRIDFORMAT_END
 95
        2
302
GRIDFORMAT
  1
GRIDFORMAT_BEGIN
 90
        0
 91
        1
 62
     0
 92
       -2
340
11
 93
        0
 40
0.045
309
GRIDFORMAT_END
 95
        4
302
GRIDFORMAT
  1
GRIDFORMAT_BEGIN
 90
        0
 91
        1
 62
     0
 92
       -2
340
11
 93
        0
 40
0.045
309
GRIDFORMAT_END
 95
        8
302
GRIDFORMAT
  1
GRIDFORMAT_BEGIN
 90
        0
 91
        1
 62
     0
 92
       -2
340
11
 93
        0
 40
0.045
309
GRIDFORMAT_END
 95
       16
302
GRIDFORMAT
  1
GRIDFORMAT_BEGIN
 90
        0
 91
        1
 62
     0
 92
       -2
340
11
 93
        0
 40
0.045
309
GRIDFORMAT_END
 95
       32
302
GRIDFORMAT
  1
GRIDFORMAT_BEGIN
 90
        0
 91
        1
 62
     0
 92
       -2
340
11
 93
        0
 40
0.045
309
GRIDFORMAT_END
309
TABLEFORMAT_END
  1
CELLSTYLE_BEGIN
 90
        3
 91
        2
300
_DATA
309
CELLSTYLE_END
  0
CELLSTYLEMAP
  5
1A0E
102
{ACAD_REACTORS
330
1A0D
102
}
330
1A0D
100
AcDbCellStyleMap
 90
        3
300
CELLSTYLE
  1
TABLEFORMAT_BEGIN
 90
        5
170
     1
 91
        0
 92
    32768
 62
   257
 93
        1
300
CONTENTFORMAT
  1
CONTENTFORMAT_BEGIN
 90
        0
 91
        0
 92
        4
 93
        0
300

 40
0.0
140
1.0
 94
        5
 62
     0
340
17
144
0.25
309
CONTENTFORMAT_END
171
     1
301
MARGIN
  1
CELLMARGIN_BEGIN
 40
0.06
 40
0.06
 40
0.06
 40
0.06
 40
0.06
 40
0.06
309
CELLMARGIN_END
 94
        6
 95
        1
302
GRIDFORMAT
  1
GRIDFORMAT_BEGIN
 90
        0
 91
        1
 62
     0
 92
       -2
340
11
 93
        0
 40
0.045
309
GRIDFORMAT_END
 95
        2
302
GRIDFORMAT
  1
GRIDFORMAT_BEGIN
 90
        0
 91
        1
 62
     0
 92
       -2
340
11
 93
        0
 40
0.045
309
GRIDFORMAT_END
 95
        4
302
GRIDFORMAT
  1
GRIDFORMAT_BEGIN
 90
        0
 91
        1
 62
     0
 92
       -2
340
11
 93
        0
 40
0.045
309
GRIDFORMAT_END
 95
        8
302
GRIDFORMAT
  1
GRIDFORMAT_BEGIN
 90
        0
 91
        1
 62
     0
 92
       -2
340
11
 93
        0
 40
0.045
309
GRIDFORMAT_END
 95
       16
302
GRIDFORMAT
  1
GRIDFORMAT_BEGIN
 90
        0
 91
        1
 62
     0
 92
       -2
340
11
 93
        0
 40
0.045
309
GRIDFORMAT_END
 95
       32
302
GRIDFORMAT
  1
GRIDFORMAT_BEGIN
 90
        0
 91
        1
 62
     0
 92
       -2
340
11
 93
        0
 40
0.045
309
GRIDFORMAT_END
309
TABLEFORMAT_END
  1
CELLSTYLE_BEGIN
 90
        1
 91
        1
300
_TITLE
309
CELLSTYLE_END
300
CELLSTYLE
  1
TABLEFORMAT_BEGIN
 90
        5
170
     1
 91
        0
 92
        0
 62
   257
 93
        1
300
CONTENTFORMAT
  1
CONTENTFORMAT_BEGIN
 90
        0
 91
        0
 92
        4
 93
        0
300

 40
0.0
140
1.0
 94
        5
 62
     0
340
17
144
0.18
309
CONTENTFORMAT_END
171
     1
301
MARGIN
  1
CELLMARGIN_BEGIN
 40
0.06
 40
0.06
 40
0.06
 40
0.06
 40
0.06
 40
0.06
309
CELLMARGIN_END
 94
        6
 95
        1
302
GRIDFORMAT
  1
GRIDFORMAT_BEGIN
 90
        0
 91
        1
 62
     0
 92
       -2
340
11
 93
        0
 40
0.045
309
GRIDFORMAT_END
 95
        2
302
GRIDFORMAT
  1
GRIDFORMAT_BEGIN
 90
        0
 91
        1
 62
     0
 92
       -2
340
11
 93
        0
 40
0.045
309
GRIDFORMAT_END
 95
        4
302
GRIDFORMAT
  1
GRIDFORMAT_BEGIN
 90
        0
 91
        1
 62
     0
 92
       -2
340
11
 93
        0
 40
0.045
309
GRIDFORMAT_END
 95
        8
302
GRIDFORMAT
  1
GRIDFORMAT_BEGIN
 90
        0
 91
        1
 62
     0
 92
       -2
340
11
 93
        0
 40
0.045
309
GRIDFORMAT_END
 95
       16
302
GRIDFORMAT
  1
GRIDFORMAT_BEGIN
 90
        0
 91
        1
 62
     0
 92
       -2
340
11
 93
        0
 40
0.045
309
GRIDFORMAT_END
 95
       32
302
GRIDFORMAT
  1
GRIDFORMAT_BEGIN
 90
        0
 91
        1
 62
     0
 92
       -2
340
11
 93
        0
 40
0.045
309
GRIDFORMAT_END
309
TABLEFORMAT_END
  1
CELLSTYLE_BEGIN
 90
        2
 91
        1
300
_HEADER
309
CELLSTYLE_END
300
CELLSTYLE
  1
TABLEFORMAT_BEGIN
 90
        5
170
     1
 91
        0
 92
        0
 62
   257
 93
        1
300
CONTENTFORMAT
  1
CONTENTFORMAT_BEGIN
 90
        0
 91
        0
 92
        4
 93
        0
300

 40
0.0
140
1.0
 94
        2
 62
     0
340
17
144
0.18
309
CONTENTFORMAT_END
171
     1
301
MARGIN
  1
CELLMARGIN_BEGIN
 40
0.06
 40
0.06
 40
0.06
 40
0.06
 40
0.06
 40
0.06
309
CELLMARGIN_END
 94
        6
 95
        1
302
GRIDFORMAT
  1
GRIDFORMAT_BEGIN
 90
        0
 91
        1
 62
     0
 92
       -2
340
11
 93
        0
 40
0.045
309
GRIDFORMAT_END
 95
        2
302
GRIDFORMAT
  1
GRIDFORMAT_BEGIN
 90
        0
 91
        1
 62
     0
 92
       -2
340
11
 93
        0
 40
0.045
309
GRIDFORMAT_END
 95
        4
302
GRIDFORMAT
  1
GRIDFORMAT_BEGIN
 90
        0
 91
        1
 62
     0
 92
       -2
340
11
 93
        0
 40
0.045
309
GRIDFORMAT_END
 95
        8
302
GRIDFORMAT
  1
GRIDFORMAT_BEGIN
 90
        0
 91
        1
 62
     0
 92
       -2
340
11
 93
        0
 40
0.045
309
GRIDFORMAT_END
 95
       16
302
GRIDFORMAT
  1
GRIDFORMAT_BEGIN
 90
        0
 91
        1
 62
     0
 92
       -2
340
11
 93
        0
 40
0.045
309
GRIDFORMAT_END
 95
       32
302
GRIDFORMAT
  1
GRIDFORMAT_BEGIN
 90
        0
 91
        1
 62
     0
 92
       -2
340
11
 93
        0
 40
0.045
309
GRIDFORMAT_END
309
TABLEFORMAT_END
  1
CELLSTYLE_BEGIN
 90
        3
 91
        2
300
_DATA
309
CELLSTYLE_END
  0
XRECORD
  5
19E4
102
{ACAD_REACTORS
330
19E3
102
}
330
19E3
100
AcDbXrecord
280
     1
102
RTVSPost2010Prop28
280
     1
102
RTVSPost2010PropOp28
 70
     1
102
RTVSPost2010Prop29
280
     1
102
RTVSPost2010PropOp29
 70
     1
102
RTVSPost2010Prop30
280
     0
102
RTVSPost2010PropOp30
 70
     1
102
RTVSPost2010Prop31
280
     0
102
RTVSPost2010PropOp31
 70
     1
102
RTVSPost2010Prop32
280
     0
102
RTVSPost2010PropOp32
 70
     1
102
RTVSPost2010Prop33
280
     0
102
RTVSPost2010PropOp33
 70
     1
102
RTVSPost2010Prop34
280
     0
102
RTVSPost2010PropOp34
 70
     1
102
RTVSPost2010Prop35
280
     0
102
RTVSPost2010PropOp35
 70
     1
102
RTVSPost2010Prop36
280
     0
102
RTVSPost2010PropOp36
 70
     1
102
RTVSPost2010Prop37
 90
       50
102
RTVSPost2010PropOp37
 70
     1
102
RTVSPost2010Prop38
140
0.0
102
RTVSPost2010PropOp38
 70
     1
102
RTVSPost2010Prop39
140
1.0
102
RTVSPost2010PropOp39
 70
     1
102
RTVSPost2010Prop40
 90
        0
102
RTVSPost2010PropOp40
 70
     1
102
RTVSPost2010Prop41ColorIndex
 90
       18
102
RTVSPost2010Prop41ColorRGB
 90
        0
102
RTVSPost2010PropOp41
 70
     1
102
RTVSPost2010Prop42
 90
       50
102
RTVSPost2010PropOp42
 70
     1
102
RTVSPost2010Prop43
 90
        3
102
RTVSPost2010PropOp43
 70
     1
102
RTVSPost2010Prop44ColorIndex
 90
        5
102
RTVSPost2010Prop44ColorRGB
 90
      255
102
RTVSPost2010PropOp44
 70
     1
102
RTVSPost2010Prop45
280
     0
102
RTVSPost2010PropOp45
 70
     1
102
RTVSPost2010Prop46
 90
       50
102
RTVSPost2010PropOp46
 70
     1
102
RTVSPost2010Prop47
 90
       50
102
RTVSPost2010PropOp47
 70
     1
102
RTVSPost2010Prop48
 90
       50
102
RTVSPost2010PropOp48
 70
     1
102
RTVSPost2010Prop49
280
     0
102
RTVSPost2010PropOp49
 70
     1
102
RTVSPost2010Prop50
 90
       50
102
RTVSPost2010PropOp50
 70
     1
102
RTVSPost2010Prop51ColorIndex
 90
      256
102
RTVSPost2010Prop51ColorRGB
 90
-16777216
102
RTVSPost2010PropOp51
 70
     0
102
RTVSPost2010Prop52
140
1.0
102
RTVSPost2010PropOp52
 70
     0
102
RTVSPost2010Prop53
 90
        2
102
RTVSPost2010PropOp53
 70
     1
102
RTVSPost2010Prop54
  1
strokes_ogs.tif
102
RTVSPost2010PropOp54
 70
     1
102
RTVSPost2010Prop55
280
     0
102
RTVSPost2010PropOp55
 70
     1
102
RTVSPost2010Prop56
140
1.0
102
RTVSPost2010PropOp56
 70
     1
102
RTVSPost2010Prop57
140
1.0
102
RTVSPost2010PropOp57
 70
     1
  0
XRECORD
  5
19EA
102
{ACAD_REACTORS
330
19E9
102
}
330
19E9
100
AcDbXrecord
280
     1
102
RTVSPost2010Prop28
280
     0
102
RTVSPost2010PropOp28
 70
     1
102
RTVSPost2010Prop29
280
     1
102
RTVSPost2010PropOp29
 70
     1
102
RTVSPost2010Prop30
280
     1
102
RTVSPost2010PropOp30
 70
     1
102
RTVSPost2010Prop31
280
     0
102
RTVSPost2010PropOp31
 70
     1
102
RTVSPost2010Prop32
280
     0
102
RTVSPost2010PropOp32
 70
     1
102
RTVSPost2010Prop33
280
     0
102
RTVSPost2010PropOp33
 70
     1
102
RTVSPost2010Prop34
280
     0
102
RTVSPost2010PropOp34
 70
     1
102
RTVSPost2010Prop35
280
     0
102
RTVSPost2010PropOp35
 70
     1
102
RTVSPost2010Prop36
280
     0
102
RTVSPost2010PropOp36
 70
     1
102
RTVSPost2010Prop37
 90
       50
102
RTVSPost2010PropOp37
 70
     1
102
RTVSPost2010Prop38
140
0.0
102
RTVSPost2010PropOp38
 70
     1
102
RTVSPost2010Prop39
140
1.0
102
RTVSPost2010PropOp39
 70
     1
102
RTVSPost2010Prop40
 90
        0
102
RTVSPost2010PropOp40
 70
     1
102
RTVSPost2010Prop41ColorIndex
 90
       18
102
RTVSPost2010Prop41ColorRGB
 90
        0
102
RTVSPost2010PropOp41
 70
     1
102
RTVSPost2010Prop42
 90
       50
102
RTVSPost2010PropOp42
 70
     1
102
RTVSPost2010Prop43
 90
        3
102
RTVSPost2010PropOp43
 70
     1
102
RTVSPost2010Prop44ColorIndex
 90
        5
102
RTVSPost2010Prop44ColorRGB
 90
      255
102
RTVSPost2010PropOp44
 70
     1
102
RTVSPost2010Prop45
280
     0
102
RTVSPost2010PropOp45
 70
     1
102
RTVSPost2010Prop46
 90
       50
102
RTVSPost2010PropOp46
 70
     1
102
RTVSPost2010Prop47
 90
       50
102
RTVSPost2010PropOp47
 70
     1
102
RTVSPost2010Prop48
 90
       50
102
RTVSPost2010PropOp48
 70
     1
102
RTVSPost2010Prop49
280
     0
102
RTVSPost2010PropOp49
 70
     1
102
RTVSPost2010Prop50
 90
       50
102
RTVSPost2010PropOp50
 70
     1
102
RTVSPost2010Prop51ColorIndex
 90
      256
102
RTVSPost2010Prop51ColorRGB
 90
-16777216
102
RTVSPost2010PropOp51
 70
     0
102
RTVSPost2010Prop52
140
1.0
102
RTVSPost2010PropOp52
 70
     0
102
RTVSPost2010Prop53
 90
        2
102
RTVSPost2010PropOp53
 70
     1
102
RTVSPost2010Prop54
  1
strokes_ogs.tif
102
RTVSPost2010PropOp54
 70
     1
102
RTVSPost2010Prop55
280
     0
102
RTVSPost2010PropOp55
 70
     1
102
RTVSPost2010Prop56
140
1.0
102
RTVSPost2010PropOp56
 70
     1
102
RTVSPost2010Prop57
140
1.0
102
RTVSPost2010PropOp57
 70
     1
  0
XRECORD
  5
19F2
102
{ACAD_REACTORS
330
19F1
102
}
330
19F1
100
AcDbXrecord
280
     1
102
RTVSPost2010Prop28
280
     0
102
RTVSPost2010PropOp28
 70
     1
102
RTVSPost2010Prop29
280
     1
102
RTVSPost2010PropOp29
 70
     1
102
RTVSPost2010Prop30
280
     1
102
RTVSPost2010PropOp30
 70
     1
102
RTVSPost2010Prop31
280
     0
102
RTVSPost2010PropOp31
 70
     1
102
RTVSPost2010Prop32
280
     0
102
RTVSPost2010PropOp32
 70
     1
102
RTVSPost2010Prop33
280
     0
102
RTVSPost2010PropOp33
 70
     1
102
RTVSPost2010Prop34
280
     0
102
RTVSPost2010PropOp34
 70
     1
102
RTVSPost2010Prop35
280
     0
102
RTVSPost2010PropOp35
 70
     1
102
RTVSPost2010Prop36
280
     0
102
RTVSPost2010PropOp36
 70
     1
102
RTVSPost2010Prop37
 90
       50
102
RTVSPost2010PropOp37
 70
     1
102
RTVSPost2010Prop38
140
0.0
102
RTVSPost2010PropOp38
 70
     1
102
RTVSPost2010Prop39
140
1.0
102
RTVSPost2010PropOp39
 70
     1
102
RTVSPost2010Prop40
 90
        0
102
RTVSPost2010PropOp40
 70
     1
102
RTVSPost2010Prop41ColorIndex
 90
       18
102
RTVSPost2010Prop41ColorRGB
 90
        0
102
RTVSPost2010PropOp41
 70
     1
102
RTVSPost2010Prop42
 90
       50
102
RTVSPost2010PropOp42
 70
     1
102
RTVSPost2010Prop43
 90
        3
102
RTVSPost2010PropOp43
 70
     1
102
RTVSPost2010Prop44ColorIndex
 90
        5
102
RTVSPost2010Prop44ColorRGB
 90
      255
102
RTVSPost2010PropOp44
 70
     1
102
RTVSPost2010Prop45
280
     0
102
RTVSPost2010PropOp45
 70
     1
102
RTVSPost2010Prop46
 90
       50
102
RTVSPost2010PropOp46
 70
     1
102
RTVSPost2010Prop47
 90
       50
102
RTVSPost2010PropOp47
 70
     1
102
RTVSPost2010Prop48
 90
       50
102
RTVSPost2010PropOp48
 70
     1
102
RTVSPost2010Prop49
280
     0
102
RTVSPost2010PropOp49
 70
     1
102
RTVSPost2010Prop50
 90
       50
102
RTVSPost2010PropOp50
 70
     1
102
RTVSPost2010Prop51ColorIndex
 90
      256
102
RTVSPost2010Prop51ColorRGB
 90
-16777216
102
RTVSPost2010PropOp51
 70
     0
102
RTVSPost2010Prop52
140
1.0
102
RTVSPost2010PropOp52
 70
     0
102
RTVSPost2010Prop53
 90
        2
102
RTVSPost2010PropOp53
 70
     1
102
RTVSPost2010Prop54
  1
strokes_ogs.tif
102
RTVSPost2010PropOp54
 70
     1
102
RTVSPost2010Prop55
280
     0
102
RTVSPost2010PropOp55
 70
     1
102
RTVSPost2010Prop56
140
1.0
102
RTVSPost2010PropOp56
 70
     1
102
RTVSPost2010Prop57
140
1.0
102
RTVSPost2010PropOp57
 70
     1
  0
XRECORD
  5
19FA
102
{ACAD_REACTORS
330
19F9
102
}
330
19F9
100
AcDbXrecord
280
     1
102
RTVSPost2010Prop28
280
     0
102
RTVSPost2010PropOp28
 70
     1
102
RTVSPost2010Prop29
280
     1
102
RTVSPost2010PropOp29
 70
     1
102
RTVSPost2010Prop30
280
     1
102
RTVSPost2010PropOp30
 70
     1
102
RTVSPost2010Prop31
280
     0
102
RTVSPost2010PropOp31
 70
     1
102
RTVSPost2010Prop32
280
     0
102
RTVSPost2010PropOp32
 70
     1
102
RTVSPost2010Prop33
280
     0
102
RTVSPost2010PropOp33
 70
     1
102
RTVSPost2010Prop34
280
     0
102
RTVSPost2010PropOp34
 70
     1
102
RTVSPost2010Prop35
280
     0
102
RTVSPost2010PropOp35
 70
     1
102
RTVSPost2010Prop36
280
     0
102
RTVSPost2010PropOp36
 70
     1
102
RTVSPost2010Prop37
 90
       50
102
RTVSPost2010PropOp37
 70
     1
102
RTVSPost2010Prop38
140
0.0
102
RTVSPost2010PropOp38
 70
     1
102
RTVSPost2010Prop39
140
1.0
102
RTVSPost2010PropOp39
 70
     1
102
RTVSPost2010Prop40
 90
        0
102
RTVSPost2010PropOp40
 70
     1
102
RTVSPost2010Prop41ColorIndex
 90
       18
102
RTVSPost2010Prop41ColorRGB
 90
        0
102
RTVSPost2010PropOp41
 70
     1
102
RTVSPost2010Prop42
 90
       50
102
RTVSPost2010PropOp42
 70
     1
102
RTVSPost2010Prop43
 90
        3
102
RTVSPost2010PropOp43
 70
     1
102
RTVSPost2010Prop44ColorIndex
 90
        5
102
RTVSPost2010Prop44ColorRGB
 90
      255
102
RTVSPost2010PropOp44
 70
     1
102
RTVSPost2010Prop45
280
     0
102
RTVSPost2010PropOp45
 70
     1
102
RTVSPost2010Prop46
 90
       50
102
RTVSPost2010PropOp46
 70
     1
102
RTVSPost2010Prop47
 90
       50
102
RTVSPost2010PropOp47
 70
     1
102
RTVSPost2010Prop48
 90
       50
102
RTVSPost2010PropOp48
 70
     1
102
RTVSPost2010Prop49
280
     0
102
RTVSPost2010PropOp49
 70
     1
102
RTVSPost2010Prop50
 90
       50
102
RTVSPost2010PropOp50
 70
     1
102
RTVSPost2010Prop51ColorIndex
 90
      256
102
RTVSPost2010Prop51ColorRGB
 90
-16777216
102
RTVSPost2010PropOp51
 70
     0
102
RTVSPost2010Prop52
140
1.0
102
RTVSPost2010PropOp52
 70
     0
102
RTVSPost2010Prop53
 90
        2
102
RTVSPost2010PropOp53
 70
     1
102
RTVSPost2010Prop54
  1
strokes_ogs.tif
102
RTVSPost2010PropOp54
 70
     1
102
RTVSPost2010Prop55
280
     0
102
RTVSPost2010PropOp55
 70
     1
102
RTVSPost2010Prop56
140
1.0
102
RTVSPost2010PropOp56
 70
     1
102
RTVSPost2010Prop57
140
1.0
102
RTVSPost2010PropOp57
 70
     1
  0
XRECORD
  5
19EE
102
{ACAD_REACTORS
330
19ED
102
}
330
19ED
100
AcDbXrecord
280
     1
102
RTVSPost2010Prop28
280
     0
102
RTVSPost2010PropOp28
 70
     1
102
RTVSPost2010Prop29
280
     1
102
RTVSPost2010PropOp29
 70
     1
102
RTVSPost2010Prop30
280
     1
102
RTVSPost2010PropOp30
 70
     1
102
RTVSPost2010Prop31
280
     0
102
RTVSPost2010PropOp31
 70
     1
102
RTVSPost2010Prop32
280
     0
102
RTVSPost2010PropOp32
 70
     1
102
RTVSPost2010Prop33
280
     0
102
RTVSPost2010PropOp33
 70
     1
102
RTVSPost2010Prop34
280
     0
102
RTVSPost2010PropOp34
 70
     1
102
RTVSPost2010Prop35
280
     0
102
RTVSPost2010PropOp35
 70
     1
102
RTVSPost2010Prop36
280
     0
102
RTVSPost2010PropOp36
 70
     1
102
RTVSPost2010Prop37
 90
       50
102
RTVSPost2010PropOp37
 70
     1
102
RTVSPost2010Prop38
140
0.0
102
RTVSPost2010PropOp38
 70
     1
102
RTVSPost2010Prop39
140
1.0
102
RTVSPost2010PropOp39
 70
     1
102
RTVSPost2010Prop40
 90
        0
102
RTVSPost2010PropOp40
 70
     1
102
RTVSPost2010Prop41ColorIndex
 90
       18
102
RTVSPost2010Prop41ColorRGB
 90
        0
102
RTVSPost2010PropOp41
 70
     1
102
RTVSPost2010Prop42
 90
       50
102
RTVSPost2010PropOp42
 70
     1
102
RTVSPost2010Prop43
 90
        3
102
RTVSPost2010PropOp43
 70
     1
102
RTVSPost2010Prop44ColorIndex
 90
        5
102
RTVSPost2010Prop44ColorRGB
 90
      255
102
RTVSPost2010PropOp44
 70
     1
102
RTVSPost2010Prop45
280
     0
102
RTVSPost2010PropOp45
 70
     1
102
RTVSPost2010Prop46
 90
       50
102
RTVSPost2010PropOp46
 70
     1
102
RTVSPost2010Prop47
 90
       50
102
RTVSPost2010PropOp47
 70
     1
102
RTVSPost2010Prop48
 90
       50
102
RTVSPost2010PropOp48
 70
     1
102
RTVSPost2010Prop49
280
     0
102
RTVSPost2010PropOp49
 70
     1
102
RTVSPost2010Prop50
 90
       50
102
RTVSPost2010PropOp50
 70
     1
102
RTVSPost2010Prop51ColorIndex
 90
      256
102
RTVSPost2010Prop51ColorRGB
 90
-16777216
102
RTVSPost2010PropOp51
 70
     0
102
RTVSPost2010Prop52
140
1.0
102
RTVSPost2010PropOp52
 70
     0
102
RTVSPost2010Prop53
 90
        2
102
RTVSPost2010PropOp53
 70
     1
102
RTVSPost2010Prop54
  1
strokes_ogs.tif
102
RTVSPost2010PropOp54
 70
     1
102
RTVSPost2010Prop55
280
     0
102
RTVSPost2010PropOp55
 70
     1
102
RTVSPost2010Prop56
140
1.0
102
RTVSPost2010PropOp56
 70
     1
102
RTVSPost2010Prop57
140
1.0
102
RTVSPost2010PropOp57
 70
     1
  0
XRECORD
  5
19F0
102
{ACAD_REACTORS
330
19EF
102
}
330
19EF
100
AcDbXrecord
280
     1
102
RTVSPost2010Prop28
280
     0
102
RTVSPost2010PropOp28
 70
     1
102
RTVSPost2010Prop29
280
     1
102
RTVSPost2010PropOp29
 70
     1
102
RTVSPost2010Prop30
280
     1
102
RTVSPost2010PropOp30
 70
     1
102
RTVSPost2010Prop31
280
     0
102
RTVSPost2010PropOp31
 70
     1
102
RTVSPost2010Prop32
280
     0
102
RTVSPost2010PropOp32
 70
     1
102
RTVSPost2010Prop33
280
     0
102
RTVSPost2010PropOp33
 70
     1
102
RTVSPost2010Prop34
280
     0
102
RTVSPost2010PropOp34
 70
     1
102
RTVSPost2010Prop35
280
     0
102
RTVSPost2010PropOp35
 70
     1
102
RTVSPost2010Prop36
280
     0
102
RTVSPost2010PropOp36
 70
     1
102
RTVSPost2010Prop37
 90
       50
102
RTVSPost2010PropOp37
 70
     1
102
RTVSPost2010Prop38
140
0.0
102
RTVSPost2010PropOp38
 70
     1
102
RTVSPost2010Prop39
140
1.0
102
RTVSPost2010PropOp39
 70
     1
102
RTVSPost2010Prop40
 90
        0
102
RTVSPost2010PropOp40
 70
     1
102
RTVSPost2010Prop41ColorIndex
 90
       18
102
RTVSPost2010Prop41ColorRGB
 90
        0
102
RTVSPost2010PropOp41
 70
     1
102
RTVSPost2010Prop42
 90
       50
102
RTVSPost2010PropOp42
 70
     1
102
RTVSPost2010Prop43
 90
        3
102
RTVSPost2010PropOp43
 70
     1
102
RTVSPost2010Prop44ColorIndex
 90
        5
102
RTVSPost2010Prop44ColorRGB
 90
      255
102
RTVSPost2010PropOp44
 70
     1
102
RTVSPost2010Prop45
280
     0
102
RTVSPost2010PropOp45
 70
     1
102
RTVSPost2010Prop46
 90
       50
102
RTVSPost2010PropOp46
 70
     1
102
RTVSPost2010Prop47
 90
       50
102
RTVSPost2010PropOp47
 70
     1
102
RTVSPost2010Prop48
 90
       50
102
RTVSPost2010PropOp48
 70
     1
102
RTVSPost2010Prop49
280
     0
102
RTVSPost2010PropOp49
 70
     1
102
RTVSPost2010Prop50
 90
       50
102
RTVSPost2010PropOp50
 70
     1
102
RTVSPost2010Prop51ColorIndex
 90
      256
102
RTVSPost2010Prop51ColorRGB
 90
-16777216
102
RTVSPost2010PropOp51
 70
     0
102
RTVSPost2010Prop52
140
1.0
102
RTVSPost2010PropOp52
 70
     0
102
RTVSPost2010Prop53
 90
        2
102
RTVSPost2010PropOp53
 70
     1
102
RTVSPost2010Prop54
  1
strokes_ogs.tif
102
RTVSPost2010PropOp54
 70
     1
102
RTVSPost2010Prop55
280
     0
102
RTVSPost2010PropOp55
 70
     1
102
RTVSPost2010Prop56
140
1.0
102
RTVSPost2010PropOp56
 70
     1
102
RTVSPost2010Prop57
140
1.0
102
RTVSPost2010PropOp57
 70
     1
  0
XRECORD
  5
1A00
102
{ACAD_REACTORS
330
19FF
102
}
330
19FF
100
AcDbXrecord
280
     1
102
RTVSPost2010Prop28
280
     0
102
RTVSPost2010PropOp28
 70
     0
102
RTVSPost2010Prop29
280
     1
102
RTVSPost2010PropOp29
 70
     0
102
RTVSPost2010Prop30
280
     1
102
RTVSPost2010PropOp30
 70
     0
102
RTVSPost2010Prop31
280
     0
102
RTVSPost2010PropOp31
 70
     0
102
RTVSPost2010Prop32
280
     0
102
RTVSPost2010PropOp32
 70
     0
102
RTVSPost2010Prop33
280
     0
102
RTVSPost2010PropOp33
 70
     0
102
RTVSPost2010Prop34
280
     0
102
RTVSPost2010PropOp34
 70
     0
102
RTVSPost2010Prop35
280
     0
102
RTVSPost2010PropOp35
 70
     0
102
RTVSPost2010Prop36
280
     0
102
RTVSPost2010PropOp36
 70
     0
102
RTVSPost2010Prop37
 90
       50
102
RTVSPost2010PropOp37
 70
     0
102
RTVSPost2010Prop38
140
0.0
102
RTVSPost2010PropOp38
 70
     0
102
RTVSPost2010Prop39
140
1.0
102
RTVSPost2010PropOp39
 70
     0
102
RTVSPost2010Prop40
 90
        0
102
RTVSPost2010PropOp40
 70
     0
102
RTVSPost2010Prop41ColorIndex
 90
       18
102
RTVSPost2010Prop41ColorRGB
 90
        0
102
RTVSPost2010PropOp41
 70
     0
102
RTVSPost2010Prop42
 90
       50
102
RTVSPost2010PropOp42
 70
     0
102
RTVSPost2010Prop43
 90
        3
102
RTVSPost2010PropOp43
 70
     0
102
RTVSPost2010Prop44ColorIndex
 90
        5
102
RTVSPost2010Prop44ColorRGB
 90
      255
102
RTVSPost2010PropOp44
 70
     0
102
RTVSPost2010Prop45
280
     0
102
RTVSPost2010PropOp45
 70
     0
102
RTVSPost2010Prop46
 90
       50
102
RTVSPost2010PropOp46
 70
     0
102
RTVSPost2010Prop47
 90
       50
102
RTVSPost2010PropOp47
 70
     0
102
RTVSPost2010Prop48
 90
       50
102
RTVSPost2010PropOp48
 70
     0
102
RTVSPost2010Prop49
280
     0
102
RTVSPost2010PropOp49
 70
     0
102
RTVSPost2010Prop50
 90
       50
102
RTVSPost2010PropOp50
 70
     0
102
RTVSPost2010Prop51ColorIndex
 90
      256
102
RTVSPost2010Prop51ColorRGB
 90
-16777216
102
RTVSPost2010PropOp51
 70
     0
102
RTVSPost2010Prop52
140
1.0
102
RTVSPost2010PropOp52
 70
     0
102
RTVSPost2010Prop53
 90
        2
102
RTVSPost2010PropOp53
 70
     0
102
RTVSPost2010Prop54
  1
strokes_ogs.tif
102
RTVSPost2010PropOp54
 70
     0
102
RTVSPost2010Prop55
280
     0
102
RTVSPost2010PropOp55
 70
     0
102
RTVSPost2010Prop56
140
1.0
102
RTVSPost2010PropOp56
 70
     0
102
RTVSPost2010Prop57
140
1.0
102
RTVSPost2010PropOp57
 70
     0
  0
XRECORD
  5
19F8
102
{ACAD_REACTORS
330
19F7
102
}
330
19F7
100
AcDbXrecord
280
     1
102
RTVSPost2010Prop28
280
     0
102
RTVSPost2010PropOp28
 70
     1
102
RTVSPost2010Prop29
280
     1
102
RTVSPost2010PropOp29
 70
     1
102
RTVSPost2010Prop30
280
     1
102
RTVSPost2010PropOp30
 70
     1
102
RTVSPost2010Prop31
280
     0
102
RTVSPost2010PropOp31
 70
     1
102
RTVSPost2010Prop32
280
     0
102
RTVSPost2010PropOp32
 70
     1
102
RTVSPost2010Prop33
280
     0
102
RTVSPost2010PropOp33
 70
     1
102
RTVSPost2010Prop34
280
     0
102
RTVSPost2010PropOp34
 70
     1
102
RTVSPost2010Prop35
280
     0
102
RTVSPost2010PropOp35
 70
     1
102
RTVSPost2010Prop36
280
     0
102
RTVSPost2010PropOp36
 70
     1
102
RTVSPost2010Prop37
 90
       50
102
RTVSPost2010PropOp37
 70
     1
102
RTVSPost2010Prop38
140
0.0
102
RTVSPost2010PropOp38
 70
     1
102
RTVSPost2010Prop39
140
1.0
102
RTVSPost2010PropOp39
 70
     1
102
RTVSPost2010Prop40
 90
        0
102
RTVSPost2010PropOp40
 70
     1
102
RTVSPost2010Prop41ColorIndex
 90
       18
102
RTVSPost2010Prop41ColorRGB
 90
        0
102
RTVSPost2010PropOp41
 70
     1
102
RTVSPost2010Prop42
 90
       50
102
RTVSPost2010PropOp42
 70
     1
102
RTVSPost2010Prop43
 90
        3
102
RTVSPost2010PropOp43
 70
     1
102
RTVSPost2010Prop44ColorIndex
 90
        5
102
RTVSPost2010Prop44ColorRGB
 90
      255
102
RTVSPost2010PropOp44
 70
     1
102
RTVSPost2010Prop45
280
     0
102
RTVSPost2010PropOp45
 70
     1
102
RTVSPost2010Prop46
 90
       50
102
RTVSPost2010PropOp46
 70
     1
102
RTVSPost2010Prop47
 90
       50
102
RTVSPost2010PropOp47
 70
     1
102
RTVSPost2010Prop48
 90
       50
102
RTVSPost2010PropOp48
 70
     1
102
RTVSPost2010Prop49
280
     0
102
RTVSPost2010PropOp49
 70
     1
102
RTVSPost2010Prop50
 90
       50
102
RTVSPost2010PropOp50
 70
     1
102
RTVSPost2010Prop51ColorIndex
 90
      256
102
RTVSPost2010Prop51ColorRGB
 90
-16777216
102
RTVSPost2010PropOp51
 70
     0
102
RTVSPost2010Prop52
140
1.0
102
RTVSPost2010PropOp52
 70
     0
102
RTVSPost2010Prop53
 90
        2
102
RTVSPost2010PropOp53
 70
     1
102
RTVSPost2010Prop54
  1
strokes_ogs.tif
102
RTVSPost2010PropOp54
 70
     1
102
RTVSPost2010Prop55
280
     0
102
RTVSPost2010PropOp55
 70
     1
102
RTVSPost2010Prop56
140
1.0
102
RTVSPost2010PropOp56
 70
     1
102
RTVSPost2010Prop57
140
1.0
102
RTVSPost2010PropOp57
 70
     1
  0
XRECORD
  5
19DC
102
{ACAD_REACTORS
330
19DB
102
}
330
19DB
100
AcDbXrecord
280
     1
102
RTVSPost2010Prop28
280
     0
102
RTVSPost2010PropOp28
 70
     1
102
RTVSPost2010Prop29
280
     1
102
RTVSPost2010PropOp29
 70
     1
102
RTVSPost2010Prop30
280
     1
102
RTVSPost2010PropOp30
 70
     1
102
RTVSPost2010Prop31
280
     0
102
RTVSPost2010PropOp31
 70
     1
102
RTVSPost2010Prop32
280
     0
102
RTVSPost2010PropOp32
 70
     1
102
RTVSPost2010Prop33
280
     0
102
RTVSPost2010PropOp33
 70
     1
102
RTVSPost2010Prop34
280
     0
102
RTVSPost2010PropOp34
 70
     1
102
RTVSPost2010Prop35
280
     0
102
RTVSPost2010PropOp35
 70
     1
102
RTVSPost2010Prop36
280
     0
102
RTVSPost2010PropOp36
 70
     1
102
RTVSPost2010Prop37
 90
       50
102
RTVSPost2010PropOp37
 70
     1
102
RTVSPost2010Prop38
140
0.0
102
RTVSPost2010PropOp38
 70
     1
102
RTVSPost2010Prop39
140
1.0
102
RTVSPost2010PropOp39
 70
     1
102
RTVSPost2010Prop40
 90
        0
102
RTVSPost2010PropOp40
 70
     1
102
RTVSPost2010Prop41ColorIndex
 90
       18
102
RTVSPost2010Prop41ColorRGB
 90
        0
102
RTVSPost2010PropOp41
 70
     1
102
RTVSPost2010Prop42
 90
       50
102
RTVSPost2010PropOp42
 70
     1
102
RTVSPost2010Prop43
 90
        3
102
RTVSPost2010PropOp43
 70
     1
102
RTVSPost2010Prop44ColorIndex
 90
        5
102
RTVSPost2010Prop44ColorRGB
 90
      255
102
RTVSPost2010PropOp44
 70
     1
102
RTVSPost2010Prop45
280
     0
102
RTVSPost2010PropOp45
 70
     1
102
RTVSPost2010Prop46
 90
       50
102
RTVSPost2010PropOp46
 70
     1
102
RTVSPost2010Prop47
 90
       50
102
RTVSPost2010PropOp47
 70
     1
102
RTVSPost2010Prop48
 90
       50
102
RTVSPost2010PropOp48
 70
     1
102
RTVSPost2010Prop49
280
     0
102
RTVSPost2010PropOp49
 70
     1
102
RTVSPost2010Prop50
 90
       50
102
RTVSPost2010PropOp50
 70
     1
102
RTVSPost2010Prop51ColorIndex
 90
      256
102
RTVSPost2010Prop51ColorRGB
 90
-16777216
102
RTVSPost2010PropOp51
 70
     0
102
RTVSPost2010Prop52
140
1.0
102
RTVSPost2010PropOp52
 70
     0
102
RTVSPost2010Prop53
 90
        2
102
RTVSPost2010PropOp53
 70
     1
102
RTVSPost2010Prop54
  1
strokes_ogs.tif
102
RTVSPost2010PropOp54
 70
     1
102
RTVSPost2010Prop55
280
     0
102
RTVSPost2010PropOp55
 70
     1
102
RTVSPost2010Prop56
140
1.0
102
RTVSPost2010PropOp56
 70
     1
102
RTVSPost2010Prop57
140
1.0
102
RTVSPost2010PropOp57
 70
     1
  0
XRECORD
  5
19DE
102
{ACAD_REACTORS
330
19DD
102
}
330
19DD
100
AcDbXrecord
280
     1
102
RTVSPost2010Prop28
280
     0
102
RTVSPost2010PropOp28
 70
     1
102
RTVSPost2010Prop29
280
     1
102
RTVSPost2010PropOp29
 70
     1
102
RTVSPost2010Prop30
280
     1
102
RTVSPost2010PropOp30
 70
     1
102
RTVSPost2010Prop31
280
     0
102
RTVSPost2010PropOp31
 70
     1
102
RTVSPost2010Prop32
280
     0
102
RTVSPost2010PropOp32
 70
     1
102
RTVSPost2010Prop33
280
     0
102
RTVSPost2010PropOp33
 70
     1
102
RTVSPost2010Prop34
280
     0
102
RTVSPost2010PropOp34
 70
     1
102
RTVSPost2010Prop35
280
     0
102
RTVSPost2010PropOp35
 70
     1
102
RTVSPost2010Prop36
280
     0
102
RTVSPost2010PropOp36
 70
     1
102
RTVSPost2010Prop37
 90
       50
102
RTVSPost2010PropOp37
 70
     1
102
RTVSPost2010Prop38
140
0.0
102
RTVSPost2010PropOp38
 70
     1
102
RTVSPost2010Prop39
140
1.0
102
RTVSPost2010PropOp39
 70
     1
102
RTVSPost2010Prop40
 90
        0
102
RTVSPost2010PropOp40
 70
     1
102
RTVSPost2010Prop41ColorIndex
 90
       18
102
RTVSPost2010Prop41ColorRGB
 90
        0
102
RTVSPost2010PropOp41
 70
     1
102
RTVSPost2010Prop42
 90
       50
102
RTVSPost2010PropOp42
 70
     1
102
RTVSPost2010Prop43
 90
        3
102
RTVSPost2010PropOp43
 70
     1
102
RTVSPost2010Prop44ColorIndex
 90
        5
102
RTVSPost2010Prop44ColorRGB
 90
      255
102
RTVSPost2010PropOp44
 70
     1
102
RTVSPost2010Prop45
280
     0
102
RTVSPost2010PropOp45
 70
     1
102
RTVSPost2010Prop46
 90
       50
102
RTVSPost2010PropOp46
 70
     1
102
RTVSPost2010Prop47
 90
       50
102
RTVSPost2010PropOp47
 70
     1
102
RTVSPost2010Prop48
 90
       50
102
RTVSPost2010PropOp48
 70
     1
102
RTVSPost2010Prop49
280
     0
102
RTVSPost2010PropOp49
 70
     1
102
RTVSPost2010Prop50
 90
       50
102
RTVSPost2010PropOp50
 70
     1
102
RTVSPost2010Prop51ColorIndex
 90
      256
102
RTVSPost2010Prop51ColorRGB
 90
-16777216
102
RTVSPost2010PropOp51
 70
     0
102
RTVSPost2010Prop52
140
1.0
102
RTVSPost2010PropOp52
 70
     0
102
RTVSPost2010Prop53
 90
        2
102
RTVSPost2010PropOp53
 70
     1
102
RTVSPost2010Prop54
  1
strokes_ogs.tif
102
RTVSPost2010PropOp54
 70
     1
102
RTVSPost2010Prop55
280
     0
102
RTVSPost2010PropOp55
 70
     1
102
RTVSPost2010Prop56
140
1.0
102
RTVSPost2010PropOp56
 70
     1
102
RTVSPost2010Prop57
140
1.0
102
RTVSPost2010PropOp57
 70
     1
  0
XRECORD
  5
19E0
102
{ACAD_REACTORS
330
19DF
102
}
330
19DF
100
AcDbXrecord
280
     1
102
RTVSPost2010Prop28
280
     0
102
RTVSPost2010PropOp28
 70
     1
102
RTVSPost2010Prop29
280
     1
102
RTVSPost2010PropOp29
 70
     1
102
RTVSPost2010Prop30
280
     1
102
RTVSPost2010PropOp30
 70
     1
102
RTVSPost2010Prop31
280
     0
102
RTVSPost2010PropOp31
 70
     1
102
RTVSPost2010Prop32
280
     0
102
RTVSPost2010PropOp32
 70
     1
102
RTVSPost2010Prop33
280
     0
102
RTVSPost2010PropOp33
 70
     1
102
RTVSPost2010Prop34
280
     0
102
RTVSPost2010PropOp34
 70
     1
102
RTVSPost2010Prop35
280
     0
102
RTVSPost2010PropOp35
 70
     1
102
RTVSPost2010Prop36
280
     0
102
RTVSPost2010PropOp36
 70
     1
102
RTVSPost2010Prop37
 90
       50
102
RTVSPost2010PropOp37
 70
     1
102
RTVSPost2010Prop38
140
0.0
102
RTVSPost2010PropOp38
 70
     1
102
RTVSPost2010Prop39
140
1.0
102
RTVSPost2010PropOp39
 70
     1
102
RTVSPost2010Prop40
 90
        0
102
RTVSPost2010PropOp40
 70
     1
102
RTVSPost2010Prop41ColorIndex
 90
       18
102
RTVSPost2010Prop41ColorRGB
 90
        0
102
RTVSPost2010PropOp41
 70
     1
102
RTVSPost2010Prop42
 90
       50
102
RTVSPost2010PropOp42
 70
     1
102
RTVSPost2010Prop43
 90
        3
102
RTVSPost2010PropOp43
 70
     1
102
RTVSPost2010Prop44ColorIndex
 90
        5
102
RTVSPost2010Prop44ColorRGB
 90
      255
102
RTVSPost2010PropOp44
 70
     1
102
RTVSPost2010Prop45
280
     0
102
RTVSPost2010PropOp45
 70
     1
102
RTVSPost2010Prop46
 90
       50
102
RTVSPost2010PropOp46
 70
     1
102
RTVSPost2010Prop47
 90
       50
102
RTVSPost2010PropOp47
 70
     1
102
RTVSPost2010Prop48
 90
       50
102
RTVSPost2010PropOp48
 70
     1
102
RTVSPost2010Prop49
280
     0
102
RTVSPost2010PropOp49
 70
     1
102
RTVSPost2010Prop50
 90
       50
102
RTVSPost2010PropOp50
 70
     1
102
RTVSPost2010Prop51ColorIndex
 90
      256
102
RTVSPost2010Prop51ColorRGB
 90
-16777216
102
RTVSPost2010PropOp51
 70
     0
102
RTVSPost2010Prop52
140
1.0
102
RTVSPost2010PropOp52
 70
     0
102
RTVSPost2010Prop53
 90
        2
102
RTVSPost2010PropOp53
 70
     1
102
RTVSPost2010Prop54
  1
strokes_ogs.tif
102
RTVSPost2010PropOp54
 70
     1
102
RTVSPost2010Prop55
280
     0
102
RTVSPost2010PropOp55
 70
     1
102
RTVSPost2010Prop56
140
1.0
102
RTVSPost2010PropOp56
 70
     1
102
RTVSPost2010Prop57
140
1.0
102
RTVSPost2010PropOp57
 70
     1
  0
XRECORD
  5
19E2
102
{ACAD_REACTORS
330
19E1
102
}
330
19E1
100
AcDbXrecord
280
     1
102
RTVSPost2010Prop28
280
     0
102
RTVSPost2010PropOp28
 70
     1
102
RTVSPost2010Prop29
280
     1
102
RTVSPost2010PropOp29
 70
     1
102
RTVSPost2010Prop30
280
     1
102
RTVSPost2010PropOp30
 70
     1
102
RTVSPost2010Prop31
280
     0
102
RTVSPost2010PropOp31
 70
     1
102
RTVSPost2010Prop32
280
     0
102
RTVSPost2010PropOp32
 70
     1
102
RTVSPost2010Prop33
280
     0
102
RTVSPost2010PropOp33
 70
     1
102
RTVSPost2010Prop34
280
     0
102
RTVSPost2010PropOp34
 70
     1
102
RTVSPost2010Prop35
280
     0
102
RTVSPost2010PropOp35
 70
     1
102
RTVSPost2010Prop36
280
     0
102
RTVSPost2010PropOp36
 70
     1
102
RTVSPost2010Prop37
 90
       50
102
RTVSPost2010PropOp37
 70
     1
102
RTVSPost2010Prop38
140
0.0
102
RTVSPost2010PropOp38
 70
     1
102
RTVSPost2010Prop39
140
1.0
102
RTVSPost2010PropOp39
 70
     1
102
RTVSPost2010Prop40
 90
        0
102
RTVSPost2010PropOp40
 70
     1
102
RTVSPost2010Prop41ColorIndex
 90
       18
102
RTVSPost2010Prop41ColorRGB
 90
        0
102
RTVSPost2010PropOp41
 70
     1
102
RTVSPost2010Prop42
 90
       50
102
RTVSPost2010PropOp42
 70
     1
102
RTVSPost2010Prop43
 90
        3
102
RTVSPost2010PropOp43
 70
     1
102
RTVSPost2010Prop44ColorIndex
 90
        5
102
RTVSPost2010Prop44ColorRGB
 90
      255
102
RTVSPost2010PropOp44
 70
     1
102
RTVSPost2010Prop45
280
     0
102
RTVSPost2010PropOp45
 70
     1
102
RTVSPost2010Prop46
 90
       50
102
RTVSPost2010PropOp46
 70
     1
102
RTVSPost2010Prop47
 90
       50
102
RTVSPost2010PropOp47
 70
     1
102
RTVSPost2010Prop48
 90
       50
102
RTVSPost2010PropOp48
 70
     1
102
RTVSPost2010Prop49
280
     0
102
RTVSPost2010PropOp49
 70
     1
102
RTVSPost2010Prop50
 90
       50
102
RTVSPost2010PropOp50
 70
     1
102
RTVSPost2010Prop51ColorIndex
 90
      256
102
RTVSPost2010Prop51ColorRGB
 90
-16777216
102
RTVSPost2010PropOp51
 70
     0
102
RTVSPost2010Prop52
140
1.0
102
RTVSPost2010PropOp52
 70
     0
102
RTVSPost2010Prop53
 90
        2
102
RTVSPost2010PropOp53
 70
     1
102
RTVSPost2010Prop54
  1
strokes_ogs.tif
102
RTVSPost2010PropOp54
 70
     1
102
RTVSPost2010Prop55
280
     0
102
RTVSPost2010PropOp55
 70
     1
102
RTVSPost2010Prop56
140
1.0
102
RTVSPost2010PropOp56
 70
     1
102
RTVSPost2010Prop57
140
1.0
102
RTVSPost2010PropOp57
 70
     1
  0
XRECORD
  5
19E8
102
{ACAD_REACTORS
330
19E7
102
}
330
19E7
100
AcDbXrecord
280
     1
102
RTVSPost2010Prop28
280
     0
102
RTVSPost2010PropOp28
 70
     1
102
RTVSPost2010Prop29
280
     1
102
RTVSPost2010PropOp29
 70
     1
102
RTVSPost2010Prop30
280
     1
102
RTVSPost2010PropOp30
 70
     1
102
RTVSPost2010Prop31
280
     0
102
RTVSPost2010PropOp31
 70
     1
102
RTVSPost2010Prop32
280
     0
102
RTVSPost2010PropOp32
 70
     1
102
RTVSPost2010Prop33
280
     0
102
RTVSPost2010PropOp33
 70
     1
102
RTVSPost2010Prop34
280
     0
102
RTVSPost2010PropOp34
 70
     1
102
RTVSPost2010Prop35
280
     0
102
RTVSPost2010PropOp35
 70
     1
102
RTVSPost2010Prop36
280
     0
102
RTVSPost2010PropOp36
 70
     1
102
RTVSPost2010Prop37
 90
       50
102
RTVSPost2010PropOp37
 70
     1
102
RTVSPost2010Prop38
140
0.0
102
RTVSPost2010PropOp38
 70
     1
102
RTVSPost2010Prop39
140
1.0
102
RTVSPost2010PropOp39
 70
     1
102
RTVSPost2010Prop40
 90
        0
102
RTVSPost2010PropOp40
 70
     1
102
RTVSPost2010Prop41ColorIndex
 90
       18
102
RTVSPost2010Prop41ColorRGB
 90
        0
102
RTVSPost2010PropOp41
 70
     1
102
RTVSPost2010Prop42
 90
       50
102
RTVSPost2010PropOp42
 70
     1
102
RTVSPost2010Prop43
 90
        3
102
RTVSPost2010PropOp43
 70
     1
102
RTVSPost2010Prop44ColorIndex
 90
        5
102
RTVSPost2010Prop44ColorRGB
 90
      255
102
RTVSPost2010PropOp44
 70
     1
102
RTVSPost2010Prop45
280
     0
102
RTVSPost2010PropOp45
 70
     1
102
RTVSPost2010Prop46
 90
       50
102
RTVSPost2010PropOp46
 70
     1
102
RTVSPost2010Prop47
 90
       50
102
RTVSPost2010PropOp47
 70
     1
102
RTVSPost2010Prop48
 90
       50
102
RTVSPost2010PropOp48
 70
     1
102
RTVSPost2010Prop49
280
     0
102
RTVSPost2010PropOp49
 70
     1
102
RTVSPost2010Prop50
 90
       50
102
RTVSPost2010PropOp50
 70
     1
102
RTVSPost2010Prop51ColorIndex
 90
      256
102
RTVSPost2010Prop51ColorRGB
 90
-16777216
102
RTVSPost2010PropOp51
 70
     0
102
RTVSPost2010Prop52
140
1.0
102
RTVSPost2010PropOp52
 70
     0
102
RTVSPost2010Prop53
 90
        2
102
RTVSPost2010PropOp53
 70
     1
102
RTVSPost2010Prop54
  1
strokes_ogs.tif
102
RTVSPost2010PropOp54
 70
     1
102
RTVSPost2010Prop55
280
     0
102
RTVSPost2010PropOp55
 70
     1
102
RTVSPost2010Prop56
140
1.0
102
RTVSPost2010PropOp56
 70
     1
102
RTVSPost2010Prop57
140
1.0
102
RTVSPost2010PropOp57
 70
     1
  0
XRECORD
  5
19FC
102
{ACAD_REACTORS
330
19FB
102
}
330
19FB
100
AcDbXrecord
280
     1
102
RTVSPost2010Prop28
280
     0
102
RTVSPost2010PropOp28
 70
     0
102
RTVSPost2010Prop29
280
     1
102
RTVSPost2010PropOp29
 70
     0
102
RTVSPost2010Prop30
280
     1
102
RTVSPost2010PropOp30
 70
     0
102
RTVSPost2010Prop31
280
     0
102
RTVSPost2010PropOp31
 70
     0
102
RTVSPost2010Prop32
280
     0
102
RTVSPost2010PropOp32
 70
     0
102
RTVSPost2010Prop33
280
     0
102
RTVSPost2010PropOp33
 70
     0
102
RTVSPost2010Prop34
280
     0
102
RTVSPost2010PropOp34
 70
     0
102
RTVSPost2010Prop35
280
     0
102
RTVSPost2010PropOp35
 70
     0
102
RTVSPost2010Prop36
280
     0
102
RTVSPost2010PropOp36
 70
     0
102
RTVSPost2010Prop37
 90
       50
102
RTVSPost2010PropOp37
 70
     0
102
RTVSPost2010Prop38
140
0.0
102
RTVSPost2010PropOp38
 70
     0
102
RTVSPost2010Prop39
140
1.0
102
RTVSPost2010PropOp39
 70
     0
102
RTVSPost2010Prop40
 90
        0
102
RTVSPost2010PropOp40
 70
     0
102
RTVSPost2010Prop41ColorIndex
 90
       18
102
RTVSPost2010Prop41ColorRGB
 90
        0
102
RTVSPost2010PropOp41
 70
     0
102
RTVSPost2010Prop42
 90
       50
102
RTVSPost2010PropOp42
 70
     0
102
RTVSPost2010Prop43
 90
        3
102
RTVSPost2010PropOp43
 70
     0
102
RTVSPost2010Prop44ColorIndex
 90
        5
102
RTVSPost2010Prop44ColorRGB
 90
      255
102
RTVSPost2010PropOp44
 70
     0
102
RTVSPost2010Prop45
280
     0
102
RTVSPost2010PropOp45
 70
     0
102
RTVSPost2010Prop46
 90
       50
102
RTVSPost2010PropOp46
 70
     0
102
RTVSPost2010Prop47
 90
       50
102
RTVSPost2010PropOp47
 70
     0
102
RTVSPost2010Prop48
 90
       50
102
RTVSPost2010PropOp48
 70
     0
102
RTVSPost2010Prop49
280
     0
102
RTVSPost2010PropOp49
 70
     0
102
RTVSPost2010Prop50
 90
       50
102
RTVSPost2010PropOp50
 70
     0
102
RTVSPost2010Prop51ColorIndex
 90
      256
102
RTVSPost2010Prop51ColorRGB
 90
-16777216
102
RTVSPost2010PropOp51
 70
     0
102
RTVSPost2010Prop52
140
1.0
102
RTVSPost2010PropOp52
 70
     0
102
RTVSPost2010Prop53
 90
        2
102
RTVSPost2010PropOp53
 70
     0
102
RTVSPost2010Prop54
  1
strokes_ogs.tif
102
RTVSPost2010PropOp54
 70
     0
102
RTVSPost2010Prop55
280
     0
102
RTVSPost2010PropOp55
 70
     0
102
RTVSPost2010Prop56
140
1.0
102
RTVSPost2010PropOp56
 70
     0
102
RTVSPost2010Prop57
140
1.0
102
RTVSPost2010PropOp57
 70
     0
  0
XRECORD
  5
19F6
102
{ACAD_REACTORS
330
19F5
102
}
330
19F5
100
AcDbXrecord
280
     1
102
RTVSPost2010Prop28
280
     0
102
RTVSPost2010PropOp28
 70
     1
102
RTVSPost2010Prop29
280
     1
102
RTVSPost2010PropOp29
 70
     1
102
RTVSPost2010Prop30
280
     1
102
RTVSPost2010PropOp30
 70
     1
102
RTVSPost2010Prop31
280
     0
102
RTVSPost2010PropOp31
 70
     1
102
RTVSPost2010Prop32
280
     0
102
RTVSPost2010PropOp32
 70
     1
102
RTVSPost2010Prop33
280
     0
102
RTVSPost2010PropOp33
 70
     1
102
RTVSPost2010Prop34
280
     0
102
RTVSPost2010PropOp34
 70
     1
102
RTVSPost2010Prop35
280
     0
102
RTVSPost2010PropOp35
 70
     1
102
RTVSPost2010Prop36
280
     0
102
RTVSPost2010PropOp36
 70
     1
102
RTVSPost2010Prop37
 90
       50
102
RTVSPost2010PropOp37
 70
     1
102
RTVSPost2010Prop38
140
0.0
102
RTVSPost2010PropOp38
 70
     1
102
RTVSPost2010Prop39
140
1.0
102
RTVSPost2010PropOp39
 70
     1
102
RTVSPost2010Prop40
 90
        0
102
RTVSPost2010PropOp40
 70
     1
102
RTVSPost2010Prop41ColorIndex
 90
       18
102
RTVSPost2010Prop41ColorRGB
 90
        0
102
RTVSPost2010PropOp41
 70
     1
102
RTVSPost2010Prop42
 90
       50
102
RTVSPost2010PropOp42
 70
     1
102
RTVSPost2010Prop43
 90
        3
102
RTVSPost2010PropOp43
 70
     1
102
RTVSPost2010Prop44ColorIndex
 90
        5
102
RTVSPost2010Prop44ColorRGB
 90
      255
102
RTVSPost2010PropOp44
 70
     1
102
RTVSPost2010Prop45
280
     0
102
RTVSPost2010PropOp45
 70
     1
102
RTVSPost2010Prop46
 90
       50
102
RTVSPost2010PropOp46
 70
     1
102
RTVSPost2010Prop47
 90
       50
102
RTVSPost2010PropOp47
 70
     1
102
RTVSPost2010Prop48
 90
       50
102
RTVSPost2010PropOp48
 70
     1
102
RTVSPost2010Prop49
280
     0
102
RTVSPost2010PropOp49
 70
     1
102
RTVSPost2010Prop50
 90
       50
102
RTVSPost2010PropOp50
 70
     1
102
RTVSPost2010Prop51ColorIndex
 90
      256
102
RTVSPost2010Prop51ColorRGB
 90
-16777216
102
RTVSPost2010PropOp51
 70
     0
102
RTVSPost2010Prop52
140
1.0
102
RTVSPost2010PropOp52
 70
     0
102
RTVSPost2010Prop53
 90
        2
102
RTVSPost2010PropOp53
 70
     1
102
RTVSPost2010Prop54
  1
strokes_ogs.tif
102
RTVSPost2010PropOp54
 70
     1
102
RTVSPost2010Prop55
280
     0
102
RTVSPost2010PropOp55
 70
     1
102
RTVSPost2010Prop56
140
1.0
102
RTVSPost2010PropOp56
 70
     1
102
RTVSPost2010Prop57
140
1.0
102
RTVSPost2010PropOp57
 70
     1
  0
XRECORD
  5
1A0C
102
{ACAD_REACTORS
330
1A0B
102
}
330
1A0B
100
AcDbXrecord
280
     1
102
RTVSPost2010Prop28
280
     0
102
RTVSPost2010PropOp28
 70
     1
102
RTVSPost2010Prop29
280
     1
102
RTVSPost2010PropOp29
 70
     1
102
RTVSPost2010Prop30
280
     1
102
RTVSPost2010PropOp30
 70
     1
102
RTVSPost2010Prop31
280
     0
102
RTVSPost2010PropOp31
 70
     1
102
RTVSPost2010Prop32
280
     0
102
RTVSPost2010PropOp32
 70
     1
102
RTVSPost2010Prop33
280
     0
102
RTVSPost2010PropOp33
 70
     1
102
RTVSPost2010Prop34
280
     0
102
RTVSPost2010PropOp34
 70
     1
102
RTVSPost2010Prop35
280
     0
102
RTVSPost2010PropOp35
 70
     1
102
RTVSPost2010Prop36
280
     0
102
RTVSPost2010PropOp36
 70
     1
102
RTVSPost2010Prop37
 90
       50
102
RTVSPost2010PropOp37
 70
     1
102
RTVSPost2010Prop38
140
0.0
102
RTVSPost2010PropOp38
 70
     1
102
RTVSPost2010Prop39
140
1.0
102
RTVSPost2010PropOp39
 70
     1
102
RTVSPost2010Prop40
 90
        0
102
RTVSPost2010PropOp40
 70
     1
102
RTVSPost2010Prop41ColorIndex
 90
       18
102
RTVSPost2010Prop41ColorRGB
 90
        0
102
RTVSPost2010PropOp41
 70
     1
102
RTVSPost2010Prop42
 90
       50
102
RTVSPost2010PropOp42
 70
     1
102
RTVSPost2010Prop43
 90
        3
102
RTVSPost2010PropOp43
 70
     1
102
RTVSPost2010Prop44ColorIndex
 90
        5
102
RTVSPost2010Prop44ColorRGB
 90
      255
102
RTVSPost2010PropOp44
 70
     1
102
RTVSPost2010Prop45
280
     0
102
RTVSPost2010PropOp45
 70
     1
102
RTVSPost2010Prop46
 90
       50
102
RTVSPost2010PropOp46
 70
     1
102
RTVSPost2010Prop47
 90
       50
102
RTVSPost2010PropOp47
 70
     1
102
RTVSPost2010Prop48
 90
       50
102
RTVSPost2010PropOp48
 70
     1
102
RTVSPost2010Prop49
280
     0
102
RTVSPost2010PropOp49
 70
     1
102
RTVSPost2010Prop50
 90
       50
102
RTVSPost2010PropOp50
 70
     1
102
RTVSPost2010Prop51ColorIndex
 90
      256
102
RTVSPost2010Prop51ColorRGB
 90
-16777216
102
RTVSPost2010PropOp51
 70
     0
102
RTVSPost2010Prop52
140
1.0
102
RTVSPost2010PropOp52
 70
     0
102
RTVSPost2010Prop53
 90
        2
102
RTVSPost2010PropOp53
 70
     1
102
RTVSPost2010Prop54
  1
strokes_ogs.tif
102
RTVSPost2010PropOp54
 70
     1
102
RTVSPost2010Prop55
280
     0
102
RTVSPost2010PropOp55
 70
     1
102
RTVSPost2010Prop56
140
1.0
102
RTVSPost2010PropOp56
 70
     1
102
RTVSPost2010Prop57
140
1.0
102
RTVSPost2010PropOp57
 70
     1
  0
XRECORD
  5
19FE
102
{ACAD_REACTORS
330
19FD
102
}
330
19FD
100
AcDbXrecord
280
     1
102
RTVSPost2010Prop28
280
     0
102
RTVSPost2010PropOp28
 70
     0
102
RTVSPost2010Prop29
280
     1
102
RTVSPost2010PropOp29
 70
     0
102
RTVSPost2010Prop30
280
     1
102
RTVSPost2010PropOp30
 70
     0
102
RTVSPost2010Prop31
280
     0
102
RTVSPost2010PropOp31
 70
     0
102
RTVSPost2010Prop32
280
     0
102
RTVSPost2010PropOp32
 70
     0
102
RTVSPost2010Prop33
280
     0
102
RTVSPost2010PropOp33
 70
     0
102
RTVSPost2010Prop34
280
     0
102
RTVSPost2010PropOp34
 70
     0
102
RTVSPost2010Prop35
280
     0
102
RTVSPost2010PropOp35
 70
     0
102
RTVSPost2010Prop36
280
     0
102
RTVSPost2010PropOp36
 70
     0
102
RTVSPost2010Prop37
 90
       50
102
RTVSPost2010PropOp37
 70
     0
102
RTVSPost2010Prop38
140
0.0
102
RTVSPost2010PropOp38
 70
     0
102
RTVSPost2010Prop39
140
1.0
102
RTVSPost2010PropOp39
 70
     0
102
RTVSPost2010Prop40
 90
        0
102
RTVSPost2010PropOp40
 70
     0
102
RTVSPost2010Prop41ColorIndex
 90
       18
102
RTVSPost2010Prop41ColorRGB
 90
        0
102
RTVSPost2010PropOp41
 70
     0
102
RTVSPost2010Prop42
 90
       50
102
RTVSPost2010PropOp42
 70
     0
102
RTVSPost2010Prop43
 90
        3
102
RTVSPost2010PropOp43
 70
     0
102
RTVSPost2010Prop44ColorIndex
 90
        5
102
RTVSPost2010Prop44ColorRGB
 90
      255
102
RTVSPost2010PropOp44
 70
     0
102
RTVSPost2010Prop45
280
     0
102
RTVSPost2010PropOp45
 70
     0
102
RTVSPost2010Prop46
 90
       50
102
RTVSPost2010PropOp46
 70
     0
102
RTVSPost2010Prop47
 90
       50
102
RTVSPost2010PropOp47
 70
     0
102
RTVSPost2010Prop48
 90
       50
102
RTVSPost2010PropOp48
 70
     0
102
RTVSPost2010Prop49
280
     0
102
RTVSPost2010PropOp49
 70
     0
102
RTVSPost2010Prop50
 90
       50
102
RTVSPost2010PropOp50
 70
     0
102
RTVSPost2010Prop51ColorIndex
 90
      256
102
RTVSPost2010Prop51ColorRGB
 90
-16777216
102
RTVSPost2010PropOp51
 70
     0
102
RTVSPost2010Prop52
140
1.0
102
RTVSPost2010PropOp52
 70
     0
102
RTVSPost2010Prop53
 90
        2
102
RTVSPost2010PropOp53
 70
     0
102
RTVSPost2010Prop54
  1
strokes_ogs.tif
102
RTVSPost2010PropOp54
 70
     0
102
RTVSPost2010Prop55
280
     0
102
RTVSPost2010PropOp55
 70
     0
102
RTVSPost2010Prop56
140
1.0
102
RTVSPost2010PropOp56
 70
     0
102
RTVSPost2010Prop57
140
1.0
102
RTVSPost2010PropOp57
 70
     0
  0
XRECORD
  5
19EC
102
{ACAD_REACTORS
330
19EB
102
}
330
19EB
100
AcDbXrecord
280
     1
102
RTVSPost2010Prop28
280
     0
102
RTVSPost2010PropOp28
 70
     1
102
RTVSPost2010Prop29
280
     1
102
RTVSPost2010PropOp29
 70
     1
102
RTVSPost2010Prop30
280
     1
102
RTVSPost2010PropOp30
 70
     1
102
RTVSPost2010Prop31
280
     0
102
RTVSPost2010PropOp31
 70
     1
102
RTVSPost2010Prop32
280
     0
102
RTVSPost2010PropOp32
 70
     1
102
RTVSPost2010Prop33
280
     0
102
RTVSPost2010PropOp33
 70
     1
102
RTVSPost2010Prop34
280
     0
102
RTVSPost2010PropOp34
 70
     1
102
RTVSPost2010Prop35
280
     0
102
RTVSPost2010PropOp35
 70
     1
102
RTVSPost2010Prop36
280
     0
102
RTVSPost2010PropOp36
 70
     1
102
RTVSPost2010Prop37
 90
       50
102
RTVSPost2010PropOp37
 70
     1
102
RTVSPost2010Prop38
140
0.0
102
RTVSPost2010PropOp38
 70
     1
102
RTVSPost2010Prop39
140
1.0
102
RTVSPost2010PropOp39
 70
     1
102
RTVSPost2010Prop40
 90
        0
102
RTVSPost2010PropOp40
 70
     1
102
RTVSPost2010Prop41ColorIndex
 90
       18
102
RTVSPost2010Prop41ColorRGB
 90
        0
102
RTVSPost2010PropOp41
 70
     1
102
RTVSPost2010Prop42
 90
       50
102
RTVSPost2010PropOp42
 70
     1
102
RTVSPost2010Prop43
 90
        3
102
RTVSPost2010PropOp43
 70
     1
102
RTVSPost2010Prop44ColorIndex
 90
        5
102
RTVSPost2010Prop44ColorRGB
 90
      255
102
RTVSPost2010PropOp44
 70
     1
102
RTVSPost2010Prop45
280
     0
102
RTVSPost2010PropOp45
 70
     1
102
RTVSPost2010Prop46
 90
       50
102
RTVSPost2010PropOp46
 70
     1
102
RTVSPost2010Prop47
 90
       50
102
RTVSPost2010PropOp47
 70
     1
102
RTVSPost2010Prop48
 90
       50
102
RTVSPost2010PropOp48
 70
     1
102
RTVSPost2010Prop49
280
     0
102
RTVSPost2010PropOp49
 70
     1
102
RTVSPost2010Prop50
 90
       50
102
RTVSPost2010PropOp50
 70
     1
102
RTVSPost2010Prop51ColorIndex
 90
      256
102
RTVSPost2010Prop51ColorRGB
 90
-16777216
102
RTVSPost2010PropOp51
 70
     0
102
RTVSPost2010Prop52
140
1.0
102
RTVSPost2010PropOp52
 70
     0
102
RTVSPost2010Prop53
 90
        2
102
RTVSPost2010PropOp53
 70
     1
102
RTVSPost2010Prop54
  1
strokes_ogs.tif
102
RTVSPost2010PropOp54
 70
     1
102
RTVSPost2010Prop55
280
     0
102
RTVSPost2010PropOp55
 70
     1
102
RTVSPost2010Prop56
140
1.0
102
RTVSPost2010PropOp56
 70
     1
102
RTVSPost2010Prop57
140
1.0
102
RTVSPost2010PropOp57
 70
     1
  0
XRECORD
  5
1A0A
102
{ACAD_REACTORS
330
1A09
102
}
330
1A09
100
AcDbXrecord
280
     1
102
RTVSPost2010Prop28
280
     0
102
RTVSPost2010PropOp28
 70
     1
102
RTVSPost2010Prop29
280
     1
102
RTVSPost2010PropOp29
 70
     1
102
RTVSPost2010Prop30
280
     1
102
RTVSPost2010PropOp30
 70
     1
102
RTVSPost2010Prop31
280
     0
102
RTVSPost2010PropOp31
 70
     1
102
RTVSPost2010Prop32
280
     0
102
RTVSPost2010PropOp32
 70
     1
102
RTVSPost2010Prop33
280
     0
102
RTVSPost2010PropOp33
 70
     1
102
RTVSPost2010Prop34
280
     0
102
RTVSPost2010PropOp34
 70
     1
102
RTVSPost2010Prop35
280
     0
102
RTVSPost2010PropOp35
 70
     1
102
RTVSPost2010Prop36
280
     0
102
RTVSPost2010PropOp36
 70
     1
102
RTVSPost2010Prop37
 90
       50
102
RTVSPost2010PropOp37
 70
     1
102
RTVSPost2010Prop38
140
0.0
102
RTVSPost2010PropOp38
 70
     1
102
RTVSPost2010Prop39
140
1.0
102
RTVSPost2010PropOp39
 70
     1
102
RTVSPost2010Prop40
 90
        0
102
RTVSPost2010PropOp40
 70
     1
102
RTVSPost2010Prop41ColorIndex
 90
       18
102
RTVSPost2010Prop41ColorRGB
 90
        0
102
RTVSPost2010PropOp41
 70
     1
102
RTVSPost2010Prop42
 90
       50
102
RTVSPost2010PropOp42
 70
     1
102
RTVSPost2010Prop43
 90
        3
102
RTVSPost2010PropOp43
 70
     1
102
RTVSPost2010Prop44ColorIndex
 90
        5
102
RTVSPost2010Prop44ColorRGB
 90
      255
102
RTVSPost2010PropOp44
 70
     1
102
RTVSPost2010Prop45
280
     0
102
RTVSPost2010PropOp45
 70
     1
102
RTVSPost2010Prop46
 90
       50
102
RTVSPost2010PropOp46
 70
     1
102
RTVSPost2010Prop47
 90
       50
102
RTVSPost2010PropOp47
 70
     1
102
RTVSPost2010Prop48
 90
       50
102
RTVSPost2010PropOp48
 70
     1
102
RTVSPost2010Prop49
280
     0
102
RTVSPost2010PropOp49
 70
     1
102
RTVSPost2010Prop50
 90
       50
102
RTVSPost2010PropOp50
 70
     1
102
RTVSPost2010Prop51ColorIndex
 90
      256
102
RTVSPost2010Prop51ColorRGB
 90
-16777216
102
RTVSPost2010PropOp51
 70
     0
102
RTVSPost2010Prop52
140
1.0
102
RTVSPost2010PropOp52
 70
     0
102
RTVSPost2010Prop53
 90
        2
102
RTVSPost2010PropOp53
 70
     1
102
RTVSPost2010Prop54
  1
strokes_ogs.tif
102
RTVSPost2010PropOp54
 70
     1
102
RTVSPost2010Prop55
280
     0
102
RTVSPost2010PropOp55
 70
     1
102
RTVSPost2010Prop56
140
1.0
102
RTVSPost2010PropOp56
 70
     1
102
RTVSPost2010Prop57
140
1.0
102
RTVSPost2010PropOp57
 70
     1
  0
XRECORD
  5
1A08
102
{ACAD_REACTORS
330
1A07
102
}
330
1A07
100
AcDbXrecord
280
     1
102
RTVSPost2010Prop28
280
     0
102
RTVSPost2010PropOp28
 70
     1
102
RTVSPost2010Prop29
280
     1
102
RTVSPost2010PropOp29
 70
     1
102
RTVSPost2010Prop30
280
     1
102
RTVSPost2010PropOp30
 70
     1
102
RTVSPost2010Prop31
280
     0
102
RTVSPost2010PropOp31
 70
     1
102
RTVSPost2010Prop32
280
     0
102
RTVSPost2010PropOp32
 70
     1
102
RTVSPost2010Prop33
280
     0
102
RTVSPost2010PropOp33
 70
     1
102
RTVSPost2010Prop34
280
     0
102
RTVSPost2010PropOp34
 70
     1
102
RTVSPost2010Prop35
280
     0
102
RTVSPost2010PropOp35
 70
     1
102
RTVSPost2010Prop36
280
     0
102
RTVSPost2010PropOp36
 70
     1
102
RTVSPost2010Prop37
 90
       50
102
RTVSPost2010PropOp37
 70
     1
102
RTVSPost2010Prop38
140
0.0
102
RTVSPost2010PropOp38
 70
     1
102
RTVSPost2010Prop39
140
1.0
102
RTVSPost2010PropOp39
 70
     1
102
RTVSPost2010Prop40
 90
        0
102
RTVSPost2010PropOp40
 70
     1
102
RTVSPost2010Prop41ColorIndex
 90
       18
102
RTVSPost2010Prop41ColorRGB
 90
        0
102
RTVSPost2010PropOp41
 70
     1
102
RTVSPost2010Prop42
 90
       50
102
RTVSPost2010PropOp42
 70
     1
102
RTVSPost2010Prop43
 90
        3
102
RTVSPost2010PropOp43
 70
     1
102
RTVSPost2010Prop44ColorIndex
 90
        5
102
RTVSPost2010Prop44ColorRGB
 90
      255
102
RTVSPost2010PropOp44
 70
     1
102
RTVSPost2010Prop45
280
     0
102
RTVSPost2010PropOp45
 70
     1
102
RTVSPost2010Prop46
 90
       50
102
RTVSPost2010PropOp46
 70
     1
102
RTVSPost2010Prop47
 90
       50
102
RTVSPost2010PropOp47
 70
     1
102
RTVSPost2010Prop48
 90
       50
102
RTVSPost2010PropOp48
 70
     1
102
RTVSPost2010Prop49
280
     0
102
RTVSPost2010PropOp49
 70
     1
102
RTVSPost2010Prop50
 90
       50
102
RTVSPost2010PropOp50
 70
     1
102
RTVSPost2010Prop51ColorIndex
 90
      256
102
RTVSPost2010Prop51ColorRGB
 90
-16777216
102
RTVSPost2010PropOp51
 70
     0
102
RTVSPost2010Prop52
140
1.0
102
RTVSPost2010PropOp52
 70
     0
102
RTVSPost2010Prop53
 90
        2
102
RTVSPost2010PropOp53
 70
     1
102
RTVSPost2010Prop54
  1
strokes_ogs.tif
102
RTVSPost2010PropOp54
 70
     1
102
RTVSPost2010Prop55
280
     0
102
RTVSPost2010PropOp55
 70
     1
102
RTVSPost2010Prop56
140
1.0
102
RTVSPost2010PropOp56
 70
     1
102
RTVSPost2010Prop57
140
1.0
102
RTVSPost2010PropOp57
 70
     1
  0
XRECORD
  5
1A02
102
{ACAD_REACTORS
330
1A01
102
}
330
1A01
100
AcDbXrecord
280
     1
102
RTVSPost2010Prop28
280
     0
102
RTVSPost2010PropOp28
 70
     1
102
RTVSPost2010Prop29
280
     1
102
RTVSPost2010PropOp29
 70
     1
102
RTVSPost2010Prop30
280
     1
102
RTVSPost2010PropOp30
 70
     1
102
RTVSPost2010Prop31
280
     0
102
RTVSPost2010PropOp31
 70
     1
102
RTVSPost2010Prop32
280
     0
102
RTVSPost2010PropOp32
 70
     1
102
RTVSPost2010Prop33
280
     0
102
RTVSPost2010PropOp33
 70
     1
102
RTVSPost2010Prop34
280
     0
102
RTVSPost2010PropOp34
 70
     1
102
RTVSPost2010Prop35
280
     0
102
RTVSPost2010PropOp35
 70
     1
102
RTVSPost2010Prop36
280
     0
102
RTVSPost2010PropOp36
 70
     1
102
RTVSPost2010Prop37
 90
       50
102
RTVSPost2010PropOp37
 70
     1
102
RTVSPost2010Prop38
140
0.0
102
RTVSPost2010PropOp38
 70
     1
102
RTVSPost2010Prop39
140
1.0
102
RTVSPost2010PropOp39
 70
     1
102
RTVSPost2010Prop40
 90
        0
102
RTVSPost2010PropOp40
 70
     1
102
RTVSPost2010Prop41ColorIndex
 90
       18
102
RTVSPost2010Prop41ColorRGB
 90
        0
102
RTVSPost2010PropOp41
 70
     1
102
RTVSPost2010Prop42
 90
       50
102
RTVSPost2010PropOp42
 70
     1
102
RTVSPost2010Prop43
 90
        3
102
RTVSPost2010PropOp43
 70
     1
102
RTVSPost2010Prop44ColorIndex
 90
        5
102
RTVSPost2010Prop44ColorRGB
 90
      255
102
RTVSPost2010PropOp44
 70
     1
102
RTVSPost2010Prop45
280
     0
102
RTVSPost2010PropOp45
 70
     1
102
RTVSPost2010Prop46
 90
       50
102
RTVSPost2010PropOp46
 70
     1
102
RTVSPost2010Prop47
 90
       50
102
RTVSPost2010PropOp47
 70
     1
102
RTVSPost2010Prop48
 90
       50
102
RTVSPost2010PropOp48
 70
     1
102
RTVSPost2010Prop49
280
     0
102
RTVSPost2010PropOp49
 70
     1
102
RTVSPost2010Prop50
 90
       50
102
RTVSPost2010PropOp50
 70
     1
102
RTVSPost2010Prop51ColorIndex
 90
      256
102
RTVSPost2010Prop51ColorRGB
 90
-16777216
102
RTVSPost2010PropOp51
 70
     0
102
RTVSPost2010Prop52
140
1.0
102
RTVSPost2010PropOp52
 70
     0
102
RTVSPost2010Prop53
 90
        2
102
RTVSPost2010PropOp53
 70
     1
102
RTVSPost2010Prop54
  1
strokes_ogs.tif
102
RTVSPost2010PropOp54
 70
     1
102
RTVSPost2010Prop55
280
     0
102
RTVSPost2010PropOp55
 70
     1
102
RTVSPost2010Prop56
140
1.0
102
RTVSPost2010PropOp56
 70
     1
102
RTVSPost2010Prop57
140
1.0
102
RTVSPost2010PropOp57
 70
     1
  0
XRECORD
  5
1A04
102
{ACAD_REACTORS
330
1A03
102
}
330
1A03
100
AcDbXrecord
280
     1
102
RTVSPost2010Prop28
280
     0
102
RTVSPost2010PropOp28
 70
     1
102
RTVSPost2010Prop29
280
     1
102
RTVSPost2010PropOp29
 70
     1
102
RTVSPost2010Prop30
280
     1
102
RTVSPost2010PropOp30
 70
     1
102
RTVSPost2010Prop31
280
     0
102
RTVSPost2010PropOp31
 70
     1
102
RTVSPost2010Prop32
280
     0
102
RTVSPost2010PropOp32
 70
     1
102
RTVSPost2010Prop33
280
     0
102
RTVSPost2010PropOp33
 70
     1
102
RTVSPost2010Prop34
280
     0
102
RTVSPost2010PropOp34
 70
     1
102
RTVSPost2010Prop35
280
     0
102
RTVSPost2010PropOp35
 70
     1
102
RTVSPost2010Prop36
280
     0
102
RTVSPost2010PropOp36
 70
     1
102
RTVSPost2010Prop37
 90
       50
102
RTVSPost2010PropOp37
 70
     1
102
RTVSPost2010Prop38
140
0.0
102
RTVSPost2010PropOp38
 70
     1
102
RTVSPost2010Prop39
140
1.0
102
RTVSPost2010PropOp39
 70
     1
102
RTVSPost2010Prop40
 90
        0
102
RTVSPost2010PropOp40
 70
     1
102
RTVSPost2010Prop41ColorIndex
 90
       18
102
RTVSPost2010Prop41ColorRGB
 90
        0
102
RTVSPost2010PropOp41
 70
     1
102
RTVSPost2010Prop42
 90
       50
102
RTVSPost2010PropOp42
 70
     1
102
RTVSPost2010Prop43
 90
        3
102
RTVSPost2010PropOp43
 70
     1
102
RTVSPost2010Prop44ColorIndex
 90
        5
102
RTVSPost2010Prop44ColorRGB
 90
      255
102
RTVSPost2010PropOp44
 70
     1
102
RTVSPost2010Prop45
280
     0
102
RTVSPost2010PropOp45
 70
     1
102
RTVSPost2010Prop46
 90
       50
102
RTVSPost2010PropOp46
 70
     1
102
RTVSPost2010Prop47
 90
       50
102
RTVSPost2010PropOp47
 70
     1
102
RTVSPost2010Prop48
 90
       50
102
RTVSPost2010PropOp48
 70
     1
102
RTVSPost2010Prop49
280
     0
102
RTVSPost2010PropOp49
 70
     1
102
RTVSPost2010Prop50
 90
       50
102
RTVSPost2010PropOp50
 70
     1
102
RTVSPost2010Prop51ColorIndex
 90
      256
102
RTVSPost2010Prop51ColorRGB
 90
-16777216
102
RTVSPost2010PropOp51
 70
     0
102
RTVSPost2010Prop52
140
1.0
102
RTVSPost2010PropOp52
 70
     0
102
RTVSPost2010Prop53
 90
        2
102
RTVSPost2010PropOp53
 70
     1
102
RTVSPost2010Prop54
  1
strokes_ogs.tif
102
RTVSPost2010PropOp54
 70
     1
102
RTVSPost2010Prop55
280
     0
102
RTVSPost2010PropOp55
 70
     1
102
RTVSPost2010Prop56
140
1.0
102
RTVSPost2010PropOp56
 70
     1
102
RTVSPost2010Prop57
140
1.0
102
RTVSPost2010PropOp57
 70
     1
  0
XRECORD
  5
19F4
102
{ACAD_REACTORS
330
19F3
102
}
330
19F3
100
AcDbXrecord
280
     1
102
RTVSPost2010Prop28
280
     0
102
RTVSPost2010PropOp28
 70
     1
102
RTVSPost2010Prop29
280
     1
102
RTVSPost2010PropOp29
 70
     1
102
RTVSPost2010Prop30
280
     1
102
RTVSPost2010PropOp30
 70
     1
102
RTVSPost2010Prop31
280
     0
102
RTVSPost2010PropOp31
 70
     1
102
RTVSPost2010Prop32
280
     0
102
RTVSPost2010PropOp32
 70
     1
102
RTVSPost2010Prop33
280
     0
102
RTVSPost2010PropOp33
 70
     1
102
RTVSPost2010Prop34
280
     0
102
RTVSPost2010PropOp34
 70
     1
102
RTVSPost2010Prop35
280
     0
102
RTVSPost2010PropOp35
 70
     1
102
RTVSPost2010Prop36
280
     0
102
RTVSPost2010PropOp36
 70
     1
102
RTVSPost2010Prop37
 90
       50
102
RTVSPost2010PropOp37
 70
     1
102
RTVSPost2010Prop38
140
0.0
102
RTVSPost2010PropOp38
 70
     1
102
RTVSPost2010Prop39
140
1.0
102
RTVSPost2010PropOp39
 70
     1
102
RTVSPost2010Prop40
 90
        0
102
RTVSPost2010PropOp40
 70
     1
102
RTVSPost2010Prop41ColorIndex
 90
       18
102
RTVSPost2010Prop41ColorRGB
 90
        0
102
RTVSPost2010PropOp41
 70
     1
102
RTVSPost2010Prop42
 90
       50
102
RTVSPost2010PropOp42
 70
     1
102
RTVSPost2010Prop43
 90
        3
102
RTVSPost2010PropOp43
 70
     1
102
RTVSPost2010Prop44ColorIndex
 90
        5
102
RTVSPost2010Prop44ColorRGB
 90
      255
102
RTVSPost2010PropOp44
 70
     1
102
RTVSPost2010Prop45
280
     0
102
RTVSPost2010PropOp45
 70
     1
102
RTVSPost2010Prop46
 90
       50
102
RTVSPost2010PropOp46
 70
     1
102
RTVSPost2010Prop47
 90
       50
102
RTVSPost2010PropOp47
 70
     1
102
RTVSPost2010Prop48
 90
       50
102
RTVSPost2010PropOp48
 70
     1
102
RTVSPost2010Prop49
280
     0
102
RTVSPost2010PropOp49
 70
     1
102
RTVSPost2010Prop50
 90
       50
102
RTVSPost2010PropOp50
 70
     1
102
RTVSPost2010Prop51ColorIndex
 90
      256
102
RTVSPost2010Prop51ColorRGB
 90
-16777216
102
RTVSPost2010PropOp51
 70
     0
102
RTVSPost2010Prop52
140
1.0
102
RTVSPost2010PropOp52
 70
     0
102
RTVSPost2010Prop53
 90
        2
102
RTVSPost2010PropOp53
 70
     1
102
RTVSPost2010Prop54
  1
strokes_ogs.tif
102
RTVSPost2010PropOp54
 70
     1
102
RTVSPost2010Prop55
280
     0
102
RTVSPost2010PropOp55
 70
     1
102
RTVSPost2010Prop56
140
1.0
102
RTVSPost2010PropOp56
 70
     1
102
RTVSPost2010Prop57
140
1.0
102
RTVSPost2010PropOp57
 70
     1
  0
XRECORD
  5
19E6
102
{ACAD_REACTORS
330
19E5
102
}
330
19E5
100
AcDbXrecord
280
     1
102
RTVSPost2010Prop28
280
     0
102
RTVSPost2010PropOp28
 70
     1
102
RTVSPost2010Prop29
280
     1
102
RTVSPost2010PropOp29
 70
     1
102
RTVSPost2010Prop30
280
     1
102
RTVSPost2010PropOp30
 70
     1
102
RTVSPost2010Prop31
280
     0
102
RTVSPost2010PropOp31
 70
     1
102
RTVSPost2010Prop32
280
     0
102
RTVSPost2010PropOp32
 70
     1
102
RTVSPost2010Prop33
280
     0
102
RTVSPost2010PropOp33
 70
     1
102
RTVSPost2010Prop34
280
     0
102
RTVSPost2010PropOp34
 70
     1
102
RTVSPost2010Prop35
280
     0
102
RTVSPost2010PropOp35
 70
     1
102
RTVSPost2010Prop36
280
     0
102
RTVSPost2010PropOp36
 70
     1
102
RTVSPost2010Prop37
 90
       50
102
RTVSPost2010PropOp37
 70
     1
102
RTVSPost2010Prop38
140
0.0
102
RTVSPost2010PropOp38
 70
     1
102
RTVSPost2010Prop39
140
1.0
102
RTVSPost2010PropOp39
 70
     1
102
RTVSPost2010Prop40
 90
        0
102
RTVSPost2010PropOp40
 70
     1
102
RTVSPost2010Prop41ColorIndex
 90
       18
102
RTVSPost2010Prop41ColorRGB
 90
        0
102
RTVSPost2010PropOp41
 70
     1
102
RTVSPost2010Prop42
 90
       50
102
RTVSPost2010PropOp42
 70
     1
102
RTVSPost2010Prop43
 90
        3
102
RTVSPost2010PropOp43
 70
     1
102
RTVSPost2010Prop44ColorIndex
 90
        5
102
RTVSPost2010Prop44ColorRGB
 90
      255
102
RTVSPost2010PropOp44
 70
     1
102
RTVSPost2010Prop45
280
     0
102
RTVSPost2010PropOp45
 70
     1
102
RTVSPost2010Prop46
 90
       50
102
RTVSPost2010PropOp46
 70
     1
102
RTVSPost2010Prop47
 90
       50
102
RTVSPost2010PropOp47
 70
     1
102
RTVSPost2010Prop48
 90
       50
102
RTVSPost2010PropOp48
 70
     1
102
RTVSPost2010Prop49
280
     0
102
RTVSPost2010PropOp49
 70
     1
102
RTVSPost2010Prop50
 90
       50
102
RTVSPost2010PropOp50
 70
     1
102
RTVSPost2010Prop51ColorIndex
 90
      256
102
RTVSPost2010Prop51ColorRGB
 90
-16777216
102
RTVSPost2010PropOp51
 70
     0
102
RTVSPost2010Prop52
140
1.0
102
RTVSPost2010PropOp52
 70
     0
102
RTVSPost2010Prop53
 90
        2
102
RTVSPost2010PropOp53
 70
     1
102
RTVSPost2010Prop54
  1
strokes_ogs.tif
102
RTVSPost2010PropOp54
 70
     1
102
RTVSPost2010Prop55
280
     0
102
RTVSPost2010PropOp55
 70
     1
102
RTVSPost2010Prop56
140
1.0
102
RTVSPost2010PropOp56
 70
     1
102
RTVSPost2010Prop57
140
1.0
102
RTVSPost2010PropOp57
 70
     1
  0
XRECORD
  5
1A06
102
{ACAD_REACTORS
330
1A05
102
}
330
1A05
100
AcDbXrecord
280
     1
102
RTVSPost2010Prop28
280
     0
102
RTVSPost2010PropOp28
 70
     1
102
RTVSPost2010Prop29
280
     1
102
RTVSPost2010PropOp29
 70
     1
102
RTVSPost2010Prop30
280
     1
102
RTVSPost2010PropOp30
 70
     1
102
RTVSPost2010Prop31
280
     0
102
RTVSPost2010PropOp31
 70
     1
102
RTVSPost2010Prop32
280
     0
102
RTVSPost2010PropOp32
 70
     1
102
RTVSPost2010Prop33
280
     0
102
RTVSPost2010PropOp33
 70
     1
102
RTVSPost2010Prop34
280
     0
102
RTVSPost2010PropOp34
 70
     1
102
RTVSPost2010Prop35
280
     0
102
RTVSPost2010PropOp35
 70
     1
102
RTVSPost2010Prop36
280
     0
102
RTVSPost2010PropOp36
 70
     1
102
RTVSPost2010Prop37
 90
       50
102
RTVSPost2010PropOp37
 70
     1
102
RTVSPost2010Prop38
140
0.0
102
RTVSPost2010PropOp38
 70
     1
102
RTVSPost2010Prop39
140
1.0
102
RTVSPost2010PropOp39
 70
     1
102
RTVSPost2010Prop40
 90
        0
102
RTVSPost2010PropOp40
 70
     1
102
RTVSPost2010Prop41ColorIndex
 90
       18
102
RTVSPost2010Prop41ColorRGB
 90
        0
102
RTVSPost2010PropOp41
 70
     1
102
RTVSPost2010Prop42
 90
       50
102
RTVSPost2010PropOp42
 70
     1
102
RTVSPost2010Prop43
 90
        3
102
RTVSPost2010PropOp43
 70
     1
102
RTVSPost2010Prop44ColorIndex
 90
        5
102
RTVSPost2010Prop44ColorRGB
 90
      255
102
RTVSPost2010PropOp44
 70
     1
102
RTVSPost2010Prop45
280
     0
102
RTVSPost2010PropOp45
 70
     1
102
RTVSPost2010Prop46
 90
       50
102
RTVSPost2010PropOp46
 70
     1
102
RTVSPost2010Prop47
 90
       50
102
RTVSPost2010PropOp47
 70
     1
102
RTVSPost2010Prop48
 90
       50
102
RTVSPost2010PropOp48
 70
     1
102
RTVSPost2010Prop49
280
     0
102
RTVSPost2010PropOp49
 70
     1
102
RTVSPost2010Prop50
 90
       50
102
RTVSPost2010PropOp50
 70
     1
102
RTVSPost2010Prop51ColorIndex
 90
      256
102
RTVSPost2010Prop51ColorRGB
 90
-16777216
102
RTVSPost2010PropOp51
 70
     0
102
RTVSPost2010Prop52
140
1.0
102
RTVSPost2010PropOp52
 70
     0
102
RTVSPost2010Prop53
 90
        2
102
RTVSPost2010PropOp53
 70
     1
102
RTVSPost2010Prop54
  1
strokes_ogs.tif
102
RTVSPost2010PropOp54
 70
     1
102
RTVSPost2010Prop55
280
     0
102
RTVSPost2010PropOp55
 70
     1
102
RTVSPost2010Prop56
140
1.0
102
RTVSPost2010PropOp56
 70
     1
102
RTVSPost2010Prop57
140
1.0
102
RTVSPost2010PropOp57
 70
     1
  0
ENDSEC
  0
SECTION
  2
THUMBNAILIMAGE
 90
    24616
310
28000000800000004000000001001800000000000000000000000000000000000000000000000000000000000000000000000000000000000000000000000000000000000000000000000000000000000000000000000000000000000000000000000000FFFFFFFFFFFFFFFFFFFFFFFFFFFFFFFFFFFFFFFFFFFFFFFFFFFFFF
310
FFFFFFFFFFFFFFFFFFFFFFFFFFFFFFFFFFFFFFFFFFFFFFFFFFFFFFFFFFFFFFFFFFFFFFFFFFFFFFFFFFFFFFFFFFFFFFFFFFFFFFFFFFFFFFFFFFFFFFFFFFFFFFFFFFFFFFFFFFFFFFFFFFFFFFFFFFFFFFFFFFFFFFFFFFFFFFFFFFFFFFFFFFFFFFFFFFFFFFFFFFFFFFFFFFFFFFFFFFFFFFFFFFFFFFFFFFFFFFFFFFFFFFFFFFFFFF
310
FFFFFFFFFFFFFFFFFFFFFFFFFFFFFFFFFFFFFFFFFFFFFFFFFFFFFFFFFFFFFFFFFFFFFFFFFFFFFFFFFFFFFFFFFFFFFFFFFFFFFFFFFFFFFFFFFFFFFFFFFFFFFFFFFFFFFFFFFFFFFFFFFFFFFFFFFFFFFFFFFFFFFFFFFFFFFFFFFFFFFFFFFFFFFFFFFFFFFFFFFFFFFFFFFFFFFFFFFFFFFFFFFF0000000000000000000000000000
310
00000000000000000000000000000000000000000000000000000000000000000000000000000000000000000000000000000000000000000000000000000000000000000000000000000000000000000000000000000000000000000000000000000000000000FFFFFF000000000000000000000000000000000000000000
310
00000000000000000000000000000000000000000000000000000000000000000000000000000000000000000000000000000000000000000000000000000000000000000000000000000000000000000000000000000000000000000000000000000000000000000000000000000000000000000000000000000000000000
310
0000000000000000000000000000000000000000000000000000000000000000000000000000000000000000000000000000000000000000000000000000000000000000000000000000000000000000000000000000000000000000000000000000000000000000000000000000000000FFFFFF0000000000000000000000
310
00000000000000000000000000000000000000000000000000000000000000000000000000000000000000000000000000000000000000000000000000000000000000000000000000000000000000000000000000000000000000000000000000000000000000000000FFFFFF00000000BFFF00BFFF00BFFF00BFFF00BFFF
310
00BFFF00BFFF00BFFF00BFFF00BFFF00BFFF00BFFF00BFFF00BFFF00BFFF00BFFF00BFFF00BFFF00BFFF00BFFF00BFFF00BFFF00BFFF00BFFF00BFFF00BFFF00BFFF00BFFF00BFFF00BFFF00BFFF00BFFF00BFFF00BFFF00BFFF00BFFF00BFFF00BFFF00BFFF00BFFF00BFFF00BFFF00BFFF00BFFF00BFFF00BFFF00BFFFFF
310
FFFFFFFFFFFFFFFFFFFFFFFFFFFFFFFFFFFFFFFFFFFFFFFFFFFFFFFFFFFFFFFFFFFFFFFFFFFFFFFFFFFFFFFFFFFFFFFFFFFFFFFFFFFFFFFFFFFFFFFFFFFFFFFFFFFFFFFFFFFFFFFFFFFFFFFFFFFFFFFF007299FFFFFFFFFFFFFFFFFFFFFFFFFFFFFFFFFFFFFFFFFFFFFFFFFFFFFFFFFFFF000000FFFFFF0000000000000000
310
00000000000000000000000000000000000000000000000000000000000000000000000000000000000000000000000000000000000000000000000000000000000000000000000000000000000000000000000000000000000000000000000000000000000000000000000000FFFFFF00000000BFFF000000000000000000
310
00000000000000000000000000000000000000000000000000000000000000000000000000000000000000000000000000000000000000000000000000000000000000000000000000000000000000000000000000000000000000000000000000000000000000000000000000000000000000000000000000000000000000
310
0000FFFFFFFFFFFFFFFFFFFFFFFFFFFFFFFFFFFFFFFFFFFFFFFFFFFFFFFFFFFFFFFFFFFFFFFFFFFFFFFFFFFFFFFFFFFFFFFFFFFFFFFFFFFFFFFFFFFFFFFFFFFFFFFFFFFFFFFFFFFFFFFF007299007299007299007299FFFFFFFFFFFFFFFFFFFFFFFFFFFFFFFFFFFFFFFFFFFFFFFFFFFFFFFFFFFF000000FFFFFF0000000000
310
00000000000000000000000000000000000000000000000000000000000000000000000000000000000000000000000000000000000000000000000000000000000000000000000000000000000000000000000000000000000000000000000000000000000000000000000000000000FFFFFF00000000BFFF000000000000
310
00000000000000000000000000000000000000000000000000000000000000000000000000000000000000000000000000000000000000000000000000000000000000000000000000000000000000000000000000000000000000000000000000000000000000000000000000000000000000000000000000000000000000
310
0000000000FFFFFFFFFFFFFFFFFFFFFFFFFFFFFFFFFFFFFFFFFFFFFFFFFFFFFFFFFFFFFFFFFFFFFFFFFFFFFFFFFFFFFFFFFFFFFFFFFFFFFFFFFFFFFFFFFFFFFFFFFFFFFFFFFFFFFFFFFFFFFFFF007299007299007299007299FFFFFFFFFFFFFFFFFFFFFFFFFFFFFFFFFFFF000000000000000000FFFFFF000000FFFFFF0000
310
00000000000000000000000000000000000000000000000000000000000000000000000000000000000000000000000000000000000000000000000000000000000000000000000000000000000000000000000000000000000000000000000000000000000000000000000000000000000000FFFFFF00000000BFFF000000
310
00000000000000000000000000000000000000000000000000000000000000000000000000000000000000000000000000000000000000000000000000000000000000000000000000000000000000000000000000000000000000000000000000000000000000000000000000000000000000000000000000000000000000
310
0000000000000000FFFFFFFFFFFFFFFFFFFFFFFFFFFFFFFFFFFFFFFFFFFFFFFFFFFFFFFFFFFFFFFFFFFFFFFFFFFFFFFFFFFFFFFFFFFFFFFFFFFFFFFFFFFFFFFFFFFFFFFFFFFFFFFFFFFFFFFFFFFFFFFFFFFFFFFFFFFFFFFFFFFFFFFFFFFFFFFFFFFFFFFFFFFFFFFFFFFFFFFFFFFFFFFFFFFFFFFFFFFFFFFFFFFF000000FFFF
310
FF000000000000000000000000000000000000000000000000000000000000000000000000000000000000000000000000000000000000000000000000000000000000000000000000000000000000000000000000000000000000000000000000000000000000000000000000000000000000000000FFFFFF00000000BFFF
310
00000000000000000000000000000000000000000000000000000000000000000000000000000000000000000000000000000000000000000000000000000000000000000000000000000000000000000000000000000000000000000000000000000000000000000000000000000000000000000000000000000000000000
310
0000000000000000000000000000000000000000000000000000000000000000000000000000000000000000000000000000000000000000000000000000000000000000000000000000000000000000FFFFFF007299FFFFFFFFFFFFFFFFFFFFFFFFFFFFFFFFFFFFFFFFFFFFFFFFFFFFFFFFFFFFFFFFFFFFFFFFFFFFFF0000
310
00FFFFFF000000000000000000000000000000000000000000000000000000000000000000000000000000000000000000000000000000000000000000000000000000000000000000000000000000000000000000000000000000000000000000000000000000000000000000000000000000000000000000FFFFFF000000
310
00BFFF00000000000000000000000000000000000000000000000000000000000000000000000000000000000000000000000000000000000000000000000000000000000000000000000000000000000000000000000000000000000000000000000000000000000000000000000000000000000000000000000000000000
310
0000000000000000000000000000000000000000000000000000000000000000000000000000000000000000000000000000000000000000000000000000000000000000000000000000000000000000000000FFFFFFFFFFFFFFFFFFFFFFFFFFFFFFFFFFFFFFFFFFFFFFFF000000000000000000000000000000000000FFFF
310
FF000000FFFFFF000000000000000000000000000000000000000000000000000000000000000000000000000000000000000000000000000000000000000000000000000000000000000000000000000000000000000000000000000000000000000000000000000000000000000000000000000000000000000000FFFFFF
310
00000000BFFF00000000000000000000000000000000000000000000000000000000000000000000000000000000000000000000000000000000000000000000000000000000000000000000000000000000000000000000000000000000000000000000000000000000000000000000000000000000000000000000000000
310
0000000000000000000000000000000000000000000000000000000000000000000000000000000000000000000000FFFFFF000000000000000000000000000000000000000000000000000000000000000000000000FFFFFFFFFFFFFFFFFFFFFFFFFFFFFFFFFFFFFFFFFFFFFFFFFFFFFFFFFFFFFFFFFFFFFFFFFFFFFFFFFF
310
FFFFFFFF000000FFFFFF000000000000000000000000000000000000000000000000000000000000000000000000000000000000000000000000000000000000000000000000000000000000000000000000000000000000000000000000000000000000000000000000000000000000000000000000000000000000000000
310
FFFFFF00000000BFFF00000000000000000000000000000000000000000000000000000000000000000000000000000000000000000000000000000000000000000000000000000000000000000000000000000000000000000000000000000000000000000000000000000000000000000000000000000000000000000000
310
0000000000000000000000000000000000000000000000000000000000000000000000000000000000000000000000FFFFFF000000000000000000000000000000000000000000000000000000000000000000000000000000FFFFFFFFFFFFFFFFFFFFFFFFFFFFFFFFFFFFFFFFFFFFFFFFFFFFFFFFFFFFFFFFFFFFFFFFFFFF
310
FF000000FFFFFF000000FFFFFF000000000000000000000000000000000000000000000000000000000000000000000000000000000000000000000000000000000000000000000000000000000000000000000000000000000000000000000000000000000000000000000000000000000000000000000000000000000000
310
000000FFFFFF00000000BFFF00000000000000000000000000000000000000000000000000000000000000000000000000000000000000000000000000000000000000000000000000000000000000000000000000000000000000000000000000000000000000000000000000000000000000000000000000000000000000
310
0000000000000000000000000000000000000000000000000000000000000000000000000000000000000000000000FFFFFF000000000000000000000000000000000000000000000000000000000000000000000000000000000000FFFFFFFFFFFF007299FFFFFF007299FFFFFFFFFFFFFFFFFFFFFFFFFFFFFFFFFFFFFFFF
310
FFFFFFFFFFFFFFFFFFFF000000FFFFFF000000000000000000000000000000000000000000000000000000000000000000000000000000000000000000000000000000000000000000000000000000000000000000000000000000000000000000000000000000000000000000000000000000000000000000000000000000
310
000000000000FFFFFF00000000BFFF00000000000000000000000000000000000000000000000000000000000000000000000000000000000000000000000000000000000000000000000000000000000000000000000000000000000000000000000000000000000000000000000000000000000000000000000000000000
310
0000000000000000000000000000000000000000000000000000000000000000000000000000000000000000000000FFFFFF000000000000000000000000000000000000000000000000000000000000000000000000000000000000000000000000FFFFFFFFFFFFFFFFFFFFFFFFFFFFFFFFFFFFFFFFFFFFFFFFFFFFFFFFFF
310
FFFFFFFFFFFFFFFFFFFFFFFFFF000000FFFFFF000000000000000000000000000000000000000000000000000000000000000000000000000000000000000000000000000000000000000000000000000000000000000000000000000000000000000000000000000000000000000000000000000000000000000000000000
310
000000000000000000FFFFFF00000000BFFF00000000000000000000000000000000000000000000000000000000000000000000000000000000000000000000000000000000000000000000000000000000000000000000000000000000000000000000000000000000000000000000000000000000000000000000000000
310
0000000000000000000000000000000000000000000000000000000000000000000000000000000000000000FFFFFFFFFFFF0000000000000000000000000000000000000000000000000000000000000000000000000000000000000000000000000000000000000000000000000000000000000000000000000000000000
310
0000000000000000000000000000BFFF000000FFFFFF000000000000000000000000000000000000000000000000000000000000000000000000000000000000000000000000000000000000000000000000000000000000000000000000000000000000000000000000000000000000000000000000000000000000000000
310
000000000000000000000000FFFFFF00000000BFFF00000000000000000000000000000000000000000000000000000000000000000000000000000000000000000000000000000000000000000000000000000000000000000000000000000000000000000000000000000000000000000000000000000000000000729900
310
0000000000000000000000000000000000000000000000000000000000000000000000000000000000000000FFFFFFFFFFFF0000000000000000000000000000000000000000000000000000000000000000000000000000000000000000000000000000000000000000000000000000000000000000000000000000000000
310
0000000000000000000000000000000000BFFF000000FFFFFF000000000000000000000000000000000000000000000000000000000000000000000000000000000000000000000000000000000000000000000000000000000000000000000000000000000000000000000000000000000000000000000000000000000000
310
000000000000000000000000000000FFFFFF00000000BFFF00000000000000000000000000000000000000000000000000000000000000000000000000000000000000000000000000000000000000000000000000000000000000000000000000000000000000000000000000000000000000000000000000000000000000
310
7299FFFFFF000000000000000000000000000000000000000000000000000000000000000000000000000000FFFFFFFFFFFF0000000000000000000000000000000000000000000000000000000000000000000000000000000000000000000000000000000000000000000000000000000000000000000000000000000000
310
0000000000000000000000000000000000000000BFFF000000FFFFFF000000000000000000000000000000000000000000000000000000000000000000000000000000000000000000000000000000000000000000000000000000000000000000000000000000000000000000000000000000000000000000000000000000
310
000000000000000000000000000000000000FFFFFF00000000BFFF00000000000000000000000000000000000000000000000000000000000000000000000000000000000000000000000000000000000000000000000000000000000000000000000000000000000000000000000000000000000000000000000000000000
310
0000007299FFFFFF000000000000000000000000000000000000000000000000000000000000000000000000FFFFFFFFFFFF0000000000000000000000000000000000000000000000000000000000000000000000000000000000000000000000000000000000000000000000000000000000000000000000000000000000
310
0000000000000000000000000000000000000000000000BFFF000000FFFFFF000000000000000000000000000000000000000000000000000000000000000000000000000000000000000000000000000000000000000000000000000000000000000000000000000000000000000000000000000000000000000000000000
310
000000000000000000000000000000000000000000FFFFFF00000000BFFF000000000000000000000000000000000000000000000000000000000000000000000000000000000000000000000000000000000000000000000000000000000000000000000000000000000000000000000000000000000000000000000000FF
310
FFFFFFFFFFFFFFFFFFFFFFFFFFFFFFFFFFFFFFFFFFFFFFFFFFFFFFFFFFFFFFFFFFFFFFFFFFFFFFFFFFFFFFFFFFFFFFFFFFFFFFFFFFFFFFFFFFFFFFFFFFFFFFFFFFFFFFFFFFFFFFFFFFFFFFFFFFFFFFFFFFFFFFFFFFFFFFFFFFFFFFFFFFFFFFFFFFFF0000000000000000000000000000000000000000000000000000000000
310
0000000000000000000000000000000000000000000000000000BFFF000000FFFFFF000000000000000000000000000000000000000000000000000000000000000000000000000000000000000000000000000000000000000000000000000000000000000000000000000000000000000000000000000000000000000000
310
000000000000000000000000000000000000000000000000FFFFFF00000000BFFF00000000000000000000000000000000000000000000000000000000000000000000000000000000000000000000000000000000000000000000000000000000000000000000000000000000000000000000000000000000000000000000
310
0000FFFFFFFFFFFFFFFFFFFFFFFFFFFFFFFFFFFFFFFFFFFFFFFFFFFFFFFFFFFFFFFFFFFFFFFFFFFFFFFFFFFFFFFFFFFFFFFFFFFFFFFFFFFFFFFFFFFFFFFFFFFFFFFFFFFFFFFFFFFFFFFFFFFFFFFFFFFFFFFFFFFFFFFFFFFFFFFFFFFFFFFFFFFFFFFFFFFFFF0000000000000000000000000000000000000000000000000000
310
0000000000000000000000000000000000000000000000000000000000BFFF000000FFFFFF000000000000000000000000000000000000000000000000000000000000000000000000000000000000000000000000000000000000000000000000000000000000000000000000000000000000000000000000000000000000
310
000000000000000000000000000000000000000000000000000000FFFFFF00000000BFFF000000000000000000000000000000000000000000000000000000000000000000000000000000000000000000000000000000000000000000000000000000000000000000000000000000FFFFFF00000000000000000000000000
310
0000000000FFFFFFFFFFFF000000FFFFFF000000FFFFFF000000000000000000000000000000000000000000000000000000000000000000000000000000000000000000FFFFFF0000000000000000000000000000000000000000000000000000000000000000000000000000000000000000000000000000000000000000
310
0000000000000000000000000000000000000000000000000000000000000000BFFF000000FFFFFF000000000000000000000000000000000000000000000000000000000000000000000000000000000000000000000000000000000000000000000000000000000000000000000000000000000000000000000000000000
310
000000000000000000000000000000000000000000000000000000000000FFFFFF00000000BFFF000000000000000000000000000000000000000000000000000000000000000000000000000000000000000000000000000000000000000000000000000000000000000000000000000000000000FFFFFFFFFFFF00000000
310
0000000000000000FFFFFFFFFFFF000000FFFFFF000000000000FFFFFF000000000000000000000000000000000000000000000000000000000000000000000000000000000000000000FFFFFF0000000000000000000000000000000000000000000000000000000000000000000000000000000000000000000000000000
310
0000000000000000000000000000000000000000000000000000000000000000000000BFFF000000FFFFFF000000000000000000000000000000000000000000000000000000000000000000000000000000000000000000000000000000000000000000000000000000000000000000000000000000000000000000000000
310
000000000000000000000000000000000000000000000000000000000000000000FFFFFF00000000BFFF000000000000000000000000000000000000000000000000000000000000000000000000000000000000000000000000000000000000000000000000000000000000000000000000000000000000000000FFFFFFFF
310
FFFF000000000000000000FFFFFFFFFFFF000000000000FFFFFF000000FFFFFF000000000000000000000000000000000000000000000000000000000000000000000000000000000000000000FFFFFF0000000000000000000000000000000000000000000000000000000000000000000000000000000000000000000000
310
0000000000000000000000000000000000000000000000000000000000000000000000000000BFFF000000FFFFFF000000000000000000000000000000000000000000000000000000000000000000000000000000000000000000000000000000000000000000000000000000000000000000000000000000000000000000
310
000000000000000000000000000000000000000000000000000000000000000000000000FFFFFF00000000BFFF00000000000000000000000000000000000000000000000000000000000000000000000000000000000000000000000000000000000000000000000000000000000000000000000000000000000000000000
310
0000FFFFFFFFFFFF000000000000FFFFFFFFFFFF000000000000000000FFFFFF000000FFFFFFFFFFFFFFFFFFFFFFFFFFFFFFFFFFFF000000000000000000000000000000000000000000000000000000000000FFFFFFFFFFFFFFFFFFFFFFFFFFFFFFFFFFFFFFFFFFFFFFFFFFFFFF0000000000000000000000000000000000
310
0000000000000000000000000000000000000000000000000000000000000000000000000000000000BFFF000000FFFFFF000000000000000000000000000000000000000000000000000000000000000000000000000000000000000000000000000000000000000000000000000000000000000000000000000000000000
310
000000000000000000000000000000000000000000000000000000000000000000000000000000FFFFFF00000000BFFF00000000000000000000000000000000000000000000000000000000000000000000000000000000000000000000000000000000000000000000000000000000000000000000000000000000000000
310
0000000000000000000000FFFFFFFFFFFFFFFFFFFFFFFF000000000000000000FFFFFFFFFFFFFFFFFFFFFFFFFFFFFFFFFFFFFFFFFFFFFFFF000000000000000000000000000000000000000000000000000000000000FFFFFFFFFFFFFFFFFFFFFFFFFFFFFFFFFFFFFFFFFFFFFFFFFFFFFFFFFFFFFFFFFFFFFFFFFFFFFFFFFF
310
FF00000000000000000000000000000000000000000000000000000000000000000000000000000000000000BFFF000000FFFFFF000000000000000000000000000000000000000000000000000000000000000000000000000000000000000000000000000000000000000000000000000000000000000000000000000000
310
000000000000000000000000000000000000000000000000000000000000000000000000000000000000FFFFFF00000000BFFF00000000000000000000000000000000000000000000000000000000000000000000000000000000000000000000000000000000000000000000000000000000000000000000000000000000
310
0000000000000000000000000000000000FFFFFFFFFFFFFFFFFF000000000000000000000000FFFFFFFFFFFFFFFFFFFFFFFFFFFFFFFFFFFFFFFFFF000000000000000000000000000000000000000000000000000000000000000000FFFFFFFFFFFFFFFFFFFFFFFFFFFFFFFFFFFFFFFFFFFFFFFFFFFFFFFFFFFFFFFFFFFFFF
310
FFFFFFFF00000000000000000000000000000000000000000000000000000000000000000000000000000000000000BFFF000000FFFFFF000000000000000000000000000000000000000000000000000000000000000000000000000000000000000000000000000000000000000000000000000000000000000000000000
310
000000000000000000000000000000000000000000000000000000000000000000000000000000000000000000FFFFFF00000000BFFF00000000000000000000000000000000000000000000000000000000000000000000000000000000000000000000000000000000000000000000000000000000000000000000000000
310
0000000000000000000000000000000000000000000000FFFFFFFFFFFF0000000000000000000000000000000000000000000000000000000000000000000000000000000000000000000000000000000000000000000000000000000000000000000000000000000000000000000000000000000000000000000000000000
310
0000000000000000000000000000000000000000000000000000000000000000000000000000000000000000000000000000BFFF000000FFFFFF000000000000000000000000000000000000000000000000000000000000000000000000000000000000000000000000000000000000000000000000000000000000000000
310
000000000000000000000000000000000000000000000000000000000000000000000000000000000000000000000000FFFFFF00000000BFFF00000000000000000000000000000000000000000000000000000000000000000000000000000000000000000000000000000000000000000000000000000000000000000000
310
0000000000000000000000000000000000000000000000000000FFFFFFFFFFFF0000000000000000000000000000000000000000000000000000000000000000000000000000000000000000000000000000000000000000000000000000000000000000000000000000000000000000000000000000000000000000000000
310
0000000000000000000000000000000000000000000000000000000000000000000000000000000000000000000000000000000000BFFF000000FFFFFF000000000000000000000000000000000000000000000000000000000000000000000000000000000000000000000000000000000000000000000000000000000000
310
000000000000000000000000000000000000000000000000000000000000000000000000000000000000000000000000000000FFFFFF00000000BFFF00000000000000000000000000000000000000000000000000000000000000000000000000000000000000000000000000000000000000000000000000000000000000
310
0000000000000000000000000000000000000000000000000000000000FFFFFFFFFFFF000000000000FFFFFFFFFFFFFFFFFFFFFFFFFFFFFFFFFFFFFFFFFFFFFFFFFFFFFFFFFFFFFFFFFFFFFFFFFFFFFF0000000000000000000000000000000000000000000000000000000000000000000000000000000000000000000000
310
0000000000000000000000000000000000000000000000000000000000000000000000000000000000000000000000000000000000000000BFFF000000FFFFFF000000000000000000000000000000000000000000000000000000000000000000000000000000000000000000000000000000000000000000000000000000
310
000000000000000000000000000000000000000000000000000000000000000000000000000000000000000000000000000000000000FFFFFF00000000BFFF00000000000000000000000000000000000000000000000000000000000000000000000000000000000000000000000000000000000000000000000000000000
310
0000000000000000000000000000000000000000000000000000000000000000FFFFFFFFFFFF000000FFFFFFFFFFFFFFFFFFFFFFFFFFFFFFFFFFFFFFFFFFFFFFFFFFFFFFFFFFFFFFFFFFFFFFFFFFFFFFFFFFFF0000000000000000000000000000000000000000000000000000000000000000000000000000000000000000
310
0000000000000000000000000000000000000000000000000000000000000000000000000000000000000000000000000000000000000000000000BFFF000000FFFFFF000000000000000000000000000000000000000000000000000000000000000000000000000000000000000000000000000000000000000000000000
310
000000000000000000000000000000000000000000000000000000000000000000000000000000000000000000000000000000000000000000FFFFFF00000000BFFF00000000000000000000000000000000000000000000000000000000000000000000000000000000000000000000000000000000000000000000000000
310
0000000000000000000000000000000000000000000000000000000000000000000000FFFFFFFFFFFF000000FFFFFFFFFFFFFFFFFFFFFFFFFFFFFFFFFFFFFFFFFFFFFFFFFFFFFF0000000000000000000000000000000000000000000000000000000000000000000000000000000000000000000000000000000000000000
310
0000000000000000000000000000000000000000000000000000000000000000000000000000000000000000000000000000000000000000000000000000BFFF000000FFFFFF000000000000000000000000000000000000000000000000000000000000000000000000000000000000000000000000000000000000000000
310
000000000000000000000000000000000000000000000000000000000000000000000000000000000000000000000000000000000000000000000000FFFFFF00000000BFFF00000000000000000000000000000000000000000000000000000000000000000000000000000000000000000000000000000000000000000000
310
0000000000000000000000000000000000000000000000000000000000000000000000000000FFFFFFFFFFFFFFFFFF000000FFFFFFFFFFFFFFFFFFFFFFFFFFFFFFFFFFFFFFFFFFFFFFFFFFFFFFFFFFFF0000000000000000000000000000000000000000000000000000000000000000000000000000000000000000000000
310
0000000000000000000000000000000000000000000000000000000000000000000000000000000000000000000000000000000000000000000000000000000000BFFF000000FFFFFF000000000000000000000000000000000000000000000000000000000000000000000000000000000000000000000000000000000000
310
000000000000000000000000000000000000000000000000000000000000000000000000000000000000000000000000000000000000000000000000000000FFFFFF00000000BFFF00000000000000000000000000000000000000000000000000000000000000000000000000000000000000000000000000000000000000
310
0000000000000000000000000000000000000000000000000000000000000000000000000000000000FFFFFFFFFFFFFFFFFFFFFFFFFFFFFFFFFFFFFFFFFFFFFFFFFFFFFFFFFFFFFFFFFFFFFFFFFFFFFFFFFFFFFFFFFF0000000000000000000000000000000000000000000000000000000000000000000000000000000000
310
0000000000000000000000000000000000000000000000000000000000000000000000000000000000000000000000000000000000000000000000000000000000000000BFFF000000FFFFFF000000000000000000000000000000000000000000000000000000000000000000000000000000000000000000000000000000
310
000000000000000000000000000000000000000000000000000000000000000000000000000000000000000000000000000000000000000000000000000000000000FFFFFF00000000BFFF00000000000000000000000000000000000000000000000000000000000000000000000000000000000000000000000000000000
310
0000000000000000000000000000000000000000000000000000000000000000000000000000000000000000FFFFFFFFFFFF000000FFFFFFFFFFFFFFFFFFFFFFFFFFFFFFFFFFFFFFFFFFFFFFFFFFFFFFFFFFFFFFFFFFFFFFFF0000000000000000000000000000000000000000000000000000000000000000000000000000
310
0000000000000000000000000000000000000000000000000000000000000000000000000000000000000000000000000000000000000000000000000000000000000000000000BFFF000000FFFFFF000000000000000000000000000000000000000000000000000000000000000000000000000000000000000000000000
310
000000000000000000000000000000000000000000000000000000000000000000000000000000000000000000000000000000000000000000000000000000000000000000FFFFFF00000000BFFF00000000000000000000000000000000000000000000000000000000000000000000000000000000000000000000000000
310
0000000000000000000000000000000000000000000000000000000000000000000000000000000000000000000000FFFFFFFFFFFFFFFFFFFFFFFFFFFFFFFFFFFFFFFFFFFFFFFFFFFFFF0000000000000000000000000000000000000000000000000000000000000000000000000000000000000000000000000000000000
310
0000000000000000000000000000000000000000000000000000000000000000000000000000000000000000000000000000000000000000000000000000000000000000000000000000BFFF000000FFFFFF000000000000000000000000000000000000000000000000000000000000000000000000000000000000000000
310
000000000000000000000000000000000000000000000000000000000000000000000000000000000000000000000000000000000000000000000000000000000000000000000000FFFFFF00000000BFFF00000000000000000000000000000000000000000000000000000000000000000000000000000000000000000000
310
0000000000000000000000000000000000000000000000000000000000000000000000000000000000000000000000000000FFFF00FFFFFFFFFFFFFFFFFFFFFFFFFFFFFFFFFFFFFFFFFFFFFFFF0000000000000000000000000000000000000000000000000000000000000000000000000000000000000000000000000000
310
0000000000000000000000000000000000000000000000000000000000000000000000000000000000000000000000000000000000000000000000000000000000000000000000000000000000BFFF000000FFFFFF000000000000000000000000000000000000000000000000000000000000000000000000000000000000
310
000000000000000000000000000000000000000000000000000000000000000000000000000000000000000000000000000000000000000000000000000000000000000000000000000000FFFFFF00000000BFFF00000000000000000000000000000000000000000000000000000000000000000000000000000000000000
310
0000000000000000000000000000000000000000000000000000000000000000000000000000000000000000000000000000007299007299FFFFFFFFFFFF0000000000000000000000000000000000000000000000000000000000000000000000000000000000000000000000000000000000000000000000000000000000
310
0000000000000000000000000000000000000000000000000000000000000000000000000000000000000000000000000000000000000000000000000000000000000000000000000000000000000000BFFF000000FFFFFF000000000000000000000000000000000000000000000000000000000000000000000000000000
310
000000000000000000000000000000000000000000000000000000000000000000000000000000000000000000000000000000000000000000000000000000000000000000000000000000000000FFFFFF00000000BFFF00000000000000000000000000000000000000000000000000000000000000000000000000000000
310
0000000000000000000000000000000000000000000000000000000000000000000000000000000000000000000000000000000000FFFFFFFFFFFFFFFFFFFFFFFF0000000000000000000000000000000000000000000000000000000000000000000000000000000000000000000000000000000000000000000000000000
310
0000000000000000000000000000000000000000000000000000000000000000000000000000000000000000000000000000000000000000000000000000000000000000000000000000000000000000000000BFFF000000FFFFFF000000000000000000000000000000000000000000000000000000000000000000000000
310
000000000000000000000000000000000000000000000000000000000000000000000000000000000000000000000000000000000000000000000000000000000000000000000000000000000000000000FFFFFF00000000BFFF00000000000000000000000000000000000000000000000000000000000000000000000000
310
0000000000000000000000000000000000000000000000000000000000000000000000000000FFFFFF000000000000000000000000000000FFFFFFFFFFFFFFFFFFFFFFFF0000000000000000000000000000000000000000000000000000000000000000000000000000000000000000000000000000000000000000000000
310
0000000000000000000000000000000000000000000000000000000000000000000000000000000000000000000000000000000000000000000000000000000000000000000000000000000000000000000000000000BFFF000000FFFFFF000000000000000000000000000000000000000000000000000000000000000000
310
000000000000000000000000000000000000000000000000000000000000000000000000000000000000000000000000000000000000000000000000000000000000000000000000000000000000000000000000FFFFFF00000000BFFF00000000000000000000000000000000000000000000000000000000000000000000
310
0000000000000000000000000000000000000000000000000000000000000000000000000000000000000000FFFFFF000000000000000000000000FFFFFFFFFFFFFFFFFFFFFFFFFFFFFF0000000000000000000000000000000000000000000000000000000000000000000000000000000000000000000000000000000000
310
0000000000000000000000000000000000000000000000000000000000000000000000000000000000000000000000000000000000000000000000000000000000000000000000000000000000000000000000000000000000BFFF000000FFFFFF000000000000000000000000000000000000000000000000000000000000
310
000000000000000000000000000000000000000000000000000000000000000000000000000000000000000000000000000000000000000000000000000000000000000000000000000000000000000000000000000000FFFFFF00000000BFFF00000000000000000000000000000000000000000000000000000000000000
310
0000000000000000000000000000000000000000000000000000000000000000000000000000000000000000000000000000FFFFFF000000007299007299007299FFFFFFFFFFFF000000FFFFFF0000000000000000000000000000000000000000000000000000000000000000000000000000000000000000000000000000
310
0000000000000000000000000000000000000000000000000000000000000000000000000000000000000000000000000000000000000000000000000000000000000000000000000000000000000000000000000000000000000000BFFF000000FFFFFF000000000000000000000000000000000000000000000000000000
310
000000000000000000000000000000000000000000000000000000000000000000000000000000000000000000000000000000000000000000000000000000000000000000000000000000000000000000000000000000000000FFFFFF00000000BFFF00000000000000000000000000000000000000000000000000000000
310
0000000000000000000000000000000000000000000000000000000000000000000000000000000000000000000000000000000000000000FFFFFFFFFFFF000000FFFFFFFFFFFFFFFFFFFFFFFF000000FFFFFFFFFFFFFFFFFFFFFFFFFFFFFFFFFFFFFFFFFFFFFFFFFFFFFF0000000000000000000000000000000000000000
310
0000000000000000000000000000000000000000000000000000000000000000000000000000000000000000000000000000000000000000000000000000000000000000000000000000000000000000000000000000000000000000000000BFFF000000FFFFFF000000000000000000000000000000000000000000000000
310
000000000000000000000000000000000000000000000000000000000000000000000000000000000000000000000000000000000000000000000000000000000000000000000000000000000000000000000000000000000000000000FFFFFF00000000BFFF00000000000000000000000000000000000000000000000000
310
0000000000000000000000000000000000000000000000000000000000000000000000000000000000000000000000000000000000000000000000000000000000FFFFFF000000FFFFFFFFFFFFFFFFFFFFFFFF000000FFFFFFFFFFFFFFFFFFFFFFFFFFFFFFFFFFFFFFFFFFFFFFFF0000000000000000000000000000000000
310
0000000000000000000000000000000000000000000000000000000000000000000000000000000000000000000000000000000000000000000000000000000000000000000000000000000000000000000000000000000000000000000000000000BFFF000000FFFFFF000000000000000000000000000000000000000000
310
000000000000000000000000000000000000000000000000000000000000000000000000000000000000000000000000000000000000000000000000000000000000000000000000000000000000000000000000000000000000000000000000FFFFFF00000000BFFF00000000000000000000000000000000000000000000
310
0000000000000000000000000000000000000000000000000000000000000000000000000000000000000000000000000000000000000000000000000000000000000000000000FFFFFFFFFFFFFFFFFF000000FFFFFF0000000000000000000000000000000000000000000000000000000000000000000000000000000000
310
0000000000000000000000000000000000000000000000000000000000000000000000000000000000000000000000000000000000000000000000000000000000000000000000000000000000000000000000000000000000000000000000000000000000BFFF000000FFFFFF000000000000000000000000000000000000
310
000000000000000000000000000000000000000000000000000000000000000000000000000000000000000000000000000000000000000000000000000000000000000000000000000000000000000000000000000000000000000000000000000000FFFFFF00000000BFFF00000000000000000000000000000000000000
310
0000000000000000000000000000000000000000000000000000000000000000000000000000000000000000000000000000000000000000000000000000000000000000000000000000000000FFFFFFFFFFFF000000FFFFFFFFFFFFFFFFFFFFFFFFFFFFFFFFFFFFFFFFFFFFFFFFFFFFFFFFFFFFFFFFFFFFFFFF0000000000
310
0000000000000000000000000000000000000000000000000000000000000000000000000000000000000000000000000000000000000000000000000000000000000000000000000000000000000000000000000000000000000000000000000000000000000000BFFF000000FFFFFF000000000000000000000000000000
310
000000000000000000000000000000000000000000000000000000000000000000000000000000000000000000000000000000000000000000000000000000000000000000000000000000000000000000000000000000000000000000000000000000000000FFFFFF00000000BFFF00000000000000000000000000000000
310
0000000000000000000000000000000000000000000000000000000000000000000000000000000000000000000000000000000000000000000000000000000000000000000000000000000000000000FFFFFFFFFFFF000000000000FFFFFF0000000000000000000000000000000000000000000000000000000000000000
310
0000000000000000000000000000000000000000000000000000000000000000000000000000000000000000000000000000000000000000000000000000000000000000000000000000000000000000000000000000000000000000000000000000000000000000000000BFFF000000FFFFFF000000000000000000000000
310
000000000000000000000000000000000000000000000000000000000000000000000000000000000000000000000000000000000000000000000000000000000000000000000000000000000000000000000000000000000000000000000000000000000000000000FFFFFF00000000BFFF00000000000000000000000000
310
0000000000000000000000000000000000000000000000000000000000000000000000000000000000000000000000000000000000000000000000000000000000000000000000000000000000000000000000FFFFFFFFFFFF000000000000FFFFFFFFFFFFFFFFFFFFFFFFFFFFFFFFFFFFFFFFFFFFFFFFFFFFFFFFFFFFFFFF
310
FFFFFFFF00000000000000000000000000000000000000000000000000000000000000000000000000000000000000000000000000000000000000000000000000000000000000000000000000000000000000000000000000000000000000000000000000000000000000000000BFFF000000FFFFFF000000000000000000
310
000000000000000000000000000000000000000000000000000000000000000000000000000000000000000000000000000000000000000000000000000000000000000000000000000000000000000000000000000000000000000000000000000000000000000000000000FFFFFF00000000BFFF00000000000000000000
310
0000000000000000000000000000000000000000000000000000000000000000000000000000000000000000000000000000000000000000000000000000000000000000000000000000000000000000000000000000FFFFFFFFFFFF000000000000000000FFFFFFFFFFFFFFFFFFFFFFFFFFFFFFFFFFFFFFFFFFFFFFFFFFFF
310
FFFFFFFFFFFFFF00000000000000000000000000000000000000000000000000000000000000000000000000000000000000000000000000000000000000000000000000000000000000000000000000000000000000000000000000000000000000000000000000000000000000000000BFFF000000FFFFFF000000000000
310
000000000000000000000000000000000000000000000000000000000000000000000000000000000000000000000000000000000000000000000000000000000000000000000000000000000000000000000000000000000000000000000000000000000000000000000000000000FFFFFF00000000BFFF00000000000000
310
0000000000000000000000000000000000000000000000000000000000000000000000000000000000000000000000000000000000000000000000000000000000000000000000000000000000000000000000000000000000FFFFFFFFFFFF0000000000000000000000000000000000000000000000000000000000000000
310
0000000000000000000000000000000000000000000000000000000000000000000000000000000000000000000000000000000000000000000000000000000000000000000000000000000000000000000000000000000000000000000000000000000000000000000000000000000000000000BFFF000000FFFFFF000000
310
000000000000000000000000000000000000000000000000000000000000000000000000000000000000000000000000000000000000000000000000000000000000000000000000000000000000000000000000000000000000000000000000000000000000000000000000000000000000FFFFFF00000000BFFF00000000
310
0000000000000000000000000000000000000000000000000000000000000000000000000000000000000000000000000000000000000000000000000000000000000000000000000000000000000000000000000000000000000000FFFFFFFFFFFF0000000000000000000000000000000000000000000000000000000000
310
0000000000000000000000000000000000000000000000000000000000000000000000000000000000000000000000000000000000000000000000000000000000000000000000000000000000000000000000000000000000000000000000000000000000000000000000000000000000000000000000BFFF000000FFFFFF
310
000000000000000000000000000000000000000000000000000000000000000000000000000000000000000000000000000000000000000000000000000000000000000000000000000000000000000000000000000000000000000000000000000000000000000000000000000000000000000000FFFFFF00000000BFFF00
310
0000000000000000000000000000000000000000000000000000000000000000000000000000000000000000000000000000000000000000000000000000000000000000000000000000000000000000000000000000000000000000000000FFFFFFFFFFFF0000000000000000000000000000000000000000000000000000
310
0000000000000000000000000000000000000000000000000000000000000000000000000000000000000000000000000000000000000000000000000000000000000000000000000000000000000000000000000000000000000000000000000000000000000000000000000000000000000000000000000000BFFF000000
310
FFFFFF000000000000000000000000000000000000000000000000000000000000000000000000000000000000000000000000000000000000000000000000000000000000000000000000000000000000000000000000000000000000000000000000000000000000000000000000000000000000000000FFFFFF00000000
310
BFFF0000000000000000000000000000000000000000000000000000000000000000000000000000000000000000000000000000000000000000000000000000000000000000000000000000000000000000000000000000000000000000000000000000000000000000000000000000000000000000000000000000000000
310
0000000000000000000000000000000000000000000000000000000000000000000000000000000000000000000000000000000000000000000000000000000000000000000000000000000000000000000000000000000000000000000000000000000000000000000000000000000000000000000000000000000000BFFF
310
000000FFFFFF000000000000000000000000000000000000000000000000000000000000000000000000000000000000000000000000000000000000000000000000000000000000000000000000000000000000000000000000000000000000000000000000000000000000000000000000000000000000000000FFFFFF00
310
000000BFFF0000000000000000000000000000000000000000000000000000000000000000000000000000000000000000000000000000000000000000000000000000000000000000000000000000000000000000000000000000000000000000000000000000000000000000000000000000000000000000000000000000
310
00000000000000000000000000000000000000000000000000000000000000000000000000000000000000000000000000000000000000000000000000000000000000000000000000000000000000000000000000000000000000000000000000000000000000000000000000000000000000000000000000000000000000
310
00BFFF000000FFFFFF000000000000000000000000000000000000000000000000000000000000000000000000000000000000000000000000000000000000000000000000000000000000000000000000000000000000000000000000000000000000000000000000000000000000000000000000000000000000000000FF
310
FFFF00000000BFFF0000000000000000000000000000000000000000000000000000000000000000000000000000000000000000000000000000000000000000000000000000000000000000000000000000000000000000000000000000000000000000000000000000000000000000000000000000000000000000000000
310
00000000000000000000000000000000000000000000000000000000000000000000000000000000000000000000000000000000000000000000000000000000000000000000000000000000000000000000000000000000000000000000000000000000000000000000000000000000000000000000000000000000000000
310
00000000BFFF000000FFFFFF00000000000000000000000000000000000000000000000000000000000000000000000000000000000000000000000000000000000000000000000000000000000000000000000000000000000000000000000000000000000000000000000000000000000000000000000000000000000000
310
0000FFFFFF00000000BFFF0000000000000000000000000000000000000000000000000000000000000000000000000000000000000000000000000000000000000000000000000000000000000000000000000000000000000000000000000000000000000000000000000000000000000000000000000000000000000000
310
00000000000000000000000000000000000000000000000000000000000000000000000000000000000000000000000000000000000000000000000000000000000000000000000000000000000000000000000000000000000000000000000000000000000000000000000000000000000000000000000000000000000000
310
00000000000000BFFF000000FFFFFF00000000000000000000000000000000000000000000000000000000000000000000000000000000000000000000000000000000000000000000000000000000000000000000000000000000000000000000000000000000000000000000000000000000000000000000000000000000
310
0000000000FFFFFF00000000BFFF0000000000000000000000000000000000000000000000000000000000000000000000000000000000000000000000000000000000000000000000000000000000000000000000000000000000000000000000000000000000000000000000000000000000000000000000000000000000
310
00000000000000000000000000000000000000000000000000000000000000000000000000000000000000000000000000000000000000000000000000000000000000000000000000000000000000000000000000000000000000000000000000000000000000000000000000000000000000000000000000000000000000
310
00000000000000000000BFFF000000FFFFFF00000000000000000000000000000000000000000000000000000000000000000000000000000000000000000000000000000000000000000000000000000000000000000000000000000000000000000000000000000000000000000000000000000000000000000000000000
310
0000000000000000FFFFFF00000000BFFF0000000000000000000000000000000000000000000000000000000000000000000000000000000000000000000000000000000000000000000000000000000000000000000000000000000000000000000000000000000000000000000000000000000000000000000000000000
310
00000000000000000000000000000000000000000000000000000000000000000000000000000000000000000000000000000000000000000000000000000000000000000000000000000000000000000000000000000000000000000000000000000000000000000000000000000000000000000000000000000000000000
310
00000000000000000000000000BFFF000000FFFFFF00000000000000000000000000000000000000000000000000000000000000000000000000000000000000000000000000000000000000000000000000000000000000000000000000000000000000000000000000000000000000000000000000000000000000000000
310
0000000000000000000000FFFFFF00000000BFFF0000000000000000000000000000000000000000000000000000000000000000000000000000000000000000000000000000000000000000000000000000000000000000000000000000000000000000000000000000000000000000000000000000000000000000000000
310
00000000000000000000000000000000000000000000000000000000000000000000000000000000000000000000000000000000000000000000000000000000000000000000000000000000000000000000000000000000000000000000000000000000000000000000000000000000000000000000000000000000000000
310
00000000000000000000000000000000BFFF000000FFFFFF00000000000000000000000000000000000000000000000000000000000000000000000000000000000000000000000000000000000000000000000000000000000000000000000000000000000000000000000000000000000000000000000000000000000000
310
0000000000000000000000000000FFFFFF00000000BFFF0000000000000000000000000000000000000000000000000000000000000000000000000000000000000000000000000000000000000000000000000000000000000000000000000000000000000000000000000000000000000000000000000000000000000000
310
00000000000000000000000000000000000000000000000000000000000000000000000000000000000000000000000000000000000000000000000000000000000000000000000000000000000000000000000000000000000000000000000000000000000000000000000000000000000000000000000000000000000000
310
00000000000000000000000000000000000000BFFF000000FFFFFF00000000000000000000000000000000000000000000000000000000000000000000000000000000000000000000000000000000000000000000000000000000000000000000000000000000000000000000000000000000000000000000000000000000
310
0000000000000000000000000000000000FFFFFF00000000BFFF0000000000000000000000000000000000000000000000000000000000000000000000000000000000000000000000000000000000000000000000000000000000000000000000000000000000000000000000000000000000000000000000000000000000
310
00000000000000000000000000000000000000000000000000000000000000000000000000000000000000000000000000000000000000000000000000000000000000000000000000000000000000000000000000000000000000000000000000000000000000000000000000000000000000000000000000000000000000
310
00000000000000000000000000000000000000000000BFFF000000FFFFFF00000000000000000000000000000000000000000000000000000000000000000000000000000000000000000000000000000000000000000000000000000000000000000000000000000000000000000000000000000000000000000000000000
310
0000000000000000000000000000000000000000FFFFFF00000000BFFF0000000000000000000000000000000000000000000000000000000000000000000000000000000000000000000000000000000000000000000000000000000000000000000000000000000000000000000000000000000000000000000000000000
310
00000000000000000000000000000000000000000000000000000000000000000000000000000000000000000000000000000000000000000000000000000000000000000000000000000000000000000000000000000000000000000000000000000000000000000000000000000000000000000000000000000000000000
310
00000000000000000000000000000000000000000000000000BFFF000000FFFFFF00000000000000000000000000000000000000000000000000000000000000000000000000000000000000000000000000000000000000000000000000000000000000000000000000000000000000000000000000000000000000000000
310
0000000000000000000000000000000000000000000000FFFFFF00000000BFFF0000000000000000000000000000000000000000000000000000000000000000000000000000000000000000000000000000000000000000000000000000000000000000000000000000000000000000000000000000000000000000000000
310
00000000000000000000000000000000000000000000000000000000000000000000000000000000000000000000000000000000000000000000000000000000000000000000000000000000000000000000000000000000000000000000000000000000000000000000000000000000000000000000000000000000000000
310
00000000000000000000000000000000000000000000000000000000BFFF000000FFFFFF00000000000000000000000000000000000000000000000000000000000000000000000000000000000000000000000000000000000000000000000000000000000000000000000000000000000000000000000000000000000000
310
0000000000000000000000000000000000000000000000000000FFFFFF00000000BFFF00BFFF00BFFF00BFFF00BFFF00BFFF00BFFF00BFFF00BFFF00BFFF00BFFF00BFFF00BFFF00BFFF00BFFF00BFFF00BFFF00BFFF00BFFF00BFFF00BFFF00BFFF00BFFF00BFFF00BFFF00BFFF00BFFF00BFFF00BFFF00BFFF00BFFF00BF
310
FF00BFFF00BFFF00BFFF00BFFF00BFFF00BFFF00BFFF00BFFF00BFFF00BFFF00BFFF00BFFF00BFFF00BFFF00BFFF00BFFF00BFFF00BFFF00BFFF00BFFF00BFFF00BFFF00BFFF00BFFF00BFFF00BFFF00BFFF00BFFF00BFFF00BFFF00BFFF00BFFF00BFFF00BFFF00BFFF00BFFF00BFFF00BFFF00BFFF00BFFF00BFFF00BFFF
310
00BFFF00BFFF00BFFF00BFFF00BFFF00BFFF00BFFF00BFFF00BFFF00BFFF00BFFF000000FFFFFF00000000000000000000000000000000000000000000000000000000000000000000000000000000000000000000000000000000000000000000000000000000000000000000000000000000000000000000000000000000
310
0000000000000000000000000000000000000000000000000000000000FFFFFF0000000000000000000000000000000000000000000000000000000000000000000000000000000000000000000000000000000000000000000000000000000000000000000000000000000000000000000000000000000000000000000000
310
00000000000000000000000000000000000000000000000000000000000000000000000000000000000000000000000000000000000000000000000000000000000000000000000000000000000000000000000000000000000000000000000000000000000000000000000000000000000000000000000000000000000000
310
000000000000000000000000000000000000000000000000000000000000000000000000000000FFFFFF00000000000000000000000000000000000000000000000000000000000000000000000000000000000000000000000000000000000000000000000000000000000000000000000000000000000000000000000000
310
0000000000000000000000000000000000000000000000000000000000000000FFFFFFFFFFFFFFFFFFFFFFFFFFFFFFFFFFFFFFFFFFFFFFFFFFFFFFFFFFFFFFFFFFFFFFFFFFFFFFFFFFFFFFFFFFFFFFFFFFFFFFFFFFFFFFFFFFFFFFFFFFFFFFFFFFFFFFFFFFFFFFFFFFFFFFFFFFFFFFFFFFFFFFFFFFFFFFFFFFFFFFFFFFFFFF
310
FFFFFFFFFFFFFFFFFFFFFFFFFFFFFFFFFFFFFFFFFFFFFFFFFFFFFFFFFFFFFFFFFFFFFFFFFFFFFFFFFFFFFFFFFFFFFFFFFFFFFFFFFFFFFFFFFFFFFFFFFFFFFFFFFFFFFFFFFFFFFFFFFFFFFFFFFFFFFFFFFFFFFFFFFFFFFFFFFFFFFFFFFFFFFFFFFFFFFFFFFFFFFFFFFFFFFFFFFFFFFFFFFFFFFFFFFFFFFFFFFFFFFFFFFFFFFF
310
FFFFFFFFFFFFFFFFFFFFFFFFFFFFFFFFFFFFFFFFFFFFFFFFFFFFFFFFFFFFFFFFFFFFFFFFFFFFFFFFFFFFFFFFFF00000000000000000000000000000000000000000000000000000000000000000000000000000000000000000000000000000000000000000000000000000000000000000000000000000000000000000000
310
00000000000000000000000000000000000000000000000000000000000000000000000000000000000000000000000000000000000000000000000000000000000000000000000000000000000000000000000000000000000000000000000000000000000000000000000000000000000000000000000000000000000000
310
00000000000000000000000000000000000000000000000000000000000000000000000000000000000000000000000000000000000000000000000000000000000000000000000000000000000000000000000000000000000000000000000000000000000000000000000000000000000000000000000000000000000000
310
000000000000000000000000000000000000000000000000000000000000000000000000000000000000000000000000000000000000000000000000000000000000000000000000000000000000000000000000000000000000000000000000000000000000000000
  0
ENDSEC
  0
EOF
