  0
SECTION
  2
HEADER
  9
$ACADVER
  1
AC1024
  9
$ACADMAINTVER
 70
     6
  9
$DWGCODEPAGE
  3
DOS932
  9
$LASTSAVEDBY
  1
HRC747U
  9
$INSBASE
 10
0.0
 20
0.0
 30
0.0
  9
$EXTMIN
 10
0.0
 20
0.0
 30
0.0
  9
$EXTMAX
 10
1680.0
 20
1188.0
 30
0.0
  9
$LIMMIN
 10
0.0
 20
0.0
  9
$LIMMAX
 10
420.0
 20
297.0
  9
$ORTHOMODE
 70
     0
  9
$REGENMODE
 70
     1
  9
$FILLMODE
 70
     1
  9
$QTEXTMODE
 70
     0
  9
$MIRRTEXT
 70
     1
  9
$LTSCALE
 40
10.0
  9
$ATTMODE
 70
     1
  9
$TEXTSIZE
 40
0.0
  9
$TRACEWID
 40
0.05
  9
$TEXTSTYLE
  7
STANDARD
  9
$CLAYER
  8
0
  9
$CELTYPE
  6
BYLAYER
  9
$CECOLOR
 62
   256
  9
$CELTSCALE
 40
1.0
  9
$DISPSILH
 70
     0
  9
$DIMSCALE
 40
1.0
  9
$DIMASZ
 40
0.18
  9
$DIMEXO
 40
0.0625
  9
$DIMDLI
 40
0.38
  9
$DIMRND
 40
0.0
  9
$DIMDLE
 40
0.0
  9
$DIMEXE
 40
0.18
  9
$DIMTP
 40
0.0
  9
$DIMTM
 40
0.0
  9
$DIMTXT
 40
0.18
  9
$DIMCEN
 40
0.09
  9
$DIMTSZ
 40
0.0
  9
$DIMTOL
 70
     0
  9
$DIMLIM
 70
     0
  9
$DIMTIH
 70
     1
  9
$DIMTOH
 70
     1
  9
$DIMSE1
 70
     0
  9
$DIMSE2
 70
     0
  9
$DIMTAD
 70
     0
  9
$DIMZIN
 70
     0
  9
$DIMBLK
  1

  9
$DIMASO
 70
     1
  9
$DIMSHO
 70
     1
  9
$DIMPOST
  1

  9
$DIMAPOST
  1

  9
$DIMALT
 70
     0
  9
$DIMALTD
 70
     2
  9
$DIMALTF
 40
25.4
  9
$DIMLFAC
 40
1.0
  9
$DIMTOFL
 70
     0
  9
$DIMTVP
 40
0.0
  9
$DIMTIX
 70
     0
  9
$DIMSOXD
 70
     0
  9
$DIMSAH
 70
     0
  9
$DIMBLK1
  1

  9
$DIMBLK2
  1

  9
$DIMSTYLE
  2
STANDARD
  9
$DIMCLRD
 70
     0
  9
$DIMCLRE
 70
     0
  9
$DIMCLRT
 70
     0
  9
$DIMTFAC
 40
1.0
  9
$DIMGAP
 40
0.09
  9
$DIMJUST
 70
     0
  9
$DIMSD1
 70
     0
  9
$DIMSD2
 70
     0
  9
$DIMTOLJ
 70
     1
  9
$DIMTZIN
 70
     0
  9
$DIMALTZ
 70
     0
  9
$DIMALTTZ
 70
     0
  9
$DIMUPT
 70
     0
  9
$DIMDEC
 70
     4
  9
$DIMTDEC
 70
     4
  9
$DIMALTU
 70
     2
  9
$DIMALTTD
 70
     2
  9
$DIMTXSTY
  7
STANDARD
  9
$DIMAUNIT
 70
     0
  9
$DIMADEC
 70
     0
  9
$DIMALTRND
 40
0.0
  9
$DIMAZIN
 70
     0
  9
$DIMDSEP
 70
    46
  9
$DIMATFIT
 70
     3
  9
$DIMFRAC
 70
     0
  9
$DIMLDRBLK
  1

  9
$DIMLUNIT
 70
     2
  9
$DIMLWD
 70
    -2
  9
$DIMLWE
 70
    -2
  9
$DIMTMOVE
 70
     2
  9
$DIMFXL
 40
1.0
  9
$DIMFXLON
 70
     0
  9
$DIMJOGANG
 40
0.785398163397
  9
$DIMTFILL
 70
     0
  9
$DIMTFILLCLR
 70
     0
  9
$DIMARCSYM
 70
     0
  9
$DIMLTYPE
  6

  9
$DIMLTEX1
  6

  9
$DIMLTEX2
  6

  9
$DIMTXTDIRECTION
 70
     0
  9
$LUNITS
 70
     2
  9
$LUPREC
 70
     8
  9
$SKETCHINC
 40
0.1
  9
$FILLETRAD
 40
0.0
  9
$AUNITS
 70
     0
  9
$AUPREC
 70
     0
  9
$MENU
  1
acad
  9
$ELEVATION
 40
0.0
  9
$PELEVATION
 40
0.0
  9
$THICKNESS
 40
0.0
  9
$LIMCHECK
 70
     0
  9
$CHAMFERA
 40
0.0
  9
$CHAMFERB
 40
0.0
  9
$CHAMFERC
 40
0.0
  9
$CHAMFERD
 40
0.0
  9
$SKPOLY
 70
     0
  9
$TDCREATE
 40
2455154.62412037
  9
$TDUCREATE
 40
2455154.24912037
  9
$TDUPDATE
 40
2460115.648608901
  9
$TDUUPDATE
 40
2460115.273608901
  9
$TDINDWG
 40
0.0045597222
  9
$TDUSRTIMER
 40
0.0045597222
  9
$USRTIMER
 70
     1
  9
$ANGBASE
 50
0.0
  9
$ANGDIR
 70
     0
  9
$PDMODE
 70
     0
  9
$PDSIZE
 40
0.0
  9
$PLINEWID
 40
0.0
  9
$SPLFRAME
 70
     0
  9
$SPLINETYPE
 70
     6
  9
$SPLINESEGS
 70
     8
  9
$HANDSEED
  5
1AAF
  9
$SURFTAB1
 70
     6
  9
$SURFTAB2
 70
     6
  9
$SURFTYPE
 70
     6
  9
$SURFU
 70
     6
  9
$SURFV
 70
     6
  9
$UCSBASE
  2

  9
$UCSNAME
  2

  9
$UCSORG
 10
0.0
 20
0.0
 30
0.0
  9
$UCSXDIR
 10
1.0
 20
0.0
 30
0.0
  9
$UCSYDIR
 10
0.0
 20
1.0
 30
0.0
  9
$UCSORTHOREF
  2

  9
$UCSORTHOVIEW
 70
     0
  9
$UCSORGTOP
 10
0.0
 20
0.0
 30
0.0
  9
$UCSORGBOTTOM
 10
0.0
 20
0.0
 30
0.0
  9
$UCSORGLEFT
 10
0.0
 20
0.0
 30
0.0
  9
$UCSORGRIGHT
 10
0.0
 20
0.0
 30
0.0
  9
$UCSORGFRONT
 10
0.0
 20
0.0
 30
0.0
  9
$UCSORGBACK
 10
0.0
 20
0.0
 30
0.0
  9
$PUCSBASE
  2

  9
$PUCSNAME
  2

  9
$PUCSORG
 10
0.0
 20
0.0
 30
0.0
  9
$PUCSXDIR
 10
1.0
 20
0.0
 30
0.0
  9
$PUCSYDIR
 10
0.0
 20
1.0
 30
0.0
  9
$PUCSORTHOREF
  2

  9
$PUCSORTHOVIEW
 70
     0
  9
$PUCSORGTOP
 10
0.0
 20
0.0
 30
0.0
  9
$PUCSORGBOTTOM
 10
0.0
 20
0.0
 30
0.0
  9
$PUCSORGLEFT
 10
0.0
 20
0.0
 30
0.0
  9
$PUCSORGRIGHT
 10
0.0
 20
0.0
 30
0.0
  9
$PUCSORGFRONT
 10
0.0
 20
0.0
 30
0.0
  9
$PUCSORGBACK
 10
0.0
 20
0.0
 30
0.0
  9
$USERI1
 70
     0
  9
$USERI2
 70
     0
  9
$USERI3
 70
     0
  9
$USERI4
 70
     0
  9
$USERI5
 70
     0
  9
$USERR1
 40
0.0
  9
$USERR2
 40
0.0
  9
$USERR3
 40
0.0
  9
$USERR4
 40
0.0
  9
$USERR5
 40
0.0
  9
$WORLDVIEW
 70
     1
  9
$SHADEDGE
 70
     3
  9
$SHADEDIF
 70
    70
  9
$TILEMODE
 70
     1
  9
$MAXACTVP
 70
    16
  9
$PINSBASE
 10
0.0
 20
0.0
 30
0.0
  9
$PLIMCHECK
 70
     0
  9
$PEXTMIN
 10
1.000000000000E+20
 20
1.000000000000E+20
 30
1.000000000000E+20
  9
$PEXTMAX
 10
-1.000000000000E+20
 20
-1.000000000000E+20
 30
-1.000000000000E+20
  9
$PLIMMIN
 10
0.0
 20
0.0
  9
$PLIMMAX
 10
12.0
 20
9.0
  9
$UNITMODE
 70
     0
  9
$VISRETAIN
 70
     0
  9
$PLINEGEN
 70
     1
  9
$PSLTSCALE
 70
     0
  9
$TREEDEPTH
 70
  3020
  9
$CMLSTYLE
  2
STANDARD
  9
$CMLJUST
 70
     0
  9
$CMLSCALE
 40
1.0
  9
$PROXYGRAPHICS
 70
     0
  9
$MEASUREMENT
 70
     0
  9
$CELWEIGHT
370
    -1
  9
$ENDCAPS
280
     0
  9
$JOINSTYLE
280
     0
  9
$LWDISPLAY
290
     0
  9
$INSUNITS
 70
     0
  9
$HYPERLINKBASE
  1

  9
$STYLESHEET
  1

  9
$XEDIT
290
     1
  9
$CEPSNTYPE
380
     0
  9
$PSTYLEMODE
290
     1
  9
$FINGERPRINTGUID
  2
{f8f10254-f7f4-428e-8301-585654336388}
  9
$VERSIONGUID
  2
{FAEB1C32-E019-11D5-929B-00C0DF256EC4}
  9
$EXTNAMES
290
     1
  9
$PSVPSCALE
 40
0.0
  9
$OLESTARTUP
290
     0
  9
$SORTENTS
280
   127
  9
$INDEXCTL
280
     0
  9
$HIDETEXT
280
     1
  9
$XCLIPFRAME
280
     2
  9
$HALOGAP
280
     0
  9
$OBSCOLOR
 70
   257
  9
$OBSLTYPE
280
     0
  9
$INTERSECTIONDISPLAY
280
     0
  9
$INTERSECTIONCOLOR
 70
   257
  9
$DIMASSOC
280
     2
  9
$PROJECTNAME
  1

  9
$CAMERADISPLAY
290
     0
  9
$LENSLENGTH
 40
50.0
  9
$CAMERAHEIGHT
 40
0.0
  9
$STEPSPERSEC
 40
24.0
  9
$STEPSIZE
 40
2.0
  9
$3DDWFPREC
 40
2.0
  9
$PSOLWIDTH
 40
0.25
  9
$PSOLHEIGHT
 40
4.0
  9
$LOFTANG1
 40
1.570796326795
  9
$LOFTANG2
 40
1.570796326795
  9
$LOFTMAG1
 40
0.0
  9
$LOFTMAG2
 40
0.0
  9
$LOFTPARAM
 70
     7
  9
$LOFTNORMALS
280
     1
  9
$LATITUDE
 40
37.795
  9
$LONGITUDE
 40
-122.394
  9
$NORTHDIRECTION
 40
0.0
  9
$TIMEZONE
 70
 -8000
  9
$LIGHTGLYPHDISPLAY
280
     1
  9
$TILEMODELIGHTSYNCH
280
     1
  9
$CMATERIAL
347
15E5
  9
$SOLIDHIST
280
     0
  9
$SHOWHIST
280
     1
  9
$DWFFRAME
280
     2
  9
$DGNFRAME
280
     2
  9
$REALWORLDSCALE
290
     1
  9
$INTERFERECOLOR
 62
   256
  9
$CSHADOW
280
     0
  9
$SHADOWPLANELOCATION
 40
0.0
  0
ENDSEC
  0
SECTION
  2
CLASSES
  0
CLASS
  1
LWPOLYLINE
  2
AcDbPolyline
  3
ObjectDBX Classes
 90
        0
 91
        1
280
     0
281
     1
  0
CLASS
  1
IMAGE
  2
AcDbRasterImage
  3
ISM
 90
      127
 91
        5
280
     0
281
     1
  0
CLASS
  1
OLE2FRAME
  2
AcDbOle2Frame
  3
ObjectDBX Classes
 90
        0
 91
        1
280
     0
281
     1
  0
CLASS
  1
HATCH
  2
AcDbHatch
  3
ObjectDBX Classes
 90
        0
 91
        1
280
     0
281
     1
  0
CLASS
  1
DICTIONARYVAR
  2
AcDbDictionaryVar
  3
ObjectDBX Classes
 90
        0
 91
        3
280
     0
281
     0
  0
CLASS
  1
RASTERVARIABLES
  2
AcDbRasterVariables
  3
ISM
 90
        0
 91
        3
280
     0
281
     0
  0
CLASS
  1
IMAGEDEF
  2
AcDbRasterImageDef
  3
ISM
 90
        0
 91
        3
280
     0
281
     0
  0
CLASS
  1
IMAGEDEF_REACTOR
  2
AcDbRasterImageDefReactor
  3
ISM
 90
        1
 91
        3
280
     0
281
     0
  0
CLASS
  1
IDBUFFER
  2
AcDbIdBuffer
  3
ObjectDBX Classes
 90
        0
 91
        3
280
     0
281
     0
  0
CLASS
  1
SPATIAL_FILTER
  2
AcDbSpatialFilter
  3
ObjectDBX Classes
 90
        0
 91
        3
280
     0
281
     0
  0
CLASS
  1
XRECORD
  2
AcDbXrecord
  3
ObjectDBX Classes
 90
        0
 91
        1
280
     0
281
     0
  0
CLASS
  1
SORTENTSTABLE
  2
AcDbSortentsTable
  3
ObjectDBX Classes
 90
        0
 91
        3
280
     0
281
     0
  0
CLASS
  1
LAYER_INDEX
  2
AcDbLayerIndex
  3
ObjectDBX Classes
 90
        0
 91
        3
280
     0
281
     0
  0
CLASS
  1
SPATIAL_INDEX
  2
AcDbSpatialIndex
  3
AutoCAD 2000
 90
        0
 91
        3
280
     0
281
     0
  0
CLASS
  1
OBJECT_PTR
  2
CAseDLPNTableRecord
  3
ASE-LPNTableRecord
 90
        1
 91
        3
280
     0
281
     0
  0
CLASS
  1
ACDBDICTIONARYWDFLT
  2
AcDbDictionaryWithDefault
  3
ObjectDBX Classes
 90
        0
 91
        3
280
     0
281
     0
  0
CLASS
  1
SCALE
  2
AcDbScale
  3
ObjectDBX Classes
 90
     1153
 91
        3
280
     0
281
     0
  0
CLASS
  1
VISUALSTYLE
  2
AcDbVisualStyle
  3
ObjectDBX Classes
 90
     4095
 91
        3
280
     0
281
     0
  0
CLASS
  1
MATERIAL
  2
AcDbMaterial
  3
ObjectDBX Classes
 90
     1153
 91
        3
280
     0
281
     0
  0
CLASS
  1
TABLESTYLE
  2
AcDbTableStyle
  3
ObjectDBX Classes
 90
     4095
 91
        3
280
     0
281
     0
  0
CLASS
  1
MLEADERSTYLE
  2
AcDbMLeaderStyle
  3
ACDB_MLEADERSTYLE_CLASS
 90
     4095
 91
        3
280
     0
281
     0
  0
CLASS
  1
SUN
  2
AcDbSun
  3
SCENEOE
 90
     1153
 91
        3
280
     0
281
     0
  0
CLASS
  1
CELLSTYLEMAP
  2
AcDbCellStyleMap
  3
ObjectDBX Classes
 90
     1152
 91
        3
280
     0
281
     0
  0
CLASS
  1
ACAD_TABLE
  2
AcDbTable
  3
ObjectDBX Classes
 90
     1025
 91
        3
280
     0
281
     1
  0
CLASS
  1
TABLECONTENT
  2
AcDbTableContent
  3
ObjectDBX Classes
 90
     1152
 91
        4
280
     0
281
     0
  0
CLASS
  1
TABLEGEOMETRY
  2
AcDbTableGeometry
  3
ObjectDBX Classes
 90
     1152
 91
        3
280
     0
281
     0
  0
CLASS
  1
FIELDLIST
  2
AcDbFieldList
  3
ObjectDBX Classes
 90
     1152
 91
        3
280
     0
281
     0
  0
ENDSEC
  0
SECTION
  2
TABLES
  0
TABLE
  2
VPORT
  5
7
330
0
100
AcDbSymbolTable
 70
     1
  0
VPORT
  5
15
330
7
100
AcDbSymbolTableRecord
100
AcDbViewportTableRecord
  2
*ACTIVE
 70
     0
 10
0.0
 20
0.0
 11
1.0
 21
1.0
 12
840.0
 22
594.0
 13
0.0
 23
0.0
 14
1.0
 24
1.0
 15
0.0
 25
0.0
 16
0.0
 26
0.0
 36
1.0
 17
0.0
 27
0.0
 37
0.0
 40
1211.76
 41
1.998180163785
 42
50.0
 43
0.0
 44
0.0
 50
0.0
 51
0.0
 71
    16
 72
   100
 73
     1
 74
     1
 75
     0
 76
     0
 77
     0
 78
     0
281
     0
 65
     1
110
0.0
120
0.0
130
0.0
111
1.0
121
0.0
131
0.0
112
0.0
122
1.0
132
0.0
 79
     0
146
0.0
348
15D0
 60
     3
 61
     5
292
     0
282
     1
141
0.0
142
0.0
 63
   250
421
  3355443
361
15ED
  0
ENDTAB
  0
TABLE
  2
LTYPE
  5
4
330
0
100
AcDbSymbolTable
 70
     5
  0
LTYPE
  5
11
330
4
100
AcDbSymbolTableRecord
100
AcDbLinetypeTableRecord
  2
BYBLOCK
 70
     0
  3

 72
    65
 73
     0
 40
0.0
  0
LTYPE
  5
12
330
4
100
AcDbSymbolTableRecord
100
AcDbLinetypeTableRecord
  2
BYLAYER
 70
     0
  3

 72
    65
 73
     0
 40
0.0
  0
LTYPE
  5
13
330
4
100
AcDbSymbolTableRecord
100
AcDbLinetypeTableRecord
  2
CONTINUOUS
 70
     0
  3
Solid line
 72
    65
 73
     0
 40
0.0
  0
LTYPE
  5
103D
330
4
100
AcDbSymbolTableRecord
100
AcDbLinetypeTableRecord
  2
DASHED
 70
     0
  3
__ __ __ __ __ __ __ __ __ __ __ __ _
 72
    65
 73
     2
 40
0.75
 49
0.5
 74
     0
 49
-0.25
 74
     0
  0
LTYPE
  5
144A
330
4
100
AcDbSymbolTableRecord
100
AcDbLinetypeTableRecord
  2
CENTER
 70
     0
  3
____ _ ____ _ ____ _ ____ _ ____ _ __
 72
    65
 73
     4
 40
2.0
 49
1.25
 74
     0
 49
-0.25
 74
     0
 49
0.25
 74
     0
 49
-0.25
 74
     0
  0
LTYPE
  5
1642
330
4
100
AcDbSymbolTableRecord
100
AcDbLinetypeTableRecord
  2
HIDDEN
 70
     0
  3
__ __ __ __ __ __ __ __ __ __ __ __ __ __ __ __
 72
    65
 73
     2
 40
0.375
 49
0.25
 74
     0
 49
-0.125
 74
     0
  0
LTYPE
  5
1656
330
4
100
AcDbSymbolTableRecord
100
AcDbLinetypeTableRecord
  2
DASHED2
 70
     0
  3
_ _ _ _ _ _ _ _ _ _ _ _ _ _ _ _ _ _ _ _ _ _ _ _
 72
    65
 73
     2
 40
0.375
 49
0.25
 74
     0
 49
-0.125
 74
     0
  0
ENDTAB
  0
TABLE
  2
LAYER
  5
2
102
{ACAD_XDICTIONARY
360
1857
102
}
330
0
100
AcDbSymbolTable
 70
    18
  0
LAYER
  5
14
330
2
100
AcDbSymbolTableRecord
100
AcDbLayerTableRecord
  2
0
 70
     0
 62
     7
  6
CONTINUOUS
370
    -3
390
15A5
347
15E7
  0
LAYER
  5
163D
102
{ACAD_XDICTIONARY
360
163E
102
}
330
2
100
AcDbSymbolTableRecord
100
AcDbLayerTableRecord
  2
寸法線
 70
     0
 62
     7
  6
CONTINUOUS
370
     9
390
15A5
347
15E7
  0
LAYER
  5
1641
330
2
100
AcDbSymbolTableRecord
100
AcDbLayerTableRecord
  2
仮想線
 70
     0
 62
    44
  6
HIDDEN
290
     0
370
     5
390
15A5
347
15E7
1001
AcAecLayerStandard
1000

1000

1001
AcCmTransparency
1071
        0
  0
LAYER
  5
1645
330
2
100
AcDbSymbolTableRecord
100
AcDbLayerTableRecord
  2
表題欄
 70
     0
 62
     7
  6
CONTINUOUS
370
     9
390
15A5
347
15E7
1001
AcAecLayerStandard
1000

1000

1001
AcCmTransparency
1071
        0
  0
LAYER
  5
1646
330
2
100
AcDbSymbolTableRecord
100
AcDbLayerTableRecord
  2
輪郭線
 70
     0
 62
    40
  6
CONTINUOUS
370
    15
390
15A5
347
15E7
1001
AcAecLayerStandard
1000

1000

1001
AcCmTransparency
1071
        0
  0
LAYER
  5
1647
330
2
100
AcDbSymbolTableRecord
100
AcDbLayerTableRecord
  2
文字
 70
     0
 62
     7
  6
CONTINUOUS
370
     9
390
15A5
347
15E7
1001
AcAecLayerStandard
1000

1000

1001
AcCmTransparency
1071
        0
  0
LAYER
  5
1648
330
2
100
AcDbSymbolTableRecord
100
AcDbLayerTableRecord
  2
構築線
 70
     0
 62
     1
  6
CONTINUOUS
290
     0
370
     0
390
15A5
347
15E7
1001
AcAecLayerStandard
1000

1000

1001
AcCmTransparency
1071
        0
  0
LAYER
  5
1649
330
2
100
AcDbSymbolTableRecord
100
AcDbLayerTableRecord
  2
図面枠
 70
     0
 62
     7
  6
CONTINUOUS
290
     0
370
     9
390
15A5
347
15E7
1001
AcAecLayerStandard
1000

1000

1001
AcCmTransparency
1071
        0
  0
LAYER
  5
164A
102
{ACAD_XDICTIONARY
360
164B
102
}
330
2
100
AcDbSymbolTableRecord
100
AcDbLayerTableRecord
  2
部材(積層鋼板)
 70
     0
 62
     7
  6
CONTINUOUS
370
    15
390
15A5
347
15E7
1001
AcAecLayerStandard
1000

1000

  0
LAYER
  5
164D
330
2
100
AcDbSymbolTableRecord
100
AcDbLayerTableRecord
  2
中心線
 70
     0
 62
    44
  6
CENTER
370
     5
390
15A5
347
15E7
1001
AcAecLayerStandard
1000

1000

1001
AcCmTransparency
1071
        0
  0
LAYER
  5
164F
330
2
100
AcDbSymbolTableRecord
100
AcDbLayerTableRecord
  2
実線
 70
     0
 62
     7
  6
CONTINUOUS
370
     9
390
15A5
347
15E7
1001
AcAecLayerStandard
1000

1000

1001
AcCmTransparency
1071
        0
  0
LAYER
  5
1650
330
2
100
AcDbSymbolTableRecord
100
AcDbLayerTableRecord
  2
ハッチング
 70
     0
 62
   253
  6
CONTINUOUS
370
     9
390
15A5
347
15E7
1001
AcAecLayerStandard
1000

1000

1001
AcCmTransparency
1071
        0
  0
LAYER
  5
1651
330
2
100
AcDbSymbolTableRecord
100
AcDbLayerTableRecord
  2
躯体
 70
     0
 62
     7
  6
CONTINUOUS
370
    13
390
15A5
347
15E7
1001
AcAecLayerStandard
1000

1000

1001
AcCmTransparency
1071
        0
  0
LAYER
  5
1652
330
2
100
AcDbSymbolTableRecord
100
AcDbLayerTableRecord
  2
IBｼｰﾄ
 70
     0
 62
     7
  6
CONTINUOUS
370
    18
390
15A5
347
15E7
1001
AcAecLayerStandard
1000

1000

1001
AcCmTransparency
1071
        0
  0
LAYER
  5
1653
330
2
100
AcDbSymbolTableRecord
100
AcDbLayerTableRecord
  2
IBリキッド
 70
     0
 62
     7
  6
CONTINUOUS
370
    13
390
15A5
347
15E7
1001
AcAecLayerStandard
1000

1000

1001
AcCmTransparency
1071
        0
  0
LAYER
  5
1654
330
2
100
AcDbSymbolTableRecord
100
AcDbLayerTableRecord
  2
部材(ﾋﾞｽ類)
 70
     0
 62
     7
  6
CONTINUOUS
370
    13
390
15A5
347
15E7
1001
AcAecLayerStandard
1000

1000

1001
AcCmTransparency
1071
        0
  0
LAYER
  5
1655
330
2
100
AcDbSymbolTableRecord
100
AcDbLayerTableRecord
  2
シーリング(IBｼﾘｺｰﾝ)
 70
     0
 62
     7
  6
CONTINUOUS
370
    13
390
15A5
347
15E7
1001
AcAecLayerStandard
1000

1000

1001
AcCmTransparency
1071
        0
  0
LAYER
  5
1864
330
2
100
AcDbSymbolTableRecord
100
AcDbLayerTableRecord
  2
Defpoints
 70
     0
 62
     7
  6
CONTINUOUS
290
     0
370
    -3
390
15A5
347
15E7
  0
ENDTAB
  0
TABLE
  2
STYLE
  5
3
330
0
100
AcDbSymbolTable
 70
     4
  0
STYLE
  5
17
330
3
100
AcDbSymbolTableRecord
100
AcDbTextStyleTableRecord
  2
STANDARD
 70
     0
 40
0.0
 41
1.0
 50
0.0
 71
     0
 42
0.0
  3
txt
  4
BIGFONT
  0
STYLE
  5
1E
330
3
100
AcDbSymbolTableRecord
100
AcDbTextStyleTableRecord
  2
TATEGAKI
 70
     4
 40
0.0
 41
1.0
 50
0.0
 71
     0
 42
0.0
  3
txt
  4
BIGFONT
  0
STYLE
  5
165B
330
3
100
AcDbSymbolTableRecord
100
AcDbTextStyleTableRecord
  2
基本スタイル
 70
     0
 40
0.0
 41
1.0
 50
0.0
 71
     0
 42
0.0
  3
msgothic.ttc
  4

1001
ACAD
1000
MS Gothic
1071
    32817
  0
STYLE
  5
165C
330
3
100
AcDbSymbolTableRecord
100
AcDbTextStyleTableRecord
  2
ＭＳ ゴシック
 70
     0
 40
6.0
 41
1.0
 50
0.0
 71
     0
 42
0.0
  3
msgothic.ttc
  4

1001
ACAD
1000
MS Gothic
1071
    32817
  0
ENDTAB
  0
TABLE
  2
VIEW
  5
5
330
0
100
AcDbSymbolTable
 70
     0
  0
ENDTAB
  0
TABLE
  2
UCS
  5
6
330
0
100
AcDbSymbolTable
 70
     0
  0
ENDTAB
  0
TABLE
  2
APPID
  5
8
330
0
100
AcDbSymbolTable
 70
     6
  0
APPID
  5
16
330
8
100
AcDbSymbolTableRecord
100
AcDbRegAppTableRecord
  2
ACAD
 70
     0
  0
APPID
  5
1632
330
8
100
AcDbSymbolTableRecord
100
AcDbRegAppTableRecord
  2
ACAD_MLEADERVER
 70
     0
  0
APPID
  5
1643
330
8
100
AcDbSymbolTableRecord
100
AcDbRegAppTableRecord
  2
AcAecLayerStandard
 70
     0
  0
APPID
  5
1644
330
8
100
AcDbSymbolTableRecord
100
AcDbRegAppTableRecord
  2
AcCmTransparency
 70
     0
  0
APPID
  5
1659
330
8
100
AcDbSymbolTableRecord
100
AcDbRegAppTableRecord
  2
AcadAnnotative
 70
     0
  0
APPID
  5
165A
330
8
100
AcDbSymbolTableRecord
100
AcDbRegAppTableRecord
  2
HATCHBACKGROUNDCOLOR
 70
     0
  0
ENDTAB
  0
TABLE
  2
DIMSTYLE
  5
9
330
0
100
AcDbSymbolTable
 70
     1
100
AcDbDimStyleTable
  0
DIMSTYLE
105
18
330
9
100
AcDbSymbolTableRecord
100
AcDbDimStyleTableRecord
  2
STANDARD
 70
     0
178
     0
289
     0
340
17
  0
ENDTAB
  0
TABLE
  2
BLOCK_RECORD
  5
1
330
0
100
AcDbSymbolTable
 70
    36
  0
BLOCK_RECORD
  5
A
330
1
100
AcDbSymbolTableRecord
100
AcDbBlockTableRecord
  2
*MODEL_SPACE
340
15C9
 70
     0
280
     1
281
     0
  0
BLOCK_RECORD
  5
B
330
1
100
AcDbSymbolTableRecord
100
AcDbBlockTableRecord
  2
*PAPER_SPACE
340
15CA
 70
     0
280
     1
281
     0
  0
BLOCK_RECORD
  5
16A8
330
1
100
AcDbSymbolTableRecord
100
AcDbBlockTableRecord
  2
*T1
340
0
 70
     0
280
     1
281
     0
  0
BLOCK_RECORD
  5
16B2
102
{ACAD_XDICTIONARY
360
16B3
102
}
330
1
100
AcDbSymbolTableRecord
100
AcDbBlockTableRecord
  2
囲い文字1
340
0
102
{BLKREFS
331
16B1
331
185D
331
19DD
331
1A02
331
1A0A
331
1A22
331
1A32
102
}
 70
     4
280
     1
281
     0
1001
AcadAnnotative
1000
AnnotativeData
1002
{
1070
     1
1070
     0
1002
}
1001
ACAD
1000
DesignCenter Data
1002
{
1070
     1
1070
     4
1002
}
  0
BLOCK_RECORD
  5
16BE
102
{ACAD_XDICTIONARY
360
16BF
102
}
330
1
100
AcDbSymbolTableRecord
100
AcDbBlockTableRecord
  2
囲い文字2
340
0
102
{BLKREFS
331
16BD
331
185F
331
19DF
331
1A04
331
1A0C
331
1A24
331
1A36
102
}
 70
     4
280
     1
281
     0
1001
AcadAnnotative
1000
AnnotativeData
1002
{
1070
     1
1070
     0
1002
}
1001
ACAD
1000
DesignCenter Data
1002
{
1070
     1
1070
     4
1002
}
  0
BLOCK_RECORD
  5
16CA
102
{ACAD_XDICTIONARY
360
16CB
102
}
330
1
100
AcDbSymbolTableRecord
100
AcDbBlockTableRecord
  2
囲い文字3
340
0
102
{BLKREFS
331
16C9
331
1861
331
19E1
331
1A06
331
1A0E
331
1A26
331
1A3A
102
}
 70
     4
280
     1
281
     0
1001
AcadAnnotative
1000
AnnotativeData
1002
{
1070
     1
1070
     0
1002
}
1001
ACAD
1000
DesignCenter Data
1002
{
1070
     1
1070
     4
1002
}
  0
BLOCK_RECORD
  5
16D6
102
{ACAD_XDICTIONARY
360
16D7
102
}
330
1
100
AcDbSymbolTableRecord
100
AcDbBlockTableRecord
  2
囲い文字4
340
0
102
{BLKREFS
331
16D5
331
1863
331
19E3
331
1A08
331
1A10
331
1A28
331
1A3E
102
}
 70
     4
280
     1
281
     0
1001
AcadAnnotative
1000
AnnotativeData
1002
{
1070
     1
1070
     0
1002
}
1001
ACAD
1000
DesignCenter Data
1002
{
1070
     1
1070
     4
1002
}
  0
BLOCK_RECORD
  5
16AF
330
1
100
AcDbSymbolTableRecord
100
AcDbBlockTableRecord
  2
*U6
340
0
102
{BLKREFS
331
16AE
102
}
 70
     0
280
     1
281
     0
  0
BLOCK_RECORD
  5
16BB
330
1
100
AcDbSymbolTableRecord
100
AcDbBlockTableRecord
  2
*U7
340
0
102
{BLKREFS
331
16BA
102
}
 70
     0
280
     1
281
     0
  0
BLOCK_RECORD
  5
16C7
330
1
100
AcDbSymbolTableRecord
100
AcDbBlockTableRecord
  2
*U8
340
0
102
{BLKREFS
331
16C6
102
}
 70
     0
280
     1
281
     0
  0
BLOCK_RECORD
  5
16D3
330
1
100
AcDbSymbolTableRecord
100
AcDbBlockTableRecord
  2
*U9
340
0
102
{BLKREFS
331
16D2
102
}
 70
     0
280
     1
281
     0
  0
BLOCK_RECORD
  5
16EB
102
{ACAD_XDICTIONARY
360
16EC
102
}
330
1
100
AcDbSymbolTableRecord
100
AcDbBlockTableRecord
  2
表題欄(定義)
340
0
102
{BLKREFS
331
0
331
18A0
102
}
 70
     4
280
     1
281
     0
1001
AcadAnnotative
1000
AnnotativeData
1002
{
1070
     1
1070
     0
1002
}
1001
ACAD
1000
DesignCenter Data
1002
{
1070
     1
1070
     4
1002
}
  0
BLOCK_RECORD
  5
185B
330
1
100
AcDbSymbolTableRecord
100
AcDbBlockTableRecord
  2
*T11
340
0
102
{BLKREFS
331
0
102
}
 70
     0
280
     1
281
     0
  0
BLOCK_RECORD
  5
185C
330
1
100
AcDbSymbolTableRecord
100
AcDbBlockTableRecord
  2
*U12
340
0
102
{BLKREFS
331
1869
102
}
 70
     0
280
     1
281
     0
  0
BLOCK_RECORD
  5
185E
330
1
100
AcDbSymbolTableRecord
100
AcDbBlockTableRecord
  2
*U13
340
0
102
{BLKREFS
331
186A
102
}
 70
     0
280
     1
281
     0
  0
BLOCK_RECORD
  5
1860
330
1
100
AcDbSymbolTableRecord
100
AcDbBlockTableRecord
  2
*U14
340
0
102
{BLKREFS
331
186B
102
}
 70
     0
280
     1
281
     0
  0
BLOCK_RECORD
  5
1862
330
1
100
AcDbSymbolTableRecord
100
AcDbBlockTableRecord
  2
*U15
340
0
102
{BLKREFS
331
186C
102
}
 70
     0
280
     1
281
     0
  0
BLOCK_RECORD
  5
19DB
330
1
100
AcDbSymbolTableRecord
100
AcDbBlockTableRecord
  2
*T16
340
0
102
{BLKREFS
331
189F
102
}
 70
     0
280
     1
281
     0
  0
BLOCK_RECORD
  5
19DC
330
1
100
AcDbSymbolTableRecord
100
AcDbBlockTableRecord
  2
*U17
340
0
102
{BLKREFS
331
19E8
102
}
 70
     0
280
     1
281
     0
  0
BLOCK_RECORD
  5
19DE
330
1
100
AcDbSymbolTableRecord
100
AcDbBlockTableRecord
  2
*U18
340
0
102
{BLKREFS
331
19E9
102
}
 70
     0
280
     1
281
     0
  0
BLOCK_RECORD
  5
19E0
330
1
100
AcDbSymbolTableRecord
100
AcDbBlockTableRecord
  2
*U19
340
0
102
{BLKREFS
331
19EA
102
}
 70
     0
280
     1
281
     0
  0
BLOCK_RECORD
  5
19E2
330
1
100
AcDbSymbolTableRecord
100
AcDbBlockTableRecord
  2
*U20
340
0
102
{BLKREFS
331
19EB
102
}
 70
     0
280
     1
281
     0
  0
BLOCK_RECORD
  5
1A01
330
1
100
AcDbSymbolTableRecord
100
AcDbBlockTableRecord
  2
*U21
340
0
 70
     0
280
     1
281
     0
  0
BLOCK_RECORD
  5
1A03
330
1
100
AcDbSymbolTableRecord
100
AcDbBlockTableRecord
  2
*U22
340
0
 70
     0
280
     1
281
     0
  0
BLOCK_RECORD
  5
1A05
330
1
100
AcDbSymbolTableRecord
100
AcDbBlockTableRecord
  2
*U23
340
0
 70
     0
280
     1
281
     0
  0
BLOCK_RECORD
  5
1A07
330
1
100
AcDbSymbolTableRecord
100
AcDbBlockTableRecord
  2
*U24
340
0
 70
     0
280
     1
281
     0
  0
BLOCK_RECORD
  5
1A09
330
1
100
AcDbSymbolTableRecord
100
AcDbBlockTableRecord
  2
*U25
340
0
 70
     0
280
     1
281
     0
  0
BLOCK_RECORD
  5
1A0B
330
1
100
AcDbSymbolTableRecord
100
AcDbBlockTableRecord
  2
*U26
340
0
 70
     0
280
     1
281
     0
  0
BLOCK_RECORD
  5
1A0D
330
1
100
AcDbSymbolTableRecord
100
AcDbBlockTableRecord
  2
*U27
340
0
 70
     0
280
     1
281
     0
  0
BLOCK_RECORD
  5
1A0F
330
1
100
AcDbSymbolTableRecord
100
AcDbBlockTableRecord
  2
*U28
340
0
 70
     0
280
     1
281
     0
  0
BLOCK_RECORD
  5
1A21
330
1
100
AcDbSymbolTableRecord
100
AcDbBlockTableRecord
  2
*U29
340
0
 70
     0
280
     1
281
     0
  0
BLOCK_RECORD
  5
1A23
330
1
100
AcDbSymbolTableRecord
100
AcDbBlockTableRecord
  2
*U30
340
0
 70
     0
280
     1
281
     0
  0
BLOCK_RECORD
  5
1A25
330
1
100
AcDbSymbolTableRecord
100
AcDbBlockTableRecord
  2
*U31
340
0
 70
     0
280
     1
281
     0
  0
BLOCK_RECORD
  5
1A27
330
1
100
AcDbSymbolTableRecord
100
AcDbBlockTableRecord
  2
*U32
340
0
 70
     0
280
     1
281
     0
  0
BLOCK_RECORD
  5
1A31
330
1
100
AcDbSymbolTableRecord
100
AcDbBlockTableRecord
  2
*U33
340
0
 70
     0
280
     1
281
     0
  0
BLOCK_RECORD
  5
1A35
330
1
100
AcDbSymbolTableRecord
100
AcDbBlockTableRecord
  2
*U34
340
0
 70
     0
280
     1
281
     0
  0
BLOCK_RECORD
  5
1A39
330
1
100
AcDbSymbolTableRecord
100
AcDbBlockTableRecord
  2
*U35
340
0
 70
     0
280
     1
281
     0
  0
BLOCK_RECORD
  5
1A3D
330
1
100
AcDbSymbolTableRecord
100
AcDbBlockTableRecord
  2
*U36
340
0
 70
     0
280
     1
281
     0
  0
ENDTAB
  0
ENDSEC
  0
SECTION
  2
BLOCKS
  0
BLOCK
  5
D
330
A
100
AcDbEntity
  8
0
100
AcDbBlockBegin
  2
*MODEL_SPACE
 70
     0
 10
0.0
 20
0.0
 30
0.0
  3
*MODEL_SPACE
  1

  0
ENDBLK
  5
E
330
A
100
AcDbEntity
  8
0
100
AcDbBlockEnd
  0
BLOCK
  5
F
330
B
100
AcDbEntity
 67
     1
  8
0
100
AcDbBlockBegin
  2
*PAPER_SPACE
 70
     0
 10
0.0
 20
0.0
 30
0.0
  3
*PAPER_SPACE
  1

  0
ENDBLK
  5
10
330
B
100
AcDbEntity
 67
     1
  8
0
100
AcDbBlockEnd
  0
BLOCK
  5
1878
330
16A8
100
AcDbEntity
  8
0
100
AcDbBlockBegin
  2
*T1
 70
     1
 10
0.0
 20
0.0
 30
0.0
  3
*T1
  1

  0
MTEXT
  5
16AA
330
16A8
100
AcDbEntity
  8
表題欄
 62
     0
100
AcDbMText
 10
18.75
 20
6.875
 30
0.0
 40
7.5
 41
33.75
 46
0.0
 71
     5
 72
     5
  1
符号
  7
ＭＳ ゴシック
 73
     1
 44
1.0
  0
MTEXT
  5
16AB
330
16A8
100
AcDbEntity
  8
表題欄
 62
     0
100
AcDbMText
 10
62.5
 20
6.875
 30
0.0
 40
7.5
 41
46.25
 46
0.0
 71
     5
 72
     5
  1
日付
  7
ＭＳ ゴシック
 73
     1
 44
1.0
  0
MTEXT
  5
16AC
330
16A8
100
AcDbEntity
  8
表題欄
 62
     0
100
AcDbMText
 10
106.25
 20
6.875
 30
0.0
 40
7.5
 41
33.75
 46
0.0
 71
     5
 72
     5
  1
訂正者
  7
ＭＳ ゴシック
 73
     1
 44
1.0
  0
MTEXT
  5
16AD
330
16A8
100
AcDbEntity
  8
表題欄
 62
     0
100
AcDbMText
 10
287.5
 20
6.875
 30
0.0
 40
7.5
 41
321.25
 46
0.0
 71
     5
 72
     5
  1
訂正概要
  7
ＭＳ ゴシック
 73
     1
 44
1.0
  0
INSERT
  5
16AE
330
16A8
100
AcDbEntity
  8
表題欄
 62
     0
100
AcDbBlockReference
  2
*U6
 10
12.976497308098
 20
15.625
 30
0.0
  0
INSERT
  5
16BA
330
16A8
100
AcDbEntity
  8
表題欄
 62
     0
100
AcDbBlockReference
  2
*U7
 10
12.976497308098
 20
29.375
 30
0.0
  0
INSERT
  5
16C6
330
16A8
100
AcDbEntity
  8
表題欄
 62
     0
100
AcDbBlockReference
  2
*U8
 10
12.976497308098
 20
43.125
 30
0.0
  0
INSERT
  5
16D2
330
16A8
100
AcDbEntity
  8
表題欄
 62
     0
100
AcDbBlockReference
  2
*U9
 10
12.976497308098
 20
56.875
 30
0.0
  0
LINE
  5
16DE
330
16A8
100
AcDbEntity
  8
表題欄
  6
ByBlock
 62
     0
370
    -2
100
AcDbLine
 10
0.0
 20
0.0
 30
0.0
 11
450.0
 21
0.0
 31
0.0
  0
LINE
  5
16DF
330
16A8
100
AcDbEntity
  8
表題欄
  6
ByBlock
 62
     0
370
    -2
100
AcDbLine
 10
0.0
 20
13.75
 30
0.0
 11
450.0
 21
13.75
 31
0.0
  0
LINE
  5
16E0
330
16A8
100
AcDbEntity
  8
表題欄
  6
ByBlock
 62
     0
370
    -2
100
AcDbLine
 10
0.0
 20
27.5
 30
0.0
 11
450.0
 21
27.5
 31
0.0
  0
LINE
  5
16E1
330
16A8
100
AcDbEntity
  8
表題欄
  6
ByBlock
 62
     0
370
    -2
100
AcDbLine
 10
0.0
 20
41.25
 30
0.0
 11
450.0
 21
41.25
 31
0.0
  0
LINE
  5
16E2
330
16A8
100
AcDbEntity
  8
表題欄
  6
ByBlock
 62
     0
370
    -2
100
AcDbLine
 10
0.0
 20
55.0
 30
0.0
 11
450.0
 21
55.0
 31
0.0
  0
LINE
  5
16E3
330
16A8
100
AcDbEntity
  8
表題欄
  6
ByBlock
 62
     0
370
    -2
100
AcDbLine
 10
0.0
 20
68.75
 30
0.0
 11
450.0
 21
68.75
 31
0.0
  0
LINE
  5
16E4
330
16A8
100
AcDbEntity
  8
表題欄
  6
ByBlock
 62
     0
370
    -2
100
AcDbLine
 10
0.0
 20
0.0
 30
0.0
 11
0.0
 21
68.75
 31
0.0
  0
LINE
  5
16E5
330
16A8
100
AcDbEntity
  8
表題欄
  6
ByBlock
 62
     0
370
    -2
100
AcDbLine
 10
37.5
 20
0.0
 30
0.0
 11
37.5
 21
68.75
 31
0.0
  0
LINE
  5
16E6
330
16A8
100
AcDbEntity
  8
表題欄
  6
ByBlock
 62
     0
370
    -2
100
AcDbLine
 10
87.5
 20
0.0
 30
0.0
 11
87.5
 21
68.75
 31
0.0
  0
LINE
  5
16E7
330
16A8
100
AcDbEntity
  8
表題欄
  6
ByBlock
 62
     0
370
    -2
100
AcDbLine
 10
125.0
 20
0.0
 30
0.0
 11
125.0
 21
68.75
 31
0.0
  0
LINE
  5
16E8
330
16A8
100
AcDbEntity
  8
表題欄
  6
ByBlock
 62
     0
370
    -2
100
AcDbLine
 10
450.0
 20
0.0
 30
0.0
 11
450.0
 21
68.75
 31
0.0
  0
ENDBLK
  5
1879
330
16A8
100
AcDbEntity
  8
0
100
AcDbBlockEnd
  0
BLOCK
  5
187C
330
16B2
100
AcDbEntity
  8
0
100
AcDbBlockBegin
  2
囲い文字1
 70
     0
 10
0.0
 20
0.0
 30
0.0
  3
囲い文字1
  1

  0
TEXT
  5
16B6
330
16B2
100
AcDbEntity
  8
文字
 62
     5
100
AcDbText
 10
-0.150726441143
 20
-12.80598100318
 30
0.0
 40
1.9
  1
1
  7
ＭＳ ゴシック
 72
     1
 11
0.467005208226
 21
-11.85598100318
 31
0.0
100
AcDbText
 73
     2
  0
LWPOLYLINE
  5
16B7
330
16B2
100
AcDbEntity
  8
文字
 62
     5
100
AcDbPolyline
 90
        3
 70
     1
 43
0.05
 10
-1.207936290659
 20
-13.006522891064
 10
0.467005208226
 20
-10.105439115294
 10
2.14194670711
 20
-13.006522891064
  0
ENDBLK
  5
187D
330
16B2
100
AcDbEntity
  8
0
100
AcDbBlockEnd
  0
BLOCK
  5
1880
330
16BE
100
AcDbEntity
  8
0
100
AcDbBlockBegin
  2
囲い文字2
 70
     0
 10
0.0
 20
0.0
 30
0.0
  3
囲い文字2
  1

  0
TEXT
  5
16C2
330
16BE
100
AcDbEntity
  8
文字
 62
     5
100
AcDbText
 10
-7.36181652199
 20
15.833311817329
 30
0.0
 40
1.9
  1
2
  7
ＭＳ ゴシック
 72
     1
 11
-6.744084872622
 21
16.783311817329
 31
0.0
100
AcDbText
 73
     2
  0
LWPOLYLINE
  5
16C3
330
16BE
100
AcDbEntity
  8
文字
 62
     5
100
AcDbPolyline
 90
        3
 70
     1
 43
0.05
 10
-8.419026371506
 20
15.632769929445
 10
-6.744084872622
 20
18.533853705216
 10
-5.069143373737
 20
15.632769929445
  0
ENDBLK
  5
1881
330
16BE
100
AcDbEntity
  8
0
100
AcDbBlockEnd
  0
BLOCK
  5
1884
330
16CA
100
AcDbEntity
  8
0
100
AcDbBlockBegin
  2
囲い文字3
 70
     0
 10
0.0
 20
0.0
 30
0.0
  3
囲い文字3
  1

  0
TEXT
  5
16CE
330
16CA
100
AcDbEntity
  8
文字
 62
     5
100
AcDbText
 10
-3.138684270054
 20
7.425323742515
 30
0.0
 40
1.9
  1
3
  7
ＭＳ ゴシック
 72
     1
 11
-2.520952620685
 21
8.375323742515
 31
0.0
100
AcDbText
 73
     2
  0
LWPOLYLINE
  5
16CF
330
16CA
100
AcDbEntity
  8
文字
 62
     5
100
AcDbPolyline
 90
        3
 70
     1
 43
0.05
 10
-4.19589411957
 20
7.224781854631
 10
-2.520952620685
 20
10.125865630402
 10
-0.846011121801
 20
7.224781854631
  0
ENDBLK
  5
1885
330
16CA
100
AcDbEntity
  8
0
100
AcDbBlockEnd
  0
BLOCK
  5
1888
330
16D6
100
AcDbEntity
  8
0
100
AcDbBlockBegin
  2
囲い文字4
 70
     0
 10
0.0
 20
0.0
 30
0.0
  3
囲い文字4
  1

  0
TEXT
  5
16DA
330
16D6
100
AcDbEntity
  8
文字
 62
     5
100
AcDbText
 10
-3.448589732188
 20
5.51332470249
 30
0.0
 40
1.9
  1
4
  7
ＭＳ ゴシック
 72
     1
 11
-2.83085808282
 21
6.46332470249
 31
0.0
100
AcDbText
 73
     2
  0
LWPOLYLINE
  5
16DB
330
16D6
100
AcDbEntity
  8
文字
 62
     5
100
AcDbPolyline
 90
        3
 70
     1
 43
0.05
 10
-4.505799581704
 20
5.312782814606
 10
-2.83085808282
 20
8.213866590377
 10
-1.155916583935
 20
5.312782814606
  0
ENDBLK
  5
1889
330
16D6
100
AcDbEntity
  8
0
100
AcDbBlockEnd
  0
BLOCK
  5
187A
330
16AF
100
AcDbEntity
  8
0
100
AcDbBlockBegin
  2
*U6
 70
     1
 10
0.0
 20
0.0
 30
0.0
  3
*U6
  1

  0
INSERT
  5
16B1
330
16AF
100
AcDbEntity
  8
構築線
 62
     0
100
AcDbBlockReference
  2
囲い文字1
 10
4.163741498082
 20
44.833324013919
 30
0.0
 41
3.446987668374
 42
3.446987668374
 43
3.446987668374
  0
ENDBLK
  5
187B
330
16AF
100
AcDbEntity
  8
0
100
AcDbBlockEnd
  0
BLOCK
  5
187E
330
16BB
100
AcDbEntity
  8
0
100
AcDbBlockBegin
  2
*U7
 70
     1
 10
0.0
 20
0.0
 30
0.0
  3
*U7
  1

  0
INSERT
  5
16BD
330
16BB
100
AcDbEntity
  8
構築線
 62
     0
100
AcDbBlockReference
  2
囲い文字2
 10
29.020280082295
 20
-53.885965169321
 30
0.0
 41
3.446987668374
 42
3.446987668374
 43
3.446987668374
  0
ENDBLK
  5
187F
330
16BB
100
AcDbEntity
  8
0
100
AcDbBlockEnd
  0
BLOCK
  5
1882
330
16C7
100
AcDbEntity
  8
0
100
AcDbBlockBegin
  2
*U8
 70
     1
 10
0.0
 20
0.0
 30
0.0
  3
*U8
  1

  0
INSERT
  5
16C9
330
16C7
100
AcDbEntity
  8
構築線
 62
     0
100
AcDbBlockReference
  2
囲い文字3
 10
14.463195287959
 20
-24.903733959604
 30
0.0
 41
3.446987668374
 42
3.446987668374
 43
3.446987668374
  0
ENDBLK
  5
1883
330
16C7
100
AcDbEntity
  8
0
100
AcDbBlockEnd
  0
BLOCK
  5
1886
330
16D3
100
AcDbEntity
  8
0
100
AcDbBlockBegin
  2
*U9
 70
     1
 10
0.0
 20
0.0
 30
0.0
  3
*U9
  1

  0
INSERT
  5
16D5
330
16D3
100
AcDbEntity
  8
構築線
 62
     0
100
AcDbBlockReference
  2
囲い文字4
 10
15.531435594298
 20
-18.313096846695
 30
0.0
 41
3.446987668374
 42
3.446987668374
 43
3.446987668374
  0
ENDBLK
  5
1887
330
16D3
100
AcDbEntity
  8
0
100
AcDbBlockEnd
  0
BLOCK
  5
188A
330
16EB
100
AcDbEntity
  8
0
100
AcDbBlockBegin
  2
表題欄(定義)
 70
     2
 10
0.0
 20
0.0
 30
0.0
  3
表題欄(定義)
  1

  0
LINE
  5
16EF
330
16EB
100
AcDbEntity
  8
表題欄
100
AcDbLine
 10
-10.971098027232
 20
-50.087425312518
 30
0.0
 11
-10.971098027232
 21
-12.587447994505
 31
0.0
  0
ATTDEF
  5
16F0
330
16EB
100
AcDbEntity
  8
表題欄
100
AcDbText
 10
26.845498819392
 20
-41.087447994505
 30
0.0
 40
1.5
  1

  7
ＭＳ ゴシック
 72
     1
 11
26.845498819392
 21
-40.337447994505
 31
0.0
100
AcDbAttributeDefinition
  3
備考
  2
REMARKS
 70
     0
 74
     2
280
     0
  0
ATTDEF
  5
16F1
330
16EB
100
AcDbEntity
  8
表題欄
100
AcDbText
 10
12.466401972768
 20
-41.087447994505
 30
0.0
 40
1.5
  1

  7
ＭＳ ゴシック
 72
     1
 11
12.466401972768
 21
-40.337447994505
 31
0.0
100
AcDbAttributeDefinition
  3
縮尺
  2
SCALE
 70
     0
 74
     2
280
     0
  0
ATTDEF
  5
16F2
330
16EB
100
AcDbEntity
  8
表題欄
100
AcDbText
 10
13.631096545734
 20
-33.587447994505
 30
0.0
 40
1.5
  1

  7
ＭＳ ゴシック
 72
     1
 11
13.631096545734
 21
-32.837447994505
 31
0.0
100
AcDbAttributeDefinition
  3
図番
  2
DRAWING　NO.
 70
     0
 74
     2
280
     0
  0
ATTDEF
  5
16F3
330
16EB
100
AcDbEntity
  8
表題欄
100
AcDbText
 10
11.68036502141
 20
-26.087447994505
 30
0.0
 40
1.5
  1

  7
ＭＳ ゴシック
 72
     1
 11
11.68036502141
 21
-25.337447994505
 31
0.0
100
AcDbAttributeDefinition
  3
部位
  2
POSITION
 70
     0
 74
     2
280
     0
  0
ATTDEF
  5
16F4
330
16EB
100
AcDbEntity
  8
表題欄
100
AcDbText
 10
9.729633497089
 20
-18.587447994505
 30
0.0
 40
1.5
  1

  7
ＭＳ ゴシック
 72
     1
 11
9.729633497089
 21
-17.837447994505
 31
0.0
100
AcDbAttributeDefinition
  3
名称
  2
NAME
 70
     0
 74
     2
280
     0
  0
ATTDEF
  5
16F5
330
16EB
100
AcDbEntity
  8
表題欄
100
AcDbText
 10
-3.158598027232
 20
-48.587447994505
 30
0.0
 40
1.5
  1

  7
ＭＳ ゴシック
 72
     1
 11
-3.158598027232
 21
-47.837447994505
 31
0.0
100
AcDbAttributeDefinition
  3
製図
  2
DRAWING
 70
     0
 74
     2
280
     0
  0
ATTDEF
  5
16F6
330
16EB
100
AcDbEntity
  8
表題欄
100
AcDbText
 10
-3.158598027232
 20
-41.087447994505
 30
0.0
 40
1.5
  1

  7
ＭＳ ゴシック
 72
     1
 11
-3.158598027232
 21
-40.337447994505
 31
0.0
100
AcDbAttributeDefinition
  3
設計
  2
DESIGNED
 70
     0
 74
     2
280
     0
  0
ATTDEF
  5
16F7
330
16EB
100
AcDbEntity
  8
表題欄
100
AcDbText
 10
-3.158598027232
 20
-33.587447994505
 30
0.0
 40
1.5
  1

  7
ＭＳ ゴシック
 72
     1
 11
-3.158598027232
 21
-32.837447994505
 31
0.0
100
AcDbAttributeDefinition
  3
検図
  2
CHECKED
 70
     0
 74
     2
280
     0
  0
TEXT
  5
16F8
330
16EB
100
AcDbEntity
  8
表題欄
100
AcDbText
 10
-10.456568854787
 20
-22.337436653514
 30
0.0
 40
1.5
  1
出 図  ISSUE
  7
ＭＳ ゴシック
 72
     1
 11
-4.604374281822
 21
-21.587436653514
 31
0.0
100
AcDbText
 73
     2
  0
ATTDEF
  5
16F9
330
16EB
100
AcDbEntity
  8
表題欄
100
AcDbText
 10
-3.158598027232
 20
-26.087447994505
 30
0.0
 40
1.5
  1

  7
ＭＳ ゴシック
 72
     1
 11
-3.158598027232
 21
-25.337447994505
 31
0.0
100
AcDbAttributeDefinition
  3
出図
  2
ISSUE
 70
     0
 74
     2
280
     0
  0
ATTDEF
  5
16FA
330
16EB
100
AcDbEntity
  8
表題欄
100
AcDbText
 10
-3.158598027232
 20
-18.587447994505
 30
0.0
 40
1.5
  1

  7
ＭＳ ゴシック
 72
     1
 11
-3.158598027232
 21
-17.837447994505
 31
0.0
100
AcDbAttributeDefinition
  3
初版作成日
  2
DATE
 70
     0
 74
     2
280
     0
  0
LINE
  5
16FB
330
16EB
100
AcDbEntity
  8
仮想線
100
AcDbLine
 10
7.778901972768
 20
-12.587447994505
 30
0.0
 11
7.778901972768
 21
-50.087447994505
 31
0.0
  0
LINE
  5
16FC
330
16EB
100
AcDbEntity
  8
仮想線
100
AcDbLine
 10
7.778901972768
 20
-17.743697994505
 30
0.0
 11
-10.971098027232
 21
-17.743697994505
 31
0.0
  0
LINE
  5
16FD
330
16EB
100
AcDbEntity
  8
仮想線
100
AcDbLine
 10
-3.158598027232
 20
-12.587447994505
 30
0.0
 11
-3.158598027232
 21
-50.087447994505
 31
0.0
  0
TEXT
  5
16FE
330
16EB
100
AcDbEntity
  8
表題欄
100
AcDbText
 10
20.901158756562
 20
-37.337436653514
 30
0.0
 40
1.5
  1
備 考   REMARKS
  7
ＭＳ ゴシック
 72
     1
 11
28.216401972768
 21
-36.587436653514
 31
0.0
100
AcDbText
 73
     2
  0
LINE
  5
16FF
330
16EB
100
AcDbEntity
  8
表題欄
100
AcDbLine
 10
20.278901972768
 20
-35.087447994505
 30
0.0
 11
20.278901972768
 21
-42.587447994505
 31
0.0
  0
TEXT
  5
1700
330
16EB
100
AcDbEntity
  8
表題欄
100
AcDbText
 10
5.364207399803
 20
-37.337413971523
 30
0.0
 40
1.5
  1
縮 尺  SCALE
  7
ＭＳ ゴシック
 72
     1
 11
11.216401972768
 21
-36.587413971523
 31
0.0
100
AcDbText
 73
     2
  0
TEXT
  5
1701
330
16EB
100
AcDbEntity
  8
表題欄
100
AcDbText
 10
5.313110113321
 20
-29.837413971523
 30
0.0
 40
1.5
  1
図 番  DRAWING No.
  7
ＭＳ ゴシック
 72
     1
 11
14.091401972768
 21
-29.087413971523
 31
0.0
100
AcDbText
 73
     2
  0
TEXT
  5
1702
330
16EB
100
AcDbEntity
  8
表題欄
100
AcDbText
 10
5.276158756562
 20
-22.337436653514
 30
0.0
 40
1.5
  1
部 位  POSITION
  7
ＭＳ ゴシック
 72
     1
 11
12.591401972768
 21
-21.587436653514
 31
0.0
100
AcDbText
 73
     2
  0
TEXT
  5
1703
330
16EB
100
AcDbEntity
  8
表題欄
100
AcDbText
 10
5.351890280883
 20
-14.837413971523
 30
0.0
 40
1.5
  1
名 称  NAME
  7
ＭＳ ゴシック
 72
     1
 11
10.716401972768
 21
-14.087413971523
 31
0.0
100
AcDbText
 73
     2
  0
LINE
  5
1704
330
16EB
100
AcDbEntity
  8
仮想線
100
AcDbLine
 10
-10.971098027232
 20
-45.587447994505
 30
0.0
 11
4.653901972768
 21
-45.587447994505
 31
0.0
  0
TEXT
  5
1705
330
16EB
100
AcDbEntity
  8
表題欄
100
AcDbText
 10
-10.236158362358
 20
-44.837436653514
 30
0.0
 40
1.5
  1
製 図  DRAWING
  7
ＭＳ ゴシック
 72
     1
 11
-3.408598027232
 21
-44.087436653514
 31
0.0
100
AcDbText
 73
     2
  0
LINE
  5
1706
330
16EB
100
AcDbEntity
  8
仮想線
100
AcDbLine
 10
-10.971098027232
 20
-38.087447994505
 30
0.0
 11
4.653901972768
 21
-38.087447994505
 31
0.0
  0
TEXT
  5
1707
330
16EB
100
AcDbEntity
  8
表題欄
100
AcDbText
 10
-10.348841243438
 20
-37.337436653514
 30
0.0
 40
1.5
  1
設 計  DESIGNED
  7
ＭＳ ゴシック
 72
     1
 11
-3.033598027232
 21
-36.587436653514
 31
0.0
100
AcDbText
 73
     2
  0
LINE
  5
1708
330
16EB
100
AcDbEntity
  8
仮想線
100
AcDbLine
 10
-10.971098027232
 20
-30.587447994505
 30
0.0
 11
4.653901972768
 21
-30.587447994505
 31
0.0
  0
TEXT
  5
1709
330
16EB
100
AcDbEntity
  8
表題欄
100
AcDbText
 10
-10.486158362358
 20
-29.837436653514
 30
0.0
 40
1.5
  1
検 図  CHECKED
  7
ＭＳ ゴシック
 72
     1
 11
-3.658598027232
 21
-29.087436653514
 31
0.0
100
AcDbText
 73
     2
  0
LINE
  5
170A
330
16EB
100
AcDbEntity
  8
仮想線
100
AcDbLine
 10
-10.971098027232
 20
-23.087447994505
 30
0.0
 11
4.653901972768
 21
-23.087447994505
 31
0.0
  0
LINE
  5
170B
330
16EB
100
AcDbEntity
  8
表題欄
100
AcDbLine
 10
-10.971098027232
 20
-20.087447994505
 30
0.0
 11
54.653901972768
 21
-20.087447994505
 31
0.0
  0
LINE
  5
170C
330
16EB
100
AcDbEntity
  8
仮想線
100
AcDbLine
 10
-10.971098027232
 20
-15.587447994505
 30
0.0
 11
4.653901972768
 21
-15.587447994505
 31
0.0
  0
LINE
  5
170D
330
16EB
100
AcDbEntity
  8
表題欄
100
AcDbLine
 10
-10.971098027232
 20
-42.587447994505
 30
0.0
 11
54.653901972768
 21
-42.587447994505
 31
0.0
  0
LINE
  5
170E
330
16EB
100
AcDbEntity
  8
表題欄
100
AcDbLine
 10
-10.971098027232
 20
-35.087447994505
 30
0.0
 11
54.653901972768
 21
-35.087447994505
 31
0.0
  0
LINE
  5
170F
330
16EB
100
AcDbEntity
  8
表題欄
100
AcDbLine
 10
-10.971098027232
 20
-27.587447994505
 30
0.0
 11
54.653901972768
 21
-27.587447994505
 31
0.0
  0
LINE
  5
1710
330
16EB
100
AcDbEntity
  8
表題欄
100
AcDbLine
 10
-10.971098027232
 20
-20.087447994505
 30
0.0
 11
4.653901972768
 21
-20.087447994505
 31
0.0
  0
LINE
  5
1711
330
16EB
100
AcDbEntity
  8
表題欄
100
AcDbLine
 10
4.653901972768
 20
-12.587425312518
 30
0.0
 11
4.653901972768
 21
-50.087402630532
 31
0.0
  0
LINE
  5
1712
330
16EB
100
AcDbEntity
  8
表題欄
100
AcDbLine
 10
54.653901972768
 20
-12.587425312518
 30
0.0
 11
54.653901972768
 21
-50.087402630532
 31
0.0
  0
LINE
  5
1713
330
16EB
100
AcDbEntity
  8
表題欄
100
AcDbLine
 10
-10.971098027232
 20
-50.087425312518
 30
0.0
 11
54.653901972768
 21
-50.087425312518
 31
0.0
  0
LINE
  5
1714
330
16EB
100
AcDbEntity
  8
表題欄
100
AcDbLine
 10
-10.971098027232
 20
-12.587447994505
 30
0.0
 11
-10.971098027232
 21
-50.087425312518
 31
0.0
  0
LINE
  5
1715
330
16EB
100
AcDbEntity
  8
表題欄
100
AcDbLine
 10
-10.971098027232
 20
-12.587447994505
 30
0.0
 11
54.653901972768
 21
-12.587447994505
 31
0.0
  0
TEXT
  5
1716
330
16EB
100
AcDbEntity
  8
表題欄
100
AcDbText
 10
12.197265287505
 20
-45.694515786829
 30
0.0
 40
2.5
  1
HAYAKAWA RUBER.CO.,LTD
  7
ＭＳ ゴシック
 72
     1
 11
30.078970927119
 21
-44.444515786829
 31
0.0
100
AcDbText
 73
     2
  0
TEXT
  5
1717
330
16EB
100
AcDbEntity
  8
表題欄
100
AcDbText
 10
16.892502341332
 20
-49.236756287726
 30
0.0
 40
2.5
  1
早川ゴム株式会社
  7
ＭＳ ゴシック
 72
     1
 11
29.897379170143
 21
-47.986756287726
 31
0.0
100
AcDbText
 73
     2
  0
TEXT
  5
1718
330
16EB
100
AcDbEntity
  8
表題欄
100
AcDbText
 10
-10.723841243438
 20
-14.837436653514
 30
0.0
 40
1.5
  1
初版作成日 DATE
  7
ＭＳ ゴシック
 72
     1
 11
-3.408598027232
 21
-14.087436653514
 31
0.0
100
AcDbText
 73
     2
  0
TEXT
  5
1719
330
16EB
100
AcDbEntity
  8
表題欄
100
AcDbText
 10
12.829009282394
 20
-48.774815337686
 30
0.0
 40
1.296537313423
  1
早
  7
ＭＳ ゴシック
 72
     4
 11
13.672074685644
 21
-48.192370633613
 31
0.0
100
AcDbText
  0
CIRCLE
  5
171A
330
16EB
100
AcDbEntity
  8
表題欄
100
AcDbCircle
 10
13.672074685644
 20
-48.192370633613
 30
0.0
 40
1.243443373654526
  0
CIRCLE
  5
171B
330
16EB
100
AcDbEntity
  8
表題欄
100
AcDbCircle
 10
14.251608110648
 20
-47.888691940232
 30
0.0
 40
1.899437983206664
  0
ENDBLK
  5
188B
330
16EB
100
AcDbEntity
  8
0
100
AcDbBlockEnd
  0
BLOCK
  5
188C
330
185B
100
AcDbEntity
  8
0
100
AcDbBlockBegin
  2
*T11
 70
     1
 10
0.0
 20
0.0
 30
0.0
  3
*T11
  1

  0
MTEXT
  5
1865
330
185B
100
AcDbEntity
  8
表題欄
 62
     0
100
AcDbMText
 10
18.75
 20
6.875
 30
0.0
 40
7.5
 41
33.75
 46
0.0
 71
     5
 72
     5
  1
符号
  7
ＭＳ ゴシック
 73
     1
 44
1.0
  0
MTEXT
  5
1866
330
185B
100
AcDbEntity
  8
表題欄
 62
     0
100
AcDbMText
 10
62.5
 20
6.875
 30
0.0
 40
7.5
 41
46.25
 46
0.0
 71
     5
 72
     5
  1
日付
  7
ＭＳ ゴシック
 73
     1
 44
1.0
  0
MTEXT
  5
1867
330
185B
100
AcDbEntity
  8
表題欄
 62
     0
100
AcDbMText
 10
106.25
 20
6.875
 30
0.0
 40
7.5
 41
33.75
 46
0.0
 71
     5
 72
     5
  1
訂正者
  7
ＭＳ ゴシック
 73
     1
 44
1.0
  0
MTEXT
  5
1868
330
185B
100
AcDbEntity
  8
表題欄
 62
     0
100
AcDbMText
 10
287.5
 20
6.875
 30
0.0
 40
7.5
 41
321.25
 46
0.0
 71
     5
 72
     5
  1
訂正概要
  7
ＭＳ ゴシック
 73
     1
 44
1.0
  0
INSERT
  5
1869
330
185B
100
AcDbEntity
  8
表題欄
 62
     0
100
AcDbBlockReference
  2
*U21
 10
12.976497308098
 20
15.625
 30
0.0
  0
INSERT
  5
186A
330
185B
100
AcDbEntity
  8
表題欄
 62
     0
100
AcDbBlockReference
  2
*U22
 10
12.976497308098
 20
29.375
 30
0.0
  0
INSERT
  5
186B
330
185B
100
AcDbEntity
  8
表題欄
 62
     0
100
AcDbBlockReference
  2
*U23
 10
12.976497308098
 20
43.125
 30
0.0
  0
INSERT
  5
186C
330
185B
100
AcDbEntity
  8
表題欄
 62
     0
100
AcDbBlockReference
  2
*U24
 10
12.976497308098
 20
56.875
 30
0.0
  0
LINE
  5
186D
330
185B
100
AcDbEntity
  8
表題欄
  6
ByBlock
 62
     0
370
    -2
100
AcDbLine
 10
0.0
 20
0.0
 30
0.0
 11
450.0
 21
0.0
 31
0.0
  0
LINE
  5
186E
330
185B
100
AcDbEntity
  8
表題欄
  6
ByBlock
 62
     0
370
    -2
100
AcDbLine
 10
0.0
 20
0.0
 30
0.0
 11
0.0
 21
68.75
 31
0.0
  0
LINE
  5
186F
330
185B
100
AcDbEntity
  8
表題欄
  6
ByBlock
 62
     0
370
    -2
100
AcDbLine
 10
37.5
 20
0.0
 30
0.0
 11
37.5
 21
68.75
 31
0.0
  0
LINE
  5
1870
330
185B
100
AcDbEntity
  8
表題欄
  6
ByBlock
 62
     0
370
    -2
100
AcDbLine
 10
87.5
 20
0.0
 30
0.0
 11
87.5
 21
68.75
 31
0.0
  0
LINE
  5
1871
330
185B
100
AcDbEntity
  8
表題欄
  6
ByBlock
 62
     0
370
    -2
100
AcDbLine
 10
125.0
 20
0.0
 30
0.0
 11
125.0
 21
68.75
 31
0.0
  0
LINE
  5
1872
330
185B
100
AcDbEntity
  8
表題欄
  6
ByBlock
 62
     0
370
    -2
100
AcDbLine
 10
450.0
 20
0.0
 30
0.0
 11
450.0
 21
68.75
 31
0.0
  0
LINE
  5
1873
330
185B
100
AcDbEntity
  8
表題欄
  6
ByBlock
 62
     0
370
    -2
100
AcDbLine
 10
0.0
 20
13.75
 30
0.0
 11
450.0
 21
13.75
 31
0.0
  0
LINE
  5
1874
330
185B
100
AcDbEntity
  8
表題欄
  6
ByBlock
 62
     0
370
    -2
100
AcDbLine
 10
0.0
 20
27.5
 30
0.0
 11
450.0
 21
27.5
 31
0.0
  0
LINE
  5
1875
330
185B
100
AcDbEntity
  8
表題欄
  6
ByBlock
 62
     0
370
    -2
100
AcDbLine
 10
0.0
 20
41.25
 30
0.0
 11
450.0
 21
41.25
 31
0.0
  0
LINE
  5
1876
330
185B
100
AcDbEntity
  8
表題欄
  6
ByBlock
 62
     0
370
    -2
100
AcDbLine
 10
0.0
 20
55.0
 30
0.0
 11
450.0
 21
55.0
 31
0.0
  0
LINE
  5
1877
330
185B
100
AcDbEntity
  8
表題欄
  6
ByBlock
 62
     0
370
    -2
100
AcDbLine
 10
0.0
 20
68.75
 30
0.0
 11
450.0
 21
68.75
 31
0.0
  0
ENDBLK
  5
188D
330
185B
100
AcDbEntity
  8
0
100
AcDbBlockEnd
  0
BLOCK
  5
188E
330
185C
100
AcDbEntity
  8
0
100
AcDbBlockBegin
  2
*U12
 70
     1
 10
0.0
 20
0.0
 30
0.0
  3
*U12
  1

  0
INSERT
  5
185D
330
185C
100
AcDbEntity
  8
0
100
AcDbBlockReference
  2
囲い文字1
 10
4.163741498082
 20
44.833324013919
 30
0.0
 41
3.446987668374
 42
3.446987668374
 43
3.446987668374
  0
ENDBLK
  5
188F
330
185C
100
AcDbEntity
  8
0
100
AcDbBlockEnd
  0
BLOCK
  5
1890
330
185E
100
AcDbEntity
  8
0
100
AcDbBlockBegin
  2
*U13
 70
     1
 10
0.0
 20
0.0
 30
0.0
  3
*U13
  1

  0
INSERT
  5
185F
330
185E
100
AcDbEntity
  8
0
100
AcDbBlockReference
  2
囲い文字2
 10
29.020280082295
 20
-53.885965169321
 30
0.0
 41
3.446987668374
 42
3.446987668374
 43
3.446987668374
  0
ENDBLK
  5
1891
330
185E
100
AcDbEntity
  8
0
100
AcDbBlockEnd
  0
BLOCK
  5
1892
330
1860
100
AcDbEntity
  8
0
100
AcDbBlockBegin
  2
*U14
 70
     1
 10
0.0
 20
0.0
 30
0.0
  3
*U14
  1

  0
INSERT
  5
1861
330
1860
100
AcDbEntity
  8
0
100
AcDbBlockReference
  2
囲い文字3
 10
14.463195287959
 20
-24.903733959604
 30
0.0
 41
3.446987668374
 42
3.446987668374
 43
3.446987668374
  0
ENDBLK
  5
1893
330
1860
100
AcDbEntity
  8
0
100
AcDbBlockEnd
  0
BLOCK
  5
1894
330
1862
100
AcDbEntity
  8
0
100
AcDbBlockBegin
  2
*U15
 70
     1
 10
0.0
 20
0.0
 30
0.0
  3
*U15
  1

  0
INSERT
  5
1863
330
1862
100
AcDbEntity
  8
0
100
AcDbBlockReference
  2
囲い文字4
 10
15.531435594298
 20
-18.313096846695
 30
0.0
 41
3.446987668374
 42
3.446987668374
 43
3.446987668374
  0
ENDBLK
  5
1895
330
1862
100
AcDbEntity
  8
0
100
AcDbBlockEnd
  0
BLOCK
  5
19F7
330
19DB
100
AcDbEntity
  8
0
100
AcDbBlockBegin
  2
*T16
 70
     1
 10
0.0
 20
0.0
 30
0.0
  3
*T16
  1

  0
MTEXT
  5
19E4
330
19DB
100
AcDbEntity
  8
表題欄
 62
     0
100
AcDbMText
 10
18.75
 20
6.875
 30
0.0
 40
7.5
 41
33.75
 46
0.0
 71
     5
 72
     5
  1
符号
  7
ＭＳ ゴシック
 73
     1
 44
1.0
  0
MTEXT
  5
19E5
330
19DB
100
AcDbEntity
  8
表題欄
 62
     0
100
AcDbMText
 10
62.5
 20
6.875
 30
0.0
 40
7.5
 41
46.25
 46
0.0
 71
     5
 72
     5
  1
日付
  7
ＭＳ ゴシック
 73
     1
 44
1.0
  0
MTEXT
  5
19E6
330
19DB
100
AcDbEntity
  8
表題欄
 62
     0
100
AcDbMText
 10
106.25
 20
6.875
 30
0.0
 40
7.5
 41
33.75
 46
0.0
 71
     5
 72
     5
  1
訂正者
  7
ＭＳ ゴシック
 73
     1
 44
1.0
  0
MTEXT
  5
19E7
330
19DB
100
AcDbEntity
  8
表題欄
 62
     0
100
AcDbMText
 10
287.5
 20
6.875
 30
0.0
 40
7.5
 41
321.25
 46
0.0
 71
     5
 72
     5
  1
訂正概要
  7
ＭＳ ゴシック
 73
     1
 44
1.0
  0
INSERT
  5
19E8
330
19DB
100
AcDbEntity
  8
表題欄
 62
     0
100
AcDbBlockReference
  2
*U33
 10
12.976497308098
 20
15.625
 30
0.0
  0
INSERT
  5
19E9
330
19DB
100
AcDbEntity
  8
表題欄
 62
     0
100
AcDbBlockReference
  2
*U34
 10
12.976497308098
 20
29.375
 30
0.0
  0
INSERT
  5
19EA
330
19DB
100
AcDbEntity
  8
表題欄
 62
     0
100
AcDbBlockReference
  2
*U35
 10
12.976497308098
 20
43.125
 30
0.0
  0
INSERT
  5
19EB
330
19DB
100
AcDbEntity
  8
表題欄
 62
     0
100
AcDbBlockReference
  2
*U36
 10
12.976497308098
 20
56.875
 30
0.0
  0
LINE
  5
19EC
330
19DB
100
AcDbEntity
  8
表題欄
  6
ByBlock
 62
     0
370
    -2
100
AcDbLine
 10
0.0
 20
0.0
 30
0.0
 11
450.0
 21
0.0
 31
0.0
  0
LINE
  5
19ED
330
19DB
100
AcDbEntity
  8
表題欄
  6
ByBlock
 62
     0
370
    -2
100
AcDbLine
 10
0.0
 20
0.0
 30
0.0
 11
0.0
 21
68.75
 31
0.0
  0
LINE
  5
19EE
330
19DB
100
AcDbEntity
  8
表題欄
  6
ByBlock
 62
     0
370
    -2
100
AcDbLine
 10
37.5
 20
0.0
 30
0.0
 11
37.5
 21
68.75
 31
0.0
  0
LINE
  5
19EF
330
19DB
100
AcDbEntity
  8
表題欄
  6
ByBlock
 62
     0
370
    -2
100
AcDbLine
 10
87.5
 20
0.0
 30
0.0
 11
87.5
 21
68.75
 31
0.0
  0
LINE
  5
19F0
330
19DB
100
AcDbEntity
  8
表題欄
  6
ByBlock
 62
     0
370
    -2
100
AcDbLine
 10
125.0
 20
0.0
 30
0.0
 11
125.0
 21
68.75
 31
0.0
  0
LINE
  5
19F1
330
19DB
100
AcDbEntity
  8
表題欄
  6
ByBlock
 62
     0
370
    -2
100
AcDbLine
 10
450.0
 20
0.0
 30
0.0
 11
450.0
 21
68.75
 31
0.0
  0
LINE
  5
19F2
330
19DB
100
AcDbEntity
  8
表題欄
  6
ByBlock
 62
     0
370
    -2
100
AcDbLine
 10
0.0
 20
13.75
 30
0.0
 11
450.0
 21
13.75
 31
0.0
  0
LINE
  5
19F3
330
19DB
100
AcDbEntity
  8
表題欄
  6
ByBlock
 62
     0
370
    -2
100
AcDbLine
 10
0.0
 20
27.5
 30
0.0
 11
450.0
 21
27.5
 31
0.0
  0
LINE
  5
19F4
330
19DB
100
AcDbEntity
  8
表題欄
  6
ByBlock
 62
     0
370
    -2
100
AcDbLine
 10
0.0
 20
41.25
 30
0.0
 11
450.0
 21
41.25
 31
0.0
  0
LINE
  5
19F5
330
19DB
100
AcDbEntity
  8
表題欄
  6
ByBlock
 62
     0
370
    -2
100
AcDbLine
 10
0.0
 20
55.0
 30
0.0
 11
450.0
 21
55.0
 31
0.0
  0
LINE
  5
19F6
330
19DB
100
AcDbEntity
  8
表題欄
  6
ByBlock
 62
     0
370
    -2
100
AcDbLine
 10
0.0
 20
68.75
 30
0.0
 11
450.0
 21
68.75
 31
0.0
  0
ENDBLK
  5
19F8
330
19DB
100
AcDbEntity
  8
0
100
AcDbBlockEnd
  0
BLOCK
  5
19F9
330
19DC
100
AcDbEntity
  8
0
100
AcDbBlockBegin
  2
*U17
 70
     1
 10
0.0
 20
0.0
 30
0.0
  3
*U17
  1

  0
INSERT
  5
19DD
330
19DC
100
AcDbEntity
  8
0
100
AcDbBlockReference
  2
囲い文字1
 10
4.163741498082
 20
44.833324013919
 30
0.0
 41
3.446987668374
 42
3.446987668374
 43
3.446987668374
  0
ENDBLK
  5
19FA
330
19DC
100
AcDbEntity
  8
0
100
AcDbBlockEnd
  0
BLOCK
  5
19FB
330
19DE
100
AcDbEntity
  8
0
100
AcDbBlockBegin
  2
*U18
 70
     1
 10
0.0
 20
0.0
 30
0.0
  3
*U18
  1

  0
INSERT
  5
19DF
330
19DE
100
AcDbEntity
  8
0
100
AcDbBlockReference
  2
囲い文字2
 10
29.020280082295
 20
-53.885965169321
 30
0.0
 41
3.446987668374
 42
3.446987668374
 43
3.446987668374
  0
ENDBLK
  5
19FC
330
19DE
100
AcDbEntity
  8
0
100
AcDbBlockEnd
  0
BLOCK
  5
19FD
330
19E0
100
AcDbEntity
  8
0
100
AcDbBlockBegin
  2
*U19
 70
     1
 10
0.0
 20
0.0
 30
0.0
  3
*U19
  1

  0
INSERT
  5
19E1
330
19E0
100
AcDbEntity
  8
0
100
AcDbBlockReference
  2
囲い文字3
 10
14.463195287959
 20
-24.903733959604
 30
0.0
 41
3.446987668374
 42
3.446987668374
 43
3.446987668374
  0
ENDBLK
  5
19FE
330
19E0
100
AcDbEntity
  8
0
100
AcDbBlockEnd
  0
BLOCK
  5
19FF
330
19E2
100
AcDbEntity
  8
0
100
AcDbBlockBegin
  2
*U20
 70
     1
 10
0.0
 20
0.0
 30
0.0
  3
*U20
  1

  0
INSERT
  5
19E3
330
19E2
100
AcDbEntity
  8
0
100
AcDbBlockReference
  2
囲い文字4
 10
15.531435594298
 20
-18.313096846695
 30
0.0
 41
3.446987668374
 42
3.446987668374
 43
3.446987668374
  0
ENDBLK
  5
1A00
330
19E2
100
AcDbEntity
  8
0
100
AcDbBlockEnd
  0
BLOCK
  5
1A11
330
1A01
100
AcDbEntity
  8
0
100
AcDbBlockBegin
  2
*U21
 70
     1
 10
0.0
 20
0.0
 30
0.0
  3
*U21
  1

  0
INSERT
  5
1A02
330
1A01
100
AcDbEntity
  8
0
100
AcDbBlockReference
  2
囲い文字1
 10
4.163741498082
 20
44.833324013919
 30
0.0
 41
3.446987668374
 42
3.446987668374
 43
3.446987668374
  0
ENDBLK
  5
1A12
330
1A01
100
AcDbEntity
  8
0
100
AcDbBlockEnd
  0
BLOCK
  5
1A13
330
1A03
100
AcDbEntity
  8
0
100
AcDbBlockBegin
  2
*U22
 70
     1
 10
0.0
 20
0.0
 30
0.0
  3
*U22
  1

  0
INSERT
  5
1A04
330
1A03
100
AcDbEntity
  8
0
100
AcDbBlockReference
  2
囲い文字2
 10
29.020280082295
 20
-53.885965169321
 30
0.0
 41
3.446987668374
 42
3.446987668374
 43
3.446987668374
  0
ENDBLK
  5
1A14
330
1A03
100
AcDbEntity
  8
0
100
AcDbBlockEnd
  0
BLOCK
  5
1A15
330
1A05
100
AcDbEntity
  8
0
100
AcDbBlockBegin
  2
*U23
 70
     1
 10
0.0
 20
0.0
 30
0.0
  3
*U23
  1

  0
INSERT
  5
1A06
330
1A05
100
AcDbEntity
  8
0
100
AcDbBlockReference
  2
囲い文字3
 10
14.463195287959
 20
-24.903733959604
 30
0.0
 41
3.446987668374
 42
3.446987668374
 43
3.446987668374
  0
ENDBLK
  5
1A16
330
1A05
100
AcDbEntity
  8
0
100
AcDbBlockEnd
  0
BLOCK
  5
1A17
330
1A07
100
AcDbEntity
  8
0
100
AcDbBlockBegin
  2
*U24
 70
     1
 10
0.0
 20
0.0
 30
0.0
  3
*U24
  1

  0
INSERT
  5
1A08
330
1A07
100
AcDbEntity
  8
0
100
AcDbBlockReference
  2
囲い文字4
 10
15.531435594298
 20
-18.313096846695
 30
0.0
 41
3.446987668374
 42
3.446987668374
 43
3.446987668374
  0
ENDBLK
  5
1A18
330
1A07
100
AcDbEntity
  8
0
100
AcDbBlockEnd
  0
BLOCK
  5
1A19
330
1A09
100
AcDbEntity
  8
0
100
AcDbBlockBegin
  2
*U25
 70
     1
 10
0.0
 20
0.0
 30
0.0
  3
*U25
  1

  0
INSERT
  5
1A0A
330
1A09
100
AcDbEntity
  8
0
100
AcDbBlockReference
  2
囲い文字1
 10
4.163741498082
 20
44.833324013919
 30
0.0
 41
3.446987668374
 42
3.446987668374
 43
3.446987668374
  0
ENDBLK
  5
1A1A
330
1A09
100
AcDbEntity
  8
0
100
AcDbBlockEnd
  0
BLOCK
  5
1A1B
330
1A0B
100
AcDbEntity
  8
0
100
AcDbBlockBegin
  2
*U26
 70
     1
 10
0.0
 20
0.0
 30
0.0
  3
*U26
  1

  0
INSERT
  5
1A0C
330
1A0B
100
AcDbEntity
  8
0
100
AcDbBlockReference
  2
囲い文字2
 10
29.020280082295
 20
-53.885965169321
 30
0.0
 41
3.446987668374
 42
3.446987668374
 43
3.446987668374
  0
ENDBLK
  5
1A1C
330
1A0B
100
AcDbEntity
  8
0
100
AcDbBlockEnd
  0
BLOCK
  5
1A1D
330
1A0D
100
AcDbEntity
  8
0
100
AcDbBlockBegin
  2
*U27
 70
     1
 10
0.0
 20
0.0
 30
0.0
  3
*U27
  1

  0
INSERT
  5
1A0E
330
1A0D
100
AcDbEntity
  8
0
100
AcDbBlockReference
  2
囲い文字3
 10
14.463195287959
 20
-24.903733959604
 30
0.0
 41
3.446987668374
 42
3.446987668374
 43
3.446987668374
  0
ENDBLK
  5
1A1E
330
1A0D
100
AcDbEntity
  8
0
100
AcDbBlockEnd
  0
BLOCK
  5
1A1F
330
1A0F
100
AcDbEntity
  8
0
100
AcDbBlockBegin
  2
*U28
 70
     1
 10
0.0
 20
0.0
 30
0.0
  3
*U28
  1

  0
INSERT
  5
1A10
330
1A0F
100
AcDbEntity
  8
0
100
AcDbBlockReference
  2
囲い文字4
 10
15.531435594298
 20
-18.313096846695
 30
0.0
 41
3.446987668374
 42
3.446987668374
 43
3.446987668374
  0
ENDBLK
  5
1A20
330
1A0F
100
AcDbEntity
  8
0
100
AcDbBlockEnd
  0
BLOCK
  5
1A29
330
1A21
100
AcDbEntity
  8
0
100
AcDbBlockBegin
  2
*U29
 70
     1
 10
0.0
 20
0.0
 30
0.0
  3
*U29
  1

  0
INSERT
  5
1A22
330
1A21
100
AcDbEntity
  8
0
100
AcDbBlockReference
  2
囲い文字1
 10
4.163741498082
 20
44.833324013919
 30
0.0
 41
3.446987668374
 42
3.446987668374
 43
3.446987668374
  0
ENDBLK
  5
1A2A
330
1A21
100
AcDbEntity
  8
0
100
AcDbBlockEnd
  0
BLOCK
  5
1A2B
330
1A23
100
AcDbEntity
  8
0
100
AcDbBlockBegin
  2
*U30
 70
     1
 10
0.0
 20
0.0
 30
0.0
  3
*U30
  1

  0
INSERT
  5
1A24
330
1A23
100
AcDbEntity
  8
0
100
AcDbBlockReference
  2
囲い文字2
 10
29.020280082295
 20
-53.885965169321
 30
0.0
 41
3.446987668374
 42
3.446987668374
 43
3.446987668374
  0
ENDBLK
  5
1A2C
330
1A23
100
AcDbEntity
  8
0
100
AcDbBlockEnd
  0
BLOCK
  5
1A2D
330
1A25
100
AcDbEntity
  8
0
100
AcDbBlockBegin
  2
*U31
 70
     1
 10
0.0
 20
0.0
 30
0.0
  3
*U31
  1

  0
INSERT
  5
1A26
330
1A25
100
AcDbEntity
  8
0
100
AcDbBlockReference
  2
囲い文字3
 10
14.463195287959
 20
-24.903733959604
 30
0.0
 41
3.446987668374
 42
3.446987668374
 43
3.446987668374
  0
ENDBLK
  5
1A2E
330
1A25
100
AcDbEntity
  8
0
100
AcDbBlockEnd
  0
BLOCK
  5
1A2F
330
1A27
100
AcDbEntity
  8
0
100
AcDbBlockBegin
  2
*U32
 70
     1
 10
0.0
 20
0.0
 30
0.0
  3
*U32
  1

  0
INSERT
  5
1A28
330
1A27
100
AcDbEntity
  8
0
100
AcDbBlockReference
  2
囲い文字4
 10
15.531435594298
 20
-18.313096846695
 30
0.0
 41
3.446987668374
 42
3.446987668374
 43
3.446987668374
  0
ENDBLK
  5
1A30
330
1A27
100
AcDbEntity
  8
0
100
AcDbBlockEnd
  0
BLOCK
  5
1A33
330
1A31
100
AcDbEntity
  8
0
100
AcDbBlockBegin
  2
*U33
 70
     1
 10
0.0
 20
0.0
 30
0.0
  3
*U33
  1

  0
INSERT
  5
1A32
330
1A31
100
AcDbEntity
  8
0
100
AcDbBlockReference
  2
囲い文字1
 10
4.163741498082
 20
44.833324013919
 30
0.0
 41
3.446987668374
 42
3.446987668374
 43
3.446987668374
  0
ENDBLK
  5
1A34
330
1A31
100
AcDbEntity
  8
0
100
AcDbBlockEnd
  0
BLOCK
  5
1A37
330
1A35
100
AcDbEntity
  8
0
100
AcDbBlockBegin
  2
*U34
 70
     1
 10
0.0
 20
0.0
 30
0.0
  3
*U34
  1

  0
INSERT
  5
1A36
330
1A35
100
AcDbEntity
  8
0
100
AcDbBlockReference
  2
囲い文字2
 10
29.020280082295
 20
-53.885965169321
 30
0.0
 41
3.446987668374
 42
3.446987668374
 43
3.446987668374
  0
ENDBLK
  5
1A38
330
1A35
100
AcDbEntity
  8
0
100
AcDbBlockEnd
  0
BLOCK
  5
1A3B
330
1A39
100
AcDbEntity
  8
0
100
AcDbBlockBegin
  2
*U35
 70
     1
 10
0.0
 20
0.0
 30
0.0
  3
*U35
  1

  0
INSERT
  5
1A3A
330
1A39
100
AcDbEntity
  8
0
100
AcDbBlockReference
  2
囲い文字3
 10
14.463195287959
 20
-24.903733959604
 30
0.0
 41
3.446987668374
 42
3.446987668374
 43
3.446987668374
  0
ENDBLK
  5
1A3C
330
1A39
100
AcDbEntity
  8
0
100
AcDbBlockEnd
  0
BLOCK
  5
1A3F
330
1A3D
100
AcDbEntity
  8
0
100
AcDbBlockBegin
  2
*U36
 70
     1
 10
0.0
 20
0.0
 30
0.0
  3
*U36
  1

  0
INSERT
  5
1A3E
330
1A3D
100
AcDbEntity
  8
0
100
AcDbBlockReference
  2
囲い文字4
 10
15.531435594298
 20
-18.313096846695
 30
0.0
 41
3.446987668374
 42
3.446987668374
 43
3.446987668374
  0
ENDBLK
  5
1A40
330
1A3D
100
AcDbEntity
  8
0
100
AcDbBlockEnd
  0
ENDSEC
  0
SECTION
  2
ENTITIES
  0
LINE
  5
1896
330
A
100
AcDbEntity
  8
寸法線
100
AcDbLine
 10
461.15629673309
 20
912.752897515784
 30
0.0
 11
410.067817292962
 21
1001.241753897273
 31
0.0
  0
LINE
  5
1897
330
A
100
AcDbEntity
  8
寸法線
100
AcDbLine
 10
410.067817292962
 20
1001.241753897273
 30
0.0
 11
398.067817292962
 21
1001.241753897273
 31
0.0
  0
TEXT
  5
1898
330
A
100
AcDbEntity
  8
文字
100
AcDbText
 10
299.892125309787
 20
997.40326549075
 30
0.0
 40
12.0
  1
IBシリコーン
  7
基本スタイル
 72
     2
 11
393.527238477225
 21
997.40326549075
 31
0.0
100
AcDbText
1001
AcadAnnotative
1000
AnnotativeData
1002
{
1070
     1
1070
     0
1002
}
  0
HATCH
  5
1899
330
A
100
AcDbEntity
  8
シーリング(IBｼﾘｺｰﾝ)
100
AcDbHatch
 10
0.0
 20
0.0
 30
0.0
210
0.0
220
0.0
230
1.0
  2
DOTS1
 70
     0
 71
     0
 91
        1
 92
        7
 72
     1
 73
     1
 93
        6
 10
461.1476262825672
 20
912.7852567201044
 42
0.0
 10
461.1562967330901
 20
912.7528975157838
 42
0.0
 10
461.1434157015101
 20
912.7657786752352
 42
-0.0155627066609126
 10
460.9680842790403
 20
912.0641442962369
 42
0.0
 10
462.8665303546368
 20
912.0641442962369
 42
-0.2192431477161791
 10
461.4078764907608
 20
915.230810961526
 42
-0.053059043069015
 97
        0
 75
     0
 76
     1
 52
45.0
 41
3.0
 77
     0
 78
     1
 53
45.0
 43
48219.12782657677
 44
-20774.4810692938
 45
-0.0662912607362388
 46
0.1988737822087165
 79
     2
 49
0.0
 49
-0.1875
 47
0.0
 98
        1
 10
461.72782657676
 20
912.4189307062043
1001
ACAD
1010
0.0
1020
0.0
1030
0.0
  0
LWPOLYLINE
  5
189A
330
A
100
AcDbEntity
  8
寸法線
100
AcDbPolyline
 90
        3
 70
     0
 43
0.0
 10
456.913677104189
 20
916.995559260991
 10
461.15629673309
 20
912.752897515784
 10
459.603411228476
 20
918.548460181264
  0
TEXT
  5
189B
330
A
100
AcDbEntity
  8
文字
100
AcDbText
 10
346.709681893506
 20
979.77628183156
 30
0.0
 40
12.0
  1
(別途)
  7
基本スタイル
 72
     2
 11
393.527238477225
 21
979.77628183156
 31
0.0
100
AcDbText
1001
AcadAnnotative
1000
AnnotativeData
1002
{
1070
     1
1070
     0
1002
}
  0
LWPOLYLINE
  5
189C
330
A
100
AcDbEntity
  8
輪郭線
100
AcDbPolyline
 90
        4
 70
     1
 43
0.0
 10
1640.0
 20
1148.0
 10
40.0
 20
1148.0
 10
40.0
 20
40.0
 10
1640.0
 20
40.0
  0
LWPOLYLINE
  5
189D
330
A
100
AcDbEntity
  8
図面枠
100
AcDbPolyline
 90
        4
 70
     1
 43
0.0
 10
1680.0
 20
0.0
 10
1680.0
 20
1188.0
 10
0.0
 20
1188.0
 10
0.0
 20
0.0
  0
TEXT
  5
189E
330
A
100
AcDbEntity
  8
文字
100
AcDbText
 10
1381.016085259787
 20
201.201143699771
 30
0.0
 40
12.0
  1
＊防水部材の厚みはフリースケール
  7
ＭＳ ゴシック
 72
     1
 11
1505.86290281637
 21
207.201143699771
 31
0.0
100
AcDbText
 73
     2
  0
ACAD_TABLE
  5
189F
102
{ACAD_XDICTIONARY
360
1A76
102
}
330
A
100
AcDbEntity
  8
表題欄
160
               344
310
5801000002000000CC000000260000000000000000FC8C400000000000004440000000000000000000000000000000000000000000000000000000000000F03F000000000000F03F0000000000000000000000000000000041006300440062005400610062006C006500000009000000000000000000000000000000000000
310
000000F03F0000000000000000000000000000F03F00000000000000000000000000000000000000000000000000000000000000000000000000000000740078007400000042004900470046004F004E00540000008400000006000000050000000000000000FC8C4000000000000044400000000000000000000000000086
310
95400000000000004440000000000000000000000000008695400000000000305B4000000000000000000000000000FC8C400000000000305B4000000000000000000000000000FC8C4000000000000044400000000000000000
100
AcDbBlockReference
  2
*T16
 10
927.5
 20
40.0
 30
0.0
100
AcDbTable
342
1661
343
19DB
 11
1.0
 21
0.0
 31
0.0
 90
        6
 91
        5
 92
        4
 93
       24
 94
        0
 95
        0
 96
        0
 40
1.875
 41
1.875
141
13.75
141
13.75
141
13.75
141
13.75
141
13.75
142
37.5
142
50.0
142
37.5
142
325.0
171
     1
172
     0
173
     0
174
     0
175
     1
176
     1
 91
       32
178
     0
145
0.0
140
7.5
 92
        0
301
CELL_VALUE
 93
        4
 90
        4
  1
符号
 94
        0
300

302
符号
304
ACVALUE_END
171
     1
172
     0
173
     0
174
     0
175
     1
176
     1
 91
       32
178
     0
145
0.0
140
7.5
 92
        0
301
CELL_VALUE
 93
        4
 90
        4
  1
日付
 94
        0
300

302
日付
304
ACVALUE_END
171
     1
172
     0
173
     0
174
     0
175
     1
176
     1
 91
       32
178
     0
145
0.0
140
7.5
 92
        0
301
CELL_VALUE
 93
        4
 90
        4
  1
訂正者
 94
        0
300

302
訂正者
304
ACVALUE_END
171
     1
172
     0
173
     0
174
     0
175
     1
176
     1
 91
       32
178
     0
145
0.0
140
7.5
 92
        0
301
CELL_VALUE
 93
        4
 90
        4
  1
訂正概要
 94
        0
300

302
訂正概要
304
ACVALUE_END
171
     1
172
     0
173
     0
174
     0
175
     1
176
     1
 91
       32
178
     0
145
0.0
140
7.5
 92
        0
301
CELL_VALUE
 93
        4
 90
        4
  1

 94
        0
300

302

304
ACVALUE_END
171
     1
172
     0
173
     0
174
     0
175
     1
176
     1
 91
       32
178
     0
145
0.0
140
7.5
 92
        0
301
CELL_VALUE
 93
        4
 90
        4
  1

 94
        0
300

302

304
ACVALUE_END
171
     1
172
     0
173
     0
174
     0
175
     1
176
     1
 91
       32
178
     0
145
0.0
140
7.5
 92
        0
301
CELL_VALUE
 93
        4
 90
        4
  1

 94
        0
300

302

304
ACVALUE_END
171
     1
172
     0
173
     0
174
     0
175
     1
176
     1
 91
       33
178
     0
145
0.0
170
     4
140
7.5
 92
        0
301
CELL_VALUE
 93
        4
 90
        4
  1

 94
        0
300

302

304
ACVALUE_END
171
     1
172
     0
173
     0
174
     0
175
     1
176
     1
 91
       33
178
     0
145
0.0
170
     5
140
7.5
 92
        0
301
CELL_VALUE
 93
        4
 90
        4
  1

 94
        0
300

302

304
ACVALUE_END
171
     1
172
     0
173
     0
174
     0
175
     1
176
     1
 91
       33
178
     0
145
0.0
170
     5
140
7.5
 92
        0
301
CELL_VALUE
 93
        4
 90
        4
  1

 94
        0
300

302

304
ACVALUE_END
171
     1
172
     0
173
     0
174
     0
175
     1
176
     1
 91
       33
178
     0
145
0.0
170
     5
140
7.5
 92
        0
301
CELL_VALUE
 93
        4
 90
        4
  1

 94
        0
300

302

304
ACVALUE_END
171
     1
172
     0
173
     0
174
     0
175
     1
176
     1
 91
       33
178
     0
145
0.0
170
     4
140
7.5
 92
        0
301
CELL_VALUE
 93
        4
 90
        4
  1

 94
        0
300

302

304
ACVALUE_END
171
     1
172
     0
173
     0
174
     0
175
     1
176
     1
 91
       33
178
     0
145
0.0
170
     5
140
7.5
 92
        0
301
CELL_VALUE
 93
        4
 90
        4
  1

 94
        0
300

302

304
ACVALUE_END
171
     1
172
     0
173
     0
174
     0
175
     1
176
     1
 91
       33
178
     0
145
0.0
170
     5
140
7.5
 92
        0
301
CELL_VALUE
 93
        4
 90
        4
  1

 94
        0
300

302

304
ACVALUE_END
171
     1
172
     0
173
     0
174
     0
175
     1
176
     1
 91
       33
178
     0
145
0.0
170
     5
140
7.5
 92
        0
301
CELL_VALUE
 93
        4
 90
        4
  1

 94
        0
300

302

304
ACVALUE_END
171
     1
172
     0
173
     0
174
     0
175
     1
176
     1
 91
       33
178
     0
145
0.0
170
     4
140
7.5
 92
        0
301
CELL_VALUE
 93
        4
 90
        4
  1

 94
        0
300

302

304
ACVALUE_END
171
     1
172
     0
173
     0
174
     0
175
     1
176
     1
 91
       33
178
     0
145
0.0
170
     5
140
7.5
 92
        0
301
CELL_VALUE
 93
        4
 90
        4
  1

 94
        0
300

302

304
ACVALUE_END
171
     1
172
     0
173
     0
174
     0
175
     1
176
     1
 91
       33
178
     0
145
0.0
170
     5
140
7.5
 92
        0
301
CELL_VALUE
 93
        4
 90
        4
  1

 94
        0
300

302

304
ACVALUE_END
171
     1
172
     0
173
     0
174
     0
175
     1
176
     1
 91
       33
178
     0
145
0.0
170
     5
140
7.5
 92
        0
301
CELL_VALUE
 93
        4
 90
        4
  1

 94
        0
300

302

304
ACVALUE_END
171
     1
172
     0
173
     0
174
     0
175
     1
176
     1
 91
       33
178
     0
145
0.0
170
     4
140
7.5
 92
        0
301
CELL_VALUE
 93
        4
 90
        4
  1

 94
        0
300

302

304
ACVALUE_END
  0
INSERT
  5
18A0
330
A
100
AcDbEntity
  8
表題欄
100
AcDbBlockReference
 66
     1
  2
表題欄(定義)
 10
1421.384392108928
 20
240.349701250074
 30
0.0
 41
4.0
 42
4.0
 43
4.0
  0
ATTRIB
  5
18A1
102
{ACAD_XDICTIONARY
360
18A2
102
}
330
18A0
100
AcDbEntity
  8
表題欄
100
AcDbText
 10
1518.100000000006
 20
75.999909272054
 30
0.0
 40
6.0
  1

  7
ＭＳ ゴシック
100
AcDbAttribute
  2
REMARKS
 70
     0
280
     0
1001
AcadAnnotative
1000
AnnotativeData
1002
{
1070
     1
1070
     0
1002
}
  0
ATTRIB
  5
18A5
102
{ACAD_XDICTIONARY
360
18A6
102
}
330
18A0
100
AcDbEntity
  8
表題欄
100
AcDbText
 10
1456.505610854077
 20
75.999909272054
 30
0.0
 40
6.0
  1
A3-1:4
  7
ＭＳ ゴシック
 72
     1
 11
1468.210000000006
 21
78.999909272054
 31
0.0
100
AcDbAttribute
  2
SCALE
 70
     0
 74
     2
280
     0
1001
AcadAnnotative
1000
AnnotativeData
1002
{
1070
     1
1070
     0
1002
}
  0
ATTRIB
  5
18A9
102
{ACAD_XDICTIONARY
360
18AA
102
}
330
18A0
100
AcDbEntity
  8
表題欄
100
AcDbText
 10
1454.5
 20
108.999909272054
 30
0.0
 40
6.0
  1
LLHD-P06
  7
ＭＳ ゴシック
100
AcDbAttribute
  2
DRAWING　NO.
 70
     0
280
     0
1001
AcadAnnotative
1000
AnnotativeData
1002
{
1070
     1
1070
     0
1002
}
  0
ATTRIB
  5
18AD
102
{ACAD_XDICTIONARY
360
18AE
102
}
330
18A0
100
AcDbEntity
  8
表題欄
100
AcDbText
 10
1454.5
 20
138.999909272054
 30
0.0
 40
6.0
  1
パラペット(6)笠木 新築
  7
ＭＳ ゴシック
100
AcDbAttribute
  2
POSITION
 70
     0
280
     0
1001
AcadAnnotative
1000
AnnotativeData
1002
{
1070
     1
1070
     0
1002
}
  0
ATTRIB
  5
18B1
102
{ACAD_XDICTIONARY
360
18B2
102
}
330
18A0
100
AcDbEntity
  8
表題欄
100
AcDbText
 10
1454.5
 20
168.999909272054
 30
0.0
 40
6.0
  1
高耐久仕様・非断熱機械的固定 LL-HD工法
  7
ＭＳ ゴシック
100
AcDbAttribute
  2
NAME
 70
     0
280
     0
1001
AcadAnnotative
1000
AnnotativeData
1002
{
1070
     1
1070
     0
1002
}
  0
ATTRIB
  5
18B5
102
{ACAD_XDICTIONARY
360
18B6
102
}
330
18A0
100
AcDbEntity
  8
表題欄
100
AcDbText
 10
1398.996342378392
 20
45.999909272054
 30
0.0
 40
6.0
  1
小 山
  7
ＭＳ ゴシック
 72
     1
 11
1408.75
 21
48.999909272054
 31
0.0
100
AcDbAttribute
  2
DRAWING
 70
     0
 74
     2
280
     0
1001
AcadAnnotative
1000
AnnotativeData
1002
{
1070
     1
1070
     0
1002
}
  0
ATTRIB
  5
18B9
330
18A0
100
AcDbEntity
  8
表題欄
100
AcDbText
 10
1408.75
 20
75.999909272054
 30
0.0
 40
6.0
  1

  7
ＭＳ ゴシック
 72
     1
 11
1408.75
 21
78.999909272054
 31
0.0
100
AcDbAttribute
  2
DESIGNED
 70
     0
 74
     2
280
     0
  0
ATTRIB
  5
18BA
102
{ACAD_XDICTIONARY
360
18BB
102
}
330
18A0
100
AcDbEntity
  8
表題欄
100
AcDbText
 10
1398.996342378392
 20
105.999909272054
 30
0.0
 40
6.0
  1
早 川
  7
ＭＳ ゴシック
 72
     1
 11
1408.75
 21
108.999909272054
 31
0.0
100
AcDbAttribute
  2
CHECKED
 70
     0
 74
     2
280
     0
1001
AcadAnnotative
1000
AnnotativeData
1002
{
1070
     1
1070
     0
1002
}
  0
ATTRIB
  5
18BE
102
{ACAD_XDICTIONARY
360
18BF
102
}
330
18A0
100
AcDbEntity
  8
表題欄
100
AcDbText
 10
1393.144147805427
 20
135.999909272054
 30
0.0
 40
6.0
  1
20210317
  7
ＭＳ ゴシック
 72
     1
 11
1408.75
 21
138.999909272054
 31
0.0
100
AcDbAttribute
  2
ISSUE
 70
     0
 74
     2
280
     0
1001
AcadAnnotative
1000
AnnotativeData
1002
{
1070
     1
1070
     0
1002
}
  0
ATTRIB
  5
18C2
102
{ACAD_XDICTIONARY
360
18C3
102
}
330
18A0
100
AcDbEntity
  8
表題欄
100
AcDbText
 10
1393.144147805427
 20
165.999909272054
 30
0.0
 40
6.0
  1
20200309
  7
ＭＳ ゴシック
 72
     1
 11
1408.75
 21
168.999909272054
 31
0.0
100
AcDbAttribute
  2
DATE
 70
     0
 74
     2
280
     0
1001
AcadAnnotative
1000
AnnotativeData
1002
{
1070
     1
1070
     0
1002
}
  0
SEQEND
  5
18C6
330
18A0
100
AcDbEntity
  8
表題欄
  0
LINE
  5
18C7
330
A
100
AcDbEntity
  8
躯体
100
AcDbLine
 10
660.635181860205
 20
311.064144296521
 30
0.0
 11
660.635181860205
 21
911.064144296521
 31
0.0
  0
LINE
  5
18C8
330
A
100
AcDbEntity
  8
躯体
100
AcDbLine
 10
660.635181860205
 20
311.064144296521
 30
0.0
 11
1260.635181860205
 21
311.064144296521
 31
0.0
  0
LINE
  5
18C9
330
A
100
AcDbEntity
  8
躯体
100
AcDbLine
 10
460.635181860205
 20
911.064144296521
 30
0.0
 11
660.635181860205
 21
911.064144296521
 31
0.0
  0
LINE
  5
18CA
330
A
100
AcDbEntity
  8
躯体
100
AcDbLine
 10
460.592786148052
 20
808.448108015393
 30
0.0
 11
580.635181860205
 21
700.398429647292
 31
0.0
  0
LINE
  5
18CB
330
A
100
AcDbEntity
  8
躯体
100
AcDbLine
 10
460.635181860205
 20
812.268396288593
 30
0.0
 11
580.635181860205
 21
704.191285046159
 31
0.0
  0
LINE
  5
18CC
330
A
100
AcDbEntity
  8
躯体
100
AcDbLine
 10
460.569127533585
 20
816.176428896171
 30
0.0
 11
580.635181860205
 21
708.14904447717
 31
0.0
  0
LINE
  5
18CD
330
A
100
AcDbEntity
  8
躯体
100
AcDbLine
 10
956.348474054284
 20
311.064144296521
 30
0.0
 11
1122.997367681513
 21
161.064144296521
 31
0.0
  0
LINE
  5
18CE
330
A
100
AcDbEntity
  8
躯体
100
AcDbLine
 10
960.635181860205
 20
311.064144296521
 30
0.0
 11
1127.182934599667
 21
161.064144296521
 31
0.0
  0
LINE
  5
18CF
330
A
100
AcDbEntity
  8
躯体
100
AcDbLine
 10
964.91267484703
 20
311.064144296521
 30
0.0
 11
1131.628811184637
 21
161.064144296528
 31
0.0
  0
LINE
  5
18D0
330
A
100
AcDbEntity
  8
躯体
100
AcDbLine
 10
460.592786148052
 20
517.243856023328
 30
0.0
 11
580.635181860205
 21
409.194177655219
 31
0.0
  0
LINE
  5
18D1
330
A
100
AcDbEntity
  8
躯体
100
AcDbLine
 10
460.635181860205
 20
521.064144296521
 30
0.0
 11
580.635181860205
 21
412.987033054087
 31
0.0
  0
LINE
  5
18D2
330
A
100
AcDbEntity
  8
躯体
100
AcDbLine
 10
460.569127533585
 20
524.972176904099
 30
0.0
 11
580.635181860205
 21
416.944792485097
 31
0.0
  0
LINE
  5
18D3
330
A
100
AcDbEntity
  8
躯体
100
AcDbLine
 10
460.635181860205
 20
311.064144296521
 30
0.0
 11
460.635181860205
 21
911.064144296521
 31
0.0
  0
HATCH
  5
18D4
102
{ACAD_XDICTIONARY
360
18D5
102
}
330
A
100
AcDbEntity
  8
ハッチング
 62
   254
420
 14539994
100
AcDbHatch
 10
0.0
 20
0.0
 30
0.0
210
0.0
220
0.0
230
1.0
  2
SOLID
 70
     1
 71
     0
 91
        1
 92
        7
 72
     0
 73
     1
 93
        4
 10
668.3018485262073
 20
912.0641442965207
 10
618.3018485262073
 20
912.0641442965207
 10
618.3018485262073
 20
918.7308109625301
 10
668.3018485262073
 20
918.7308109625301
 97
        0
 75
     1
 76
     1
 47
0.0
 98
        1
 10
636.6854831971359
 20
914.7636798151507
1001
ACAD
1010
0.0
1020
0.0
1030
0.0
1001
AcadAnnotative
1000
AnnotativeData
1002
{
1070
     1
1070
     0
1002
}
  0
HATCH
  5
18D8
102
{ACAD_XDICTIONARY
360
18D9
102
}
330
A
100
AcDbEntity
  8
ハッチング
 62
   254
420
 14539994
100
AcDbHatch
 10
0.0
 20
0.0
 30
0.0
210
0.0
220
0.0
230
1.0
  2
SOLID
 70
     1
 71
     1
 91
        1
 92
        7
 72
     0
 73
     1
 93
        4
 10
661.6351818602052
 20
912.0641442965207
 10
661.6351818602052
 20
862.0641442965207
 10
668.3018485262073
 20
862.0641442965207
 10
668.3018485262073
 20
912.0641442965207
 97
        1
330
18DE
 75
     1
 76
     1
 47
0.0
 98
        1
 10
664.9633385664347
 20
890.6579670413121
1001
ACAD
1010
0.0
1020
0.0
1030
0.0
1001
AcadAnnotative
1000
AnnotativeData
1002
{
1070
     1
1070
     0
1002
}
  0
LWPOLYLINE
  5
18DC
102
{ACAD_REACTORS
330
18D8
102
}
330
A
100
AcDbEntity
  8
実線
100
AcDbPolyline
 90
        4
 70
     1
 43
0.0
 10
668.301848526207
 20
912.064144296521
 10
618.301848526207
 20
912.064144296521
 10
618.301848526207
 20
918.73081096253
 10
668.301848526207
 20
918.73081096253
  0
LINE
  5
18DD
330
A
100
AcDbEntity
  8
IBｼｰﾄ
100
AcDbLine
 10
618.301848526207
 20
919.73081096253
 30
0.0
 11
605.022792335993
 21
912.064144296521
 31
0.0
  0
LWPOLYLINE
  5
18DE
102
{ACAD_REACTORS
330
18D8
102
}
330
A
100
AcDbEntity
  8
実線
100
AcDbPolyline
 90
        4
 70
     1
 43
0.0
 10
661.635181860205
 20
862.064144296521
 10
661.635181860205
 20
912.064144296521
 10
668.301848526207
 20
912.064144296521
 10
668.301848526207
 20
862.064144296521
  0
LINE
  5
18DF
330
A
100
AcDbEntity
  8
IBｼｰﾄ
100
AcDbLine
 10
669.301848526207
 20
862.064144296521
 30
0.0
 11
661.635181860205
 21
848.78508810632
 31
0.0
  0
LINE
  5
18E0
330
A
100
AcDbEntity
  8
IBｼｰﾄ
100
AcDbLine
 10
666.635181860205
 20
847.445342144158
 30
0.0
 11
674.301848526207
 21
860.724398334365
 31
0.0
  0
LINE
  5
18E1
330
A
100
AcDbEntity
  8
IBｼｰﾄ
100
AcDbLine
 10
674.301848526207
 20
860.724398334365
 30
0.0
 11
674.301848526207
 21
924.73081096253
 31
0.0
  0
LINE
  5
18E2
330
A
100
AcDbEntity
  8
IBｼｰﾄ
100
AcDbLine
 10
674.301848526207
 20
924.73081096253
 30
0.0
 11
616.962102564052
 21
924.73081096253
 31
0.0
  0
LINE
  5
18E3
330
A
100
AcDbEntity
  8
IBｼｰﾄ
100
AcDbLine
 10
616.962102564052
 20
924.73081096253
 30
0.0
 11
603.68304637383
 21
917.064144296528
 31
0.0
  0
LINE
  5
18E4
330
A
100
AcDbEntity
  8
IBｼｰﾄ
100
AcDbLine
 10
618.301848526207
 20
919.73081096253
 30
0.0
 11
669.301848526207
 21
919.73081096253
 31
0.0
  0
LINE
  5
18E5
330
A
100
AcDbEntity
  8
IBｼｰﾄ
100
AcDbLine
 10
669.301848526207
 20
919.73081096253
 30
0.0
 11
669.301848526207
 21
862.064144296521
 31
0.0
  0
LINE
  5
18E6
330
A
100
AcDbEntity
  8
IBｼｰﾄ
100
AcDbLine
 10
525.109582408913
 20
912.064144296521
 30
0.0
 11
605.022792335971
 21
912.064144296521
 31
0.0
  0
LINE
  5
18E7
330
A
100
AcDbEntity
  8
IBｼｰﾄ
100
AcDbLine
 10
526.449328371062
 20
917.064144296528
 30
0.0
 11
603.683046373822
 21
917.064144296528
 31
0.0
  0
LWPOLYLINE
  5
18E8
330
A
100
AcDbEntity
  8
実線
100
AcDbPolyline
 90
       19
 70
     1
 43
0.0
 10
678.859292437774
 20
871.209292887077
 10
685.84382786123
 20
871.209437226971
 10
685.84382786123
 20
953.38877996082
 10
447.717498696977
 20
960.134938045172
 10
447.717498696977
 20
962.155985276484
 10
445.426535859166
 20
962.155985276484
 10
445.426535859166
 20
871.209437226971
 10
447.717498696977
 20
871.209437226971
 10
447.717498696977
 20
873.230773138079
 10
454.859292437774
 20
873.230773138079
 10
454.859292437774
 20
879.968270828642
 10
452.568329599904
 20
879.968270828642
 10
452.568329599904
 20
875.251964709285
 10
447.717498696977
 20
875.251964709285
 10
447.717498696977
 20
957.842820488164
 10
683.553153703207
 20
951.174750287828
 10
683.553153703207
 20
906.918261590887
 10
683.553153703207
 20
873.096104014607
 10
678.859292437774
 20
873.096104014607
  0
LWPOLYLINE
  5
18E9
330
A
100
AcDbEntity
  8
実線
100
AcDbPolyline
 90
       20
 70
     0
 43
0.0
 10
452.222274697953
 20
875.251964709285
 10
455.30927206522
 20
932.918207154122
 10
461.597511827815
 20
953.949684798761
 10
489.839705513834
 20
953.152784229984
 10
499.566698971481
 20
925.812931407185
 10
638.093303288842
 20
925.812931407185
 10
656.40642766199
 20
948.439364908554
 10
670.717439723827
 20
948.035501878046
 10
675.984113868719
 20
932.851810801716
 10
680.028806449482
 20
873.194255144255
 10
683.513676741495
 20
873.519452931156
 10
679.429651538943
 20
933.598625426399
 10
673.231881793807
 20
951.466576244537
 10
654.275321046458
 20
952.002558294487
 10
635.930153429377
 20
929.312885218416
 10
502.338746684472
 20
929.312885218416
 10
492.496797190965
 20
956.576720559926
 10
459.016312505628
 20
957.523355292564
 10
451.840712181511
 20
933.598625426399
 10
448.717313266345
 20
875.251964709285
  0
LINE
  5
18EA
330
A
100
AcDbEntity
  8
中心線
100
AcDbLine
 10
565.635181860198
 20
882.524276142351
 30
0.0
 11
565.635181860198
 21
941.920513556674
 31
0.0
  0
LINE
  5
18EB
330
A
100
AcDbEntity
  8
実線
  6
DASHED2
 48
0.25
370
     5
100
AcDbLine
 10
562.135181860198
 20
925.112931407188
 30
0.0
 11
562.83518186021
 21
920.912931407191
 31
0.0
  0
LINE
  5
18EC
330
A
100
AcDbEntity
  8
実線
  6
DASHED2
 48
0.25
370
     5
100
AcDbLine
 10
568.435181860201
 20
920.912931407191
 30
0.0
 11
569.135181860198
 21
925.112931407188
 31
0.0
  0
LINE
  5
18ED
330
A
100
AcDbEntity
  8
実線
  6
DASHED2
 48
0.25
370
     5
100
AcDbLine
 10
568.435181860201
 20
925.812931407185
 30
0.0
 11
568.435181860201
 21
916.712931407186
 31
0.0
  0
LINE
  5
18EE
330
A
100
AcDbEntity
  8
実線
  6
DASHED2
 48
0.25
370
     5
100
AcDbLine
 10
562.83518186021
 20
925.812931407185
 30
0.0
 11
562.83518186021
 21
916.712931407186
 31
0.0
  0
LINE
  5
18EF
330
A
100
AcDbEntity
  8
実線
  6
DASHED2
 48
0.25
370
     5
100
AcDbLine
 10
567.490181860208
 20
916.362931407188
 30
0.0
 11
568.435181860201
 21
916.712931407186
 31
0.0
  0
LINE
  5
18F0
330
A
100
AcDbEntity
  8
実線
  6
DASHED2
 48
0.25
370
     5
100
AcDbLine
 10
562.83518186021
 20
916.712931407186
 30
0.0
 11
563.780181860202
 21
916.362931407188
 31
0.0
  0
LINE
  5
18F1
330
A
100
AcDbEntity
  8
実線
  6
DASHED2
 48
0.25
370
     5
100
AcDbLine
 10
567.8401818602
 20
897.812931407185
 30
0.0
 11
568.435181860201
 21
899.562931407185
 31
0.0
  0
LINE
  5
18F2
330
A
100
AcDbEntity
  8
実線
  6
DASHED2
 48
0.25
370
     5
100
AcDbLine
 10
568.435181860201
 20
901.312931407185
 30
0.0
 11
568.435181860201
 21
899.562931407185
 31
0.0
  0
LINE
  5
18F3
330
A
100
AcDbEntity
  8
実線
  6
DASHED2
 48
0.25
370
     5
100
AcDbLine
 10
567.490181860208
 20
901.312931407185
 30
0.0
 11
568.435181860201
 21
901.312931407185
 31
0.0
  0
LINE
  5
18F4
330
A
100
AcDbEntity
  8
実線
  6
DASHED2
 48
0.25
370
     5
100
AcDbLine
 10
568.435181860201
 20
904.696264740523
 30
0.0
 11
568.435181860201
 21
903.004598073858
 31
0.0
  0
LINE
  5
18F5
330
A
100
AcDbEntity
  8
実線
  6
DASHED2
 48
0.25
370
     5
100
AcDbLine
 10
567.490181860208
 20
904.696264740523
 30
0.0
 11
568.435181860201
 21
904.696264740523
 31
0.0
  0
LINE
  5
18F6
330
A
100
AcDbEntity
  8
実線
  6
DASHED2
 48
0.25
370
     5
100
AcDbLine
 10
568.435181860201
 20
908.079598073855
 30
0.0
 11
568.435181860201
 21
906.387931407189
 31
0.0
  0
LINE
  5
18F7
330
A
100
AcDbEntity
  8
実線
  6
DASHED2
 48
0.25
370
     5
100
AcDbLine
 10
567.490181860208
 20
908.079598073855
 30
0.0
 11
568.435181860201
 21
908.079598073855
 31
0.0
  0
LINE
  5
18F8
330
A
100
AcDbEntity
  8
実線
  6
DASHED2
 48
0.25
370
     5
100
AcDbLine
 10
568.435181860201
 20
911.462931407186
 30
0.0
 11
568.435181860201
 21
909.771264740521
 31
0.0
  0
LINE
  5
18F9
330
A
100
AcDbEntity
  8
実線
  6
DASHED2
 48
0.25
370
     5
100
AcDbLine
 10
567.490181860208
 20
911.462931407186
 30
0.0
 11
568.435181860201
 21
911.462931407186
 31
0.0
  0
LINE
  5
18FA
330
A
100
AcDbEntity
  8
実線
  6
DASHED2
 48
0.25
370
     5
100
AcDbLine
 10
567.490181860208
 20
916.362931407188
 30
0.0
 11
567.490181860208
 21
911.462931407186
 31
0.0
  0
LINE
  5
18FB
330
A
100
AcDbEntity
  8
実線
  6
DASHED2
 48
0.25
370
     5
100
AcDbLine
 10
567.490181860208
 20
909.421264740522
 30
0.0
 11
567.490181860208
 21
908.079598073855
 31
0.0
  0
LINE
  5
18FC
330
A
100
AcDbEntity
  8
実線
  6
DASHED2
 48
0.25
370
     5
100
AcDbLine
 10
567.962681860212
 20
909.421264740522
 30
0.0
 11
568.435181860201
 21
909.771264740521
 31
0.0
  0
LINE
  5
18FD
330
A
100
AcDbEntity
  8
実線
  6
DASHED2
 48
0.25
370
     5
100
AcDbLine
 10
567.962681860212
 20
908.079598073855
 30
0.0
 11
567.962681860212
 21
909.421264740522
 31
0.0
  0
LINE
  5
18FE
330
A
100
AcDbEntity
  8
実線
  6
DASHED2
 48
0.25
370
     5
100
AcDbLine
 10
567.490181860208
 20
909.421264740522
 30
0.0
 11
567.962681860212
 21
909.421264740522
 31
0.0
  0
LINE
  5
18FF
330
A
100
AcDbEntity
  8
実線
  6
DASHED2
 48
0.25
370
     5
100
AcDbLine
 10
567.490181860208
 20
906.037931407191
 30
0.0
 11
567.490181860208
 21
904.696264740523
 31
0.0
  0
LINE
  5
1900
330
A
100
AcDbEntity
  8
実線
  6
DASHED2
 48
0.25
370
     5
100
AcDbLine
 10
567.962681860212
 20
904.696264740523
 30
0.0
 11
567.962681860212
 21
906.037931407191
 31
0.0
  0
LINE
  5
1901
330
A
100
AcDbEntity
  8
実線
  6
DASHED2
 48
0.25
370
     5
100
AcDbLine
 10
567.490181860208
 20
906.037931407191
 30
0.0
 11
567.962681860212
 21
906.037931407191
 31
0.0
  0
LINE
  5
1902
330
A
100
AcDbEntity
  8
実線
  6
DASHED2
 48
0.25
370
     5
100
AcDbLine
 10
567.962681860212
 20
906.037931407191
 30
0.0
 11
568.435181860201
 21
906.387931407189
 31
0.0
  0
LINE
  5
1903
330
A
100
AcDbEntity
  8
実線
  6
DASHED2
 48
0.25
370
     5
100
AcDbLine
 10
567.490181860208
 20
902.654598073852
 30
0.0
 11
567.490181860208
 21
901.312931407185
 31
0.0
  0
LINE
  5
1904
330
A
100
AcDbEntity
  8
実線
  6
DASHED2
 48
0.25
370
     5
100
AcDbLine
 10
567.962681860212
 20
901.312931407185
 30
0.0
 11
567.962681860212
 21
902.654598073852
 31
0.0
  0
LINE
  5
1905
330
A
100
AcDbEntity
  8
実線
  6
DASHED2
 48
0.25
370
     5
100
AcDbLine
 10
567.490181860208
 20
902.654598073852
 30
0.0
 11
567.962681860212
 21
902.654598073852
 31
0.0
  0
LINE
  5
1906
330
A
100
AcDbEntity
  8
実線
  6
DASHED2
 48
0.25
370
     5
100
AcDbLine
 10
567.962681860212
 20
902.654598073852
 30
0.0
 11
568.435181860201
 21
903.004598073858
 31
0.0
  0
LINE
  5
1907
330
A
100
AcDbEntity
  8
実線
  6
DASHED2
 48
0.25
370
     5
100
AcDbLine
 10
568.435181860201
 20
911.462931407186
 30
0.0
 11
568.435181860201
 21
915.907931407186
 31
0.0
  0
ARC
  5
1908
330
A
100
AcDbEntity
  8
実線
  6
DASHED2
 48
0.25
370
     5
100
AcDbCircle
 10
567.980181860199
 20
915.907931407186
 30
0.0
 40
0.455
100
AcDbArc
 50
0.0
 51
180.0
  0
LINE
  5
1909
330
A
100
AcDbEntity
  8
実線
  6
DASHED2
 48
0.25
370
     5
100
AcDbLine
 10
567.525181860212
 20
911.462931407186
 30
0.0
 11
567.525181860212
 21
915.907931407186
 31
0.0
  0
LINE
  5
190A
330
A
100
AcDbEntity
  8
実線
  6
DASHED2
 48
0.25
370
     5
100
AcDbLine
 10
562.135181860198
 20
925.112931407188
 30
0.0
 11
562.83518186021
 21
925.112931407188
 31
0.0
  0
LINE
  5
190B
330
A
100
AcDbEntity
  8
実線
  6
DASHED2
 48
0.25
370
     5
100
AcDbLine
 10
568.435181860201
 20
925.112931407188
 30
0.0
 11
569.135181860198
 21
925.112931407188
 31
0.0
  0
ARC
  5
190C
330
A
100
AcDbEntity
  8
実線
  6
DASHED2
 48
0.25
370
     5
100
AcDbCircle
 10
565.635181860198
 20
918.112931407188
 30
0.0
 40
0.6999999999999996
100
AcDbArc
 50
296.743683950691
 51
243.25631604931
  0
LINE
  5
190D
330
A
100
AcDbEntity
  8
実線
  6
DASHED2
 48
0.25
370
     5
100
AcDbLine
 10
565.9501818602
 20
897.812931407185
 30
0.0
 11
567.8401818602
 21
897.812931407185
 31
0.0
  0
LINE
  5
190E
330
A
100
AcDbEntity
  8
実線
  6
DASHED2
 48
0.25
370
     5
100
AcDbLine
 10
563.780181860202
 20
916.362931407188
 30
0.0
 11
562.83518186021
 21
916.712931407186
 31
0.0
  0
LINE
  5
190F
330
A
100
AcDbEntity
  8
実線
  6
DASHED2
 48
0.25
370
     5
100
AcDbLine
 10
562.83518186021
 20
901.312931407185
 30
0.0
 11
562.83518186021
 21
899.562931407185
 31
0.0
  0
LINE
  5
1910
330
A
100
AcDbEntity
  8
実線
  6
DASHED2
 48
0.25
370
     5
100
AcDbLine
 10
563.780181860202
 20
901.312931407185
 30
0.0
 11
562.83518186021
 21
901.312931407185
 31
0.0
  0
LINE
  5
1911
330
A
100
AcDbEntity
  8
実線
  6
DASHED2
 48
0.25
370
     5
100
AcDbLine
 10
562.83518186021
 20
904.696264740523
 30
0.0
 11
562.83518186021
 21
903.004598073858
 31
0.0
  0
LINE
  5
1912
330
A
100
AcDbEntity
  8
実線
  6
DASHED2
 48
0.25
370
     5
100
AcDbLine
 10
563.780181860202
 20
904.696264740523
 30
0.0
 11
562.83518186021
 21
904.696264740523
 31
0.0
  0
LINE
  5
1913
330
A
100
AcDbEntity
  8
実線
  6
DASHED2
 48
0.25
370
     5
100
AcDbLine
 10
562.83518186021
 20
908.079598073855
 30
0.0
 11
562.83518186021
 21
906.387931407189
 31
0.0
  0
LINE
  5
1914
330
A
100
AcDbEntity
  8
実線
  6
DASHED2
 48
0.25
370
     5
100
AcDbLine
 10
563.780181860202
 20
908.079598073855
 30
0.0
 11
562.83518186021
 21
908.079598073855
 31
0.0
  0
LINE
  5
1915
330
A
100
AcDbEntity
  8
実線
  6
DASHED2
 48
0.25
370
     5
100
AcDbLine
 10
562.83518186021
 20
911.462931407186
 30
0.0
 11
562.83518186021
 21
909.771264740521
 31
0.0
  0
LINE
  5
1916
330
A
100
AcDbEntity
  8
実線
  6
DASHED2
 48
0.25
370
     5
100
AcDbLine
 10
563.780181860202
 20
911.462931407186
 30
0.0
 11
562.83518186021
 21
911.462931407186
 31
0.0
  0
LINE
  5
1917
330
A
100
AcDbEntity
  8
実線
  6
DASHED2
 48
0.25
370
     5
100
AcDbLine
 10
563.780181860202
 20
916.362931407188
 30
0.0
 11
563.780181860202
 21
911.462931407186
 31
0.0
  0
LINE
  5
1918
330
A
100
AcDbEntity
  8
実線
  6
DASHED2
 48
0.25
370
     5
100
AcDbLine
 10
563.780181860202
 20
909.421264740522
 30
0.0
 11
563.780181860202
 21
908.079598073855
 31
0.0
  0
LINE
  5
1919
330
A
100
AcDbEntity
  8
実線
  6
DASHED2
 48
0.25
370
     5
100
AcDbLine
 10
563.307681860198
 20
909.421264740522
 30
0.0
 11
562.83518186021
 21
909.771264740521
 31
0.0
  0
LINE
  5
191A
330
A
100
AcDbEntity
  8
実線
  6
DASHED2
 48
0.25
370
     5
100
AcDbLine
 10
563.307681860198
 20
908.079598073855
 30
0.0
 11
563.307681860198
 21
909.421264740522
 31
0.0
  0
LINE
  5
191B
330
A
100
AcDbEntity
  8
実線
  6
DASHED2
 48
0.25
370
     5
100
AcDbLine
 10
563.780181860202
 20
909.421264740522
 30
0.0
 11
563.307681860198
 21
909.421264740522
 31
0.0
  0
LINE
  5
191C
330
A
100
AcDbEntity
  8
実線
  6
DASHED2
 48
0.25
370
     5
100
AcDbLine
 10
563.780181860202
 20
906.037931407191
 30
0.0
 11
563.780181860202
 21
904.696264740523
 31
0.0
  0
LINE
  5
191D
330
A
100
AcDbEntity
  8
実線
  6
DASHED2
 48
0.25
370
     5
100
AcDbLine
 10
563.307681860198
 20
904.696264740523
 30
0.0
 11
563.307681860198
 21
906.037931407191
 31
0.0
  0
LINE
  5
191E
330
A
100
AcDbEntity
  8
実線
  6
DASHED2
 48
0.25
370
     5
100
AcDbLine
 10
563.780181860202
 20
906.037931407191
 30
0.0
 11
563.307681860198
 21
906.037931407191
 31
0.0
  0
LINE
  5
191F
330
A
100
AcDbEntity
  8
実線
  6
DASHED2
 48
0.25
370
     5
100
AcDbLine
 10
563.307681860198
 20
906.037931407191
 30
0.0
 11
562.83518186021
 21
906.387931407189
 31
0.0
  0
LINE
  5
1920
330
A
100
AcDbEntity
  8
実線
  6
DASHED2
 48
0.25
370
     5
100
AcDbLine
 10
563.780181860202
 20
902.654598073852
 30
0.0
 11
563.780181860202
 21
901.312931407185
 31
0.0
  0
LINE
  5
1921
330
A
100
AcDbEntity
  8
実線
  6
DASHED2
 48
0.25
370
     5
100
AcDbLine
 10
563.307681860198
 20
901.312931407185
 30
0.0
 11
563.307681860198
 21
902.654598073852
 31
0.0
  0
LINE
  5
1922
330
A
100
AcDbEntity
  8
実線
  6
DASHED2
 48
0.25
370
     5
100
AcDbLine
 10
563.780181860202
 20
902.654598073852
 30
0.0
 11
563.307681860198
 21
902.654598073852
 31
0.0
  0
LINE
  5
1923
330
A
100
AcDbEntity
  8
実線
  6
DASHED2
 48
0.25
370
     5
100
AcDbLine
 10
563.307681860198
 20
902.654598073852
 30
0.0
 11
562.83518186021
 21
903.004598073858
 31
0.0
  0
LINE
  5
1924
330
A
100
AcDbEntity
  8
実線
  6
DASHED2
 48
0.25
370
     5
100
AcDbLine
 10
562.83518186021
 20
911.462931407186
 30
0.0
 11
562.83518186021
 21
915.907931407186
 31
0.0
  0
ARC
  5
1925
330
A
100
AcDbEntity
  8
実線
  6
DASHED2
 48
0.25
370
     5
100
AcDbCircle
 10
563.290181860197
 20
915.907931407186
 30
0.0
 40
0.455
100
AcDbArc
 50
0.0
 51
180.0
  0
LINE
  5
1926
330
A
100
AcDbEntity
  8
実線
  6
DASHED2
 48
0.25
370
     5
100
AcDbLine
 10
563.745181860198
 20
911.462931407186
 30
0.0
 11
563.745181860198
 21
915.907931407186
 31
0.0
  0
LINE
  5
1927
330
A
100
AcDbEntity
  8
実線
  6
DASHED2
 48
0.25
370
     5
100
AcDbLine
 10
563.430181860211
 20
897.812931407185
 30
0.0
 11
565.320181860196
 21
897.812931407185
 31
0.0
  0
LINE
  5
1928
330
A
100
AcDbEntity
  8
実線
  6
DASHED2
 48
0.25
370
     5
100
AcDbLine
 10
563.430181860211
 20
897.812931407185
 30
0.0
 11
562.83518186021
 21
899.562931407185
 31
0.0
  0
LINE
  5
1929
330
A
100
AcDbEntity
  8
実線
  6
DASHED2
 48
0.25
370
     5
100
AcDbLine
 10
565.320181860196
 20
917.487811418701
 30
0.0
 11
565.320181860196
 21
916.609134614337
 31
0.0
  0
LINE
  5
192A
330
A
100
AcDbEntity
  8
実線
  6
DASHED2
 48
0.25
370
     5
100
AcDbLine
 10
565.9501818602
 20
917.487811418701
 30
0.0
 11
565.9501818602
 21
916.466709612047
 31
0.0
  0
LINE
  5
192B
330
A
100
AcDbEntity
  8
実線
  6
DASHED2
 48
0.25
370
     5
100
AcDbLine
 10
565.9501818602
 20
916.466709612047
 30
0.0
 11
565.178046768269
 21
914.846264740525
 31
0.0
  0
LINE
  5
192C
330
A
100
AcDbEntity
  8
実線
  6
DASHED2
 48
0.25
370
     5
100
AcDbLine
 10
565.320181860196
 20
916.609134614337
 30
0.0
 11
564.480181860199
 21
914.846264740525
 31
0.0
  0
LINE
  5
192D
330
A
100
AcDbEntity
  8
実線
  6
DASHED2
 48
0.25
370
     5
100
AcDbLine
 10
566.790190717307
 20
911.462931407186
 30
0.0
 11
565.178046768269
 21
914.846264740525
 31
0.0
  0
LINE
  5
192E
330
A
100
AcDbEntity
  8
実線
  6
DASHED2
 48
0.25
370
     5
100
AcDbLine
 10
566.092325809223
 20
911.462931407186
 30
0.0
 11
564.480181860199
 21
914.846264740525
 31
0.0
  0
LINE
  5
192F
330
A
100
AcDbEntity
  8
実線
  6
DASHED2
 48
0.25
370
     5
100
AcDbLine
 10
564.480181860199
 20
908.079598073855
 30
0.0
 11
566.092325809223
 21
911.462931407186
 31
0.0
  0
LINE
  5
1930
330
A
100
AcDbEntity
  8
実線
  6
DASHED2
 48
0.25
370
     5
100
AcDbLine
 10
565.178046768269
 20
908.079598073855
 30
0.0
 11
566.790190717307
 21
911.462931407186
 31
0.0
  0
LINE
  5
1931
330
A
100
AcDbEntity
  8
実線
  6
DASHED2
 48
0.25
370
     5
100
AcDbLine
 10
564.480181860199
 20
908.079598073855
 30
0.0
 11
566.092325809223
 21
904.696264740523
 31
0.0
  0
LINE
  5
1932
330
A
100
AcDbEntity
  8
実線
  6
DASHED2
 48
0.25
370
     5
100
AcDbLine
 10
566.092325809223
 20
904.696264740523
 30
0.0
 11
564.480181860199
 21
901.312931407185
 31
0.0
  0
LINE
  5
1933
330
A
100
AcDbEntity
  8
実線
  6
DASHED2
 48
0.25
370
     5
100
AcDbLine
 10
565.178046768269
 20
908.079598073855
 30
0.0
 11
566.790190717307
 21
904.696264740523
 31
0.0
  0
LINE
  5
1934
330
A
100
AcDbEntity
  8
実線
  6
DASHED2
 48
0.25
370
     5
100
AcDbLine
 10
566.790190717307
 20
904.696264740523
 30
0.0
 11
565.178521269961
 21
901.313927222356
 31
0.0
  0
LINE
  5
1935
330
A
100
AcDbEntity
  8
実線
  6
DASHED2
 48
0.25
370
     5
100
AcDbLine
 10
565.9501818602
 20
899.706300992693
 30
0.0
 11
565.9501818602
 21
897.812931407185
 31
0.0
  0
LINE
  5
1936
330
A
100
AcDbEntity
  8
実線
  6
DASHED2
 48
0.25
370
     5
100
AcDbLine
 10
565.9501818602
 20
899.706300992693
 30
0.0
 11
565.178521269961
 21
901.313927222356
 31
0.0
  0
LINE
  5
1937
330
A
100
AcDbEntity
  8
実線
  6
DASHED2
 48
0.25
370
     5
100
AcDbLine
 10
565.320181860196
 20
899.562931407185
 30
0.0
 11
564.480181860199
 21
901.312931407185
 31
0.0
  0
LINE
  5
1938
330
A
100
AcDbEntity
  8
実線
  6
DASHED2
 48
0.25
370
     5
100
AcDbLine
 10
565.320181860196
 20
899.562931407185
 30
0.0
 11
565.320181860196
 21
897.812931407185
 31
0.0
  0
LINE
  5
1939
330
A
100
AcDbEntity
  8
実線
  6
DASHED2
 48
0.25
370
     5
100
AcDbLine
 10
562.83518186021
 20
925.812931407185
 30
0.0
 11
568.435181860201
 21
925.812931407185
 31
0.0
  0
LINE
  5
193A
330
A
100
AcDbEntity
  8
実線
  6
DASHED2
 48
0.25
370
     5
100
AcDbLine
 10
565.355181860199
 20
925.112931407188
 30
0.0
 11
565.635181860198
 21
920.912931407191
 31
0.0
  0
LINE
  5
193B
330
A
100
AcDbEntity
  8
実線
  6
DASHED2
 48
0.25
370
     5
100
AcDbLine
 10
565.355181860199
 20
925.112931407188
 30
0.0
 11
565.915181860197
 21
925.112931407188
 31
0.0
  0
LINE
  5
193C
330
A
100
AcDbEntity
  8
実線
  6
DASHED2
 48
0.25
370
     5
100
AcDbLine
 10
565.635181860198
 20
920.912931407191
 30
0.0
 11
565.915181860197
 21
925.112931407188
 31
0.0
  0
LINE
  5
193D
330
A
100
AcDbEntity
  8
実線
100
AcDbLine
 10
565.635181860198
 20
892.142931407194
 30
0.0
 11
564.655051871814
 21
893.840656565648
 31
0.0
  0
LINE
  5
193E
330
A
100
AcDbEntity
  8
実線
100
AcDbLine
 10
566.335181859482
 20
932.112885218419
 30
0.0
 11
564.935181859488
 21
932.112885218419
 31
0.0
  0
LINE
  5
193F
330
A
100
AcDbEntity
  8
実線
100
AcDbLine
 10
558.635181859485
 20
930.012885218421
 30
0.0
 11
572.635181859485
 21
930.012885218421
 31
0.0
  0
LINE
  5
1940
330
A
100
AcDbEntity
  8
実線
100
AcDbLine
 10
572.635181859485
 20
930.012885218421
 30
0.0
 11
572.635181859485
 21
929.312885218416
 31
0.0
  0
LINE
  5
1941
330
A
100
AcDbEntity
  8
実線
100
AcDbLine
 10
558.635181859485
 20
930.012885218421
 30
0.0
 11
558.635181859485
 21
929.312885218416
 31
0.0
  0
ARC
  5
1942
330
A
100
AcDbEntity
  8
実線
100
AcDbCircle
 10
564.935181859488
 20
930.012885218421
 30
0.0
 40
2.099999999999999
100
AcDbArc
 50
90.0
 51
180.0
  0
ARC
  5
1943
330
A
100
AcDbEntity
  8
実線
100
AcDbCircle
 10
566.335181859482
 20
930.012885218421
 30
0.0
 40
2.099999999999999
100
AcDbArc
 50
0.0
 51
90.0
  0
LINE
  5
1944
330
A
100
AcDbEntity
  8
実線
100
AcDbLine
 10
563.885181860198
 20
897.494449272344
 30
0.0
 11
564.655181860202
 21
897.340449272349
 31
0.0
  0
LINE
  5
1945
330
A
100
AcDbEntity
  8
実線
100
AcDbLine
 10
564.655181860202
 20
897.565149272348
 30
0.0
 11
564.655181860202
 21
896.244093549562
 31
0.0
  0
LINE
  5
1946
330
A
100
AcDbEntity
  8
実線
100
AcDbLine
 10
567.385116866019
 20
896.725377118892
 30
0.0
 11
563.885116866019
 21
895.884677118891
 31
0.0
  0
LINE
  5
1947
330
A
100
AcDbEntity
  8
実線
100
AcDbLine
 10
566.615116866
 20
896.715577118892
 30
0.0
 11
564.655116866008
 21
896.244477118897
 31
0.0
  0
LINE
  5
1948
330
A
100
AcDbEntity
  8
実線
100
AcDbLine
 10
566.615116866
 20
896.426477118897
 30
0.0
 11
564.655116866008
 21
895.955377118895
 31
0.0
  0
LINE
  5
1949
330
A
100
AcDbEntity
  8
実線
100
AcDbLine
 10
567.385116866019
 20
896.725377118892
 30
0.0
 11
566.615116866
 21
896.426477118897
 31
0.0
  0
LINE
  5
194A
330
A
100
AcDbEntity
  8
実線
100
AcDbLine
 10
566.615116866
 20
896.910877118891
 30
0.0
 11
567.385116866019
 21
896.725377118892
 31
0.0
  0
LINE
  5
194B
330
A
100
AcDbEntity
  8
実線
100
AcDbLine
 10
566.615116866
 20
895.105389907243
 30
0.0
 11
566.615116866
 21
896.426477118897
 31
0.0
  0
LINE
  5
194C
330
A
100
AcDbEntity
  8
実線
100
AcDbLine
 10
564.655116866008
 20
895.955377118895
 30
0.0
 11
564.655116866008
 21
894.634321396108
 31
0.0
  0
LINE
  5
194D
330
A
100
AcDbEntity
  8
実線
100
AcDbLine
 10
567.38505187181
 20
895.115604965446
 30
0.0
 11
563.88505187181
 21
894.274904965445
 31
0.0
  0
LINE
  5
194E
330
A
100
AcDbEntity
  8
実線
100
AcDbLine
 10
563.88505187181
 20
894.274904965445
 30
0.0
 11
564.655051871814
 21
894.120904965443
 31
0.0
  0
LINE
  5
194F
330
A
100
AcDbEntity
  8
実線
100
AcDbLine
 10
566.61505187182
 20
895.105804965446
 30
0.0
 11
564.655051871814
 21
894.634704965443
 31
0.0
  0
LINE
  5
1950
330
A
100
AcDbEntity
  8
実線
100
AcDbLine
 10
566.61505187182
 20
894.816704965444
 30
0.0
 11
564.655051871814
 21
894.345604965441
 31
0.0
  0
LINE
  5
1951
330
A
100
AcDbEntity
  8
実線
100
AcDbLine
 10
567.38505187181
 20
895.115604965446
 30
0.0
 11
566.61505187182
 21
894.816704965444
 31
0.0
  0
LINE
  5
1952
330
A
100
AcDbEntity
  8
実線
100
AcDbLine
 10
564.655051871814
 20
894.634704965443
 30
0.0
 11
563.88505187181
 21
894.274904965445
 31
0.0
  0
LINE
  5
1953
330
A
100
AcDbEntity
  8
実線
100
AcDbLine
 10
566.61505187182
 20
895.301104965445
 30
0.0
 11
567.38505187181
 21
895.115604965446
 31
0.0
  0
LINE
  5
1954
330
A
100
AcDbEntity
  8
実線
100
AcDbLine
 10
565.635181860198
 20
892.142931407194
 30
0.0
 11
566.61505187182
 21
893.840206248737
 31
0.0
  0
LINE
  5
1955
330
A
100
AcDbEntity
  8
実線
100
AcDbLine
 10
566.61505187182
 20
893.840206248737
 30
0.0
 11
566.61505187182
 21
894.816704965444
 31
0.0
  0
LINE
  5
1956
330
A
100
AcDbEntity
  8
実線
100
AcDbLine
 10
564.655051871814
 20
894.345604965441
 30
0.0
 11
564.655051871814
 21
893.840656565648
 31
0.0
  0
LINE
  5
1957
330
A
100
AcDbEntity
  8
実線
100
AcDbLine
 10
566.615181860208
 20
896.715162060696
 30
0.0
 11
566.615181860208
 21
897.812931407192
 31
0.0
  0
LINE
  5
1958
330
A
100
AcDbEntity
  8
実線
100
AcDbLine
 10
565.686073357327
 20
897.812931407192
 30
0.0
 11
564.655181860202
 21
897.565149272348
 31
0.0
  0
LINE
  5
1959
330
A
100
AcDbEntity
  8
実線
100
AcDbLine
 10
565.211085835399
 20
897.812931407192
 30
0.0
 11
563.885181860198
 21
897.494449272344
 31
0.0
  0
LINE
  5
195A
330
A
100
AcDbEntity
  8
実線
100
AcDbLine
 10
564.566758413377
 20
897.812931407192
 30
0.0
 11
563.885181860198
 21
897.494449272344
 31
0.0
  0
LINE
  5
195B
330
A
100
AcDbEntity
  8
実線
100
AcDbLine
 10
563.885116866019
 20
895.884677118891
 30
0.0
 11
564.655116866008
 21
895.730677118896
 31
0.0
  0
LINE
  5
195C
330
A
100
AcDbEntity
  8
実線
100
AcDbLine
 10
564.655116866008
 20
896.244477118897
 30
0.0
 11
563.885116866019
 21
895.884677118891
 31
0.0
  0
LINE
  5
195D
330
A
100
AcDbEntity
  8
IBｼｰﾄ
100
AcDbLine
 10
666.635181860205
 20
335.054880807249
 30
0.0
 11
666.635181860205
 21
847.445342144158
 31
0.0
  0
LINE
  5
195E
330
A
100
AcDbEntity
  8
IBｼｰﾄ
100
AcDbLine
 10
733.73209621643
 20
317.064144296521
 30
0.0
 11
1260.635181860205
 21
317.064144296521
 31
0.0
  0
LWPOLYLINE
  5
195F
330
A
100
AcDbEntity
  8
部材(ﾋﾞｽ類)
100
AcDbPolyline
 90
       32
 70
     0
 43
0.0
 10
690.531724999688
 20
263.368453567455
 10
690.498547124102
 20
263.368453567455
 42
0.126825768809
 10
690.320734686502
 20
264.058188650808
 10
689.593213567845
 20
265.375440361349
 42
-0.256490137263
 10
689.586712528682
 20
265.950288955799
 10
691.17325819812
 20
268.91870153194
 42
0.253636490355
 10
691.166827913192
 20
270.057217094603
 10
689.719107546553
 20
273.070905949309
 42
-0.218900263645
 10
689.712518774089
 20
273.45896094061
 10
691.083399054172
 20
276.625087423519
 42
0.209095404736
 10
691.079917059913
 20
277.58221164249
 10
689.812183761271
 20
280.534832615318
 42
-0.199072424679
 10
689.808038182091
 20
280.865164195253
 10
690.379098524645
 20
282.293015735944
 42
0.099854070822
 10
690.490661708602
 20
282.846076842499
 10
690.490661708602
 20
283.656146877634
 42
3.867768794258
 10
689.860282072492
 20
283.656146877634
 10
689.860282072492
 20
282.846076842499
 42
-0.095438157436
 10
689.803302627275
 20
282.550280838208
 10
689.222937128761
 20
281.099760368226
 42
0.206638844849
 10
689.245295230707
 20
280.258446606807
 10
690.59327190293
 20
277.350853660842
 42
-0.21270382653
 10
690.600538974766
 20
276.864792850887
 10
689.232375991873
 20
273.666400230664
 42
0.20973763421
 10
689.240285521024
 20
272.813260910843
 10
690.618671118413
 20
269.749352366882
 42
-0.270363890763
 10
690.580184985367
 20
269.148730456574
 10
689.033513671959
 20
266.2277015293
 42
0.248644858073
 10
689.034007181581
 20
265.108939132377
 10
689.759507237177
 20
263.741684714529
 42
-0.122570027372
 10
689.852396656992
 20
263.368453567455
 10
689.819218781406
 20
263.368453567455
  0
LWPOLYLINE
  5
1960
330
A
100
AcDbEntity
  8
部材(ﾋﾞｽ類)
100
AcDbPolyline
 90
       32
 70
     0
 43
0.0
 10
690.51193119894
 20
261.665768694533
 10
690.531724999688
 20
263.368453567455
 42
0.126825813089
 10
690.349777266085
 20
264.074229224345
 10
689.622170048824
 20
265.391636282598
 42
-0.256544899034
 10
689.615973228472
 20
265.934649810173
 10
691.202516546422
 20
268.903057986703
 42
0.251254532285
 10
691.201154732116
 20
270.063538883027
 10
689.749011565378
 20
273.085276790836
 42
-0.218900263645
 10
689.74289341952
 20
273.445613568467
 10
691.113845484077
 20
276.611904619007
 42
0.209095404736
 10
691.110266767646
 20
277.595615622085
 10
689.842670351863
 20
280.547922276215
 42
-0.199109332435
 10
689.838864661542
 20
280.852896226563
 10
690.419377242353
 20
282.30378410397
 42
0.095438169349
 10
690.523839584188
 20
282.846076842499
 10
690.523839584188
 20
283.636925436018
 42
3.649823686132
 10
689.827104196898
 20
283.636925436018
 10
689.827104196898
 20
282.846076842499
 42
-0.105213986763
 10
689.760996668934
 20
282.535397051877
 10
689.191834716483
 20
281.111338697316
 42
0.206444475481
 10
689.215194786695
 20
280.2444918693
 10
690.563171458918
 20
277.336898923342
 42
-0.212703826529
 10
690.57003480455
 20
276.877841491703
 10
689.20187182165
 20
273.679448871488
 42
0.209737634211
 10
689.210028523587
 20
272.799648947919
 10
690.588699678738
 20
269.735105659325
 42
-0.271504379566
 10
690.551692322297
 20
269.165820643408
 10
689.004192480264
 20
266.243226964762
 42
0.248644858073
 10
689.004699698489
 20
265.093387834582
 10
689.730199754078
 20
263.726133416734
 42
-0.122570027372
 10
689.819218781406
 20
263.368453567455
 10
689.839012582146
 20
261.665768694533
  0
LWPOLYLINE
  5
1961
330
A
100
AcDbEntity
  8
部材(ﾋﾞｽ類)
100
AcDbPolyline
 90
        4
 70
     0
 43
0.0
 10
689.852396656992
 20
261.665768694533
 10
689.852396656992
 20
262.642961928439
 10
690.498547124102
 20
262.642961928439
 10
690.498547124102
 20
261.665768694533
  0
LINE
  5
1962
330
A
100
AcDbEntity
  8
部材(ﾋﾞｽ類)
100
AcDbLine
 10
693.175471890536
 20
309.549020637605
 30
0.0
 11
687.17547189055
 21
309.549020637605
 31
0.0
  0
LINE
  5
1963
330
A
100
AcDbEntity
  8
部材(ﾋﾞｽ類)
100
AcDbLine
 10
685.678312287404
 20
311.064144296521
 30
0.0
 11
694.672631493682
 21
311.064144296521
 31
0.0
  0
LINE
  5
1964
330
A
100
AcDbEntity
  8
部材(ﾋﾞｽ類)
100
AcDbLine
 10
691.348576477998
 20
261.665768694533
 30
0.0
 11
688.338012427957
 21
260.614545621262
 31
0.0
  0
LINE
  5
1965
330
A
100
AcDbEntity
  8
部材(ﾋﾞｽ類)
100
AcDbLine
 10
691.062189684701
 20
261.665768694533
 30
0.0
 11
688.338012427957
 21
260.71454562126
 31
0.0
  0
LINE
  5
1966
330
A
100
AcDbEntity
  8
部材(ﾋﾞｽ類)
100
AcDbLine
 10
691.468474637179
 20
261.665768694533
 30
0.0
 11
689.258858070447
 21
260.261066097293
 31
0.0
  0
LINE
  5
1967
330
A
100
AcDbEntity
  8
部材(ﾋﾞｽ類)
100
AcDbLine
 10
691.123829683762
 20
258.789293769325
 30
0.0
 11
689.483890204428
 21
258.217532912524
 31
0.0
  0
LINE
  5
1968
330
A
100
AcDbEntity
  8
部材(ﾋﾞｽ類)
100
AcDbLine
 10
691.123829683762
 20
258.889293769324
 30
0.0
 11
689.483890204428
 21
258.31753291253
 31
0.0
  0
LINE
  5
1969
330
A
100
AcDbEntity
  8
部材(ﾋﾞｽ類)
100
AcDbLine
 10
690.648873369639
 20
258.606975122122
 30
0.0
 11
689.84339877106
 21
258.079530503514
 31
0.0
  0
LINE
  5
196A
330
A
100
AcDbEntity
  8
部材(ﾋﾞｽ類)
100
AcDbLine
 10
690.808904398917
 20
259.204219054169
 30
0.0
 11
689.717129844546
 21
258.550772552655
 31
0.0
  0
LINE
  5
196B
330
A
100
AcDbEntity
  8
部材(ﾋﾞｽ類)
100
AcDbLine
 10
688.882469143908
 20
261.665768694533
 30
0.0
 11
688.968428989618
 21
261.34496218292
 31
0.0
  0
LWPOLYLINE
  5
196C
330
A
100
AcDbEntity
  8
部材(ﾋﾞｽ類)
100
AcDbPolyline
 90
        4
 70
     0
 43
0.0
 10
687.264363492206
 20
275.454730527686
 10
687.264363492206
 20
275.205841366413
 10
687.5665851718
 20
274.441394346046
 10
687.602144253739
 20
273.232507625806
  0
LWPOLYLINE
  5
196D
330
A
100
AcDbEntity
  8
部材(ﾋﾞｽ類)
100
AcDbPolyline
 90
        4
 70
     0
 43
0.0
 10
687.655476773456
 20
269.410286251667
 10
687.637703336142
 20
270.619172970044
 10
687.264363492206
 20
271.419172970789
 10
687.264363492206
 20
271.614729611414
  0
LWPOLYLINE
  5
196E
330
A
100
AcDbEntity
  8
部材(ﾋﾞｽ類)
100
AcDbPolyline
 90
        4
 70
     0
 43
0.0
 10
687.264363492206
 20
267.792506711769
 10
687.264363492206
 20
267.614729611414
 10
687.708809293174
 20
266.779175106647
 10
687.726594937332
 20
265.570285337257
  0
LWPOLYLINE
  5
196F
330
A
100
AcDbEntity
  8
部材(ﾋﾞｽ類)
100
AcDbPolyline
 90
       58
 70
     1
 43
0.0
 10
695.200913707937
 20
281.785105013085
 10
692.553076682416
 20
278.319600530951
 10
692.553076682423
 20
282.809019417276
 42
-0.355962003442
 10
692.718094758769
 20
283.01144103548
 10
692.926404319041
 20
283.057908576688
 10
692.997510276073
 20
283.093464606216
 10
693.068616233104
 20
283.093464606216
 10
693.139734397446
 20
283.129020637607
 10
693.15750783476
 20
283.129020637607
 10
693.15750783476
 20
309.466177925126
 42
-0.19891236738
 10
693.216086478518
 20
309.607599281364
 10
694.672631493682
 20
311.064144296521
 10
694.672631493682
 20
311.665768694533
 10
685.678312287404
 20
311.665768694533
 10
685.678312287404
 20
311.064144296521
 10
687.134857302568
 20
309.607599281364
 42
-0.19891236738
 10
687.193435946327
 20
309.466177925126
 10
687.193435946327
 20
283.129020637607
 10
687.21120938364
 20
283.129020637607
 10
687.282327547982
 20
283.093464606216
 10
687.353433505014
 20
283.093464606216
 10
687.424539462045
 20
283.057908576688
 10
687.632849022317
 20
283.01144103548
 42
-0.355962003442
 10
687.797867098663
 20
282.809019417276
 10
687.79786709867
 20
278.319600530951
 10
685.15003007315
 20
281.785105013085
 42
0.982770495282
 10
684.427215320939
 20
281.252470704552
 10
687.17547189055
 20
277.054730527314
 10
687.264363492206
 20
275.454730527686
 10
688.331026089676
 20
275.454730527686
 10
688.331026089676
 20
273.232507625806
 10
687.17547189055
 20
273.232507625806
 10
687.264363492206
 20
271.614729611414
 10
688.277705777269
 20
271.614729611414
 10
688.206599820238
 20
269.410286251667
 10
687.17547189055
 20
269.410286251667
 10
687.264363492206
 20
267.792506711769
 10
688.135481656362
 20
267.792506711769
 10
688.06436349202
 20
265.570285337257
 10
687.17547189055
 20
265.570285337257
 10
687.283404536152
 20
263.429834252507
 10
687.92547189055
 20
261.665768694533
 10
692.425471890536
 20
261.665768694533
 10
693.067539244934
 20
263.429834252514
 10
693.175471890536
 20
265.570285337257
 10
692.286580289066
 20
265.570285337257
 10
692.215462124725
 20
267.792506711769
 10
693.08658028888
 20
267.792506711769
 10
693.175471890536
 20
269.410286251667
 10
692.144343960848
 20
269.410286251667
 10
692.073238003817
 20
271.614729611414
 10
693.08658028888
 20
271.614729611414
 10
693.175471890536
 20
273.232507625806
 10
692.01991769141
 20
273.232507625806
 10
692.01991769141
 20
275.454730527686
 10
693.08658028888
 20
275.454730527686
 10
693.175471890536
 20
277.054730527314
 10
695.923728460148
 20
281.252470704552
 42
0.982770495282
  0
LWPOLYLINE
  5
1970
330
A
100
AcDbEntity
  8
部材(ﾋﾞｽ類)
100
AcDbPolyline
 90
        4
 70
     0
 43
0.0
 10
693.08658028888
 20
267.792506711769
 10
693.08658028888
 20
267.614729611414
 10
692.642134487913
 20
266.779175106647
 10
692.624348843754
 20
265.570285337257
  0
LWPOLYLINE
  5
1971
330
A
100
AcDbEntity
  8
部材(ﾋﾞｽ類)
100
AcDbPolyline
 90
        4
 70
     0
 43
0.0
 10
692.69546700763
 20
269.410286251667
 10
692.713240444944
 20
270.619172970044
 10
693.08658028888
 20
271.419172970789
 10
693.08658028888
 20
271.614729611414
  0
LWPOLYLINE
  5
1972
330
A
100
AcDbEntity
  8
部材(ﾋﾞｽ類)
100
AcDbPolyline
 90
        4
 70
     0
 43
0.0
 10
693.08658028888
 20
275.454730527686
 10
693.08658028888
 20
275.205841366413
 10
692.784358609286
 20
274.441394346046
 10
692.748799527348
 20
273.232507625806
  0
LWPOLYLINE
  5
1973
330
A
100
AcDbEntity
  8
部材(ﾋﾞｽ類)
100
AcDbPolyline
 90
        7
 70
     0
 43
0.0
 10
690.523839584188
 20
282.916890390959
 10
692.019768183964
 20
282.916854217154
 10
692.019768183964
 20
277.054598357732
 10
692.28643078162
 20
277.054598357732
 10
692.28643078162
 20
277.807520073606
 42
-0.13354901382
 10
692.355293840679
 20
278.060741198628
 10
692.553076682416
 20
278.319600530951
  0
LWPOLYLINE
  5
1974
330
A
100
AcDbEntity
  8
部材(ﾋﾞｽ類)
100
AcDbPolyline
 90
        7
 70
     0
 43
0.0
 10
689.827104905518
 20
282.916890108885
 10
688.331175597123
 20
282.916854217154
 10
688.331175597123
 20
277.054598357732
 10
688.064512999466
 20
277.054598357732
 10
688.064512999466
 20
277.807520073606
 42
0.13354901382
 10
687.995649940407
 20
278.060741198628
 10
687.79786709867
 20
278.319600530951
  0
LWPOLYLINE
  5
1975
330
A
100
AcDbEntity
  8
部材(ﾋﾞｽ類)
100
AcDbPolyline
 90
       15
 70
     0
 43
0.0
 10
689.389952082201
 20
261.665768694533
 10
688.968428989618
 20
261.34496218292
 10
688.338012427957
 20
260.71454562126
 10
688.338012427957
 20
260.614545621262
 10
689.258858070447
 20
260.261066097293
 10
689.717129844546
 20
258.550772552655
 10
689.483890204428
 20
258.31753291253
 10
689.483890204428
 20
258.217532912524
 10
689.84339877106
 20
258.079530503514
 10
690.175471890543
 20
256.840216749755
 10
690.648873369639
 20
258.606975122122
 10
691.123829683762
 20
258.789293769325
 10
691.123829683762
 20
258.889293769324
 10
690.808904398917
 20
259.204219054169
 10
691.468474637179
 20
261.665768694533
  0
LINE
  5
1976
330
A
100
AcDbEntity
  8
中心線
 48
0.25
100
AcDbLine
 10
690.175471890543
 20
256.496113980473
 30
0.0
 11
690.175471890543
 21
320.394296603365
 31
0.0
  0
LINE
  5
1977
330
A
100
AcDbEntity
  8
IBｼｰﾄ
100
AcDbLine
 10
661.635181860205
 20
333.235029635915
 30
0.0
 11
661.635181860205
 21
848.78508810632
 31
0.0
  0
LINE
  5
1978
330
A
100
AcDbEntity
  8
IBｼｰﾄ
100
AcDbLine
 10
732.392350254275
 20
312.064144296521
 30
0.0
 11
1260.635181860205
 21
312.064144296521
 31
0.0
  0
HATCH
  5
1979
330
A
100
AcDbEntity
  8
部材(積層鋼板)
 62
     4
100
AcDbHatch
 10
0.0
 20
0.0
 30
0.0
210
0.0
220
0.0
230
1.0
  2
ANSI31
 70
     0
 71
     0
 91
        3
 92
        7
 72
     1
 73
     1
 93
        8
 10
673.524513220771
 20
312.0641442965207
 42
0.0
 10
690.175471890565
 20
312.0641442965207
 42
0.0
 10
690.175471890565
 20
315.2308109625228
 42
0.0
 10
673.524513220771
 20
315.2308109625228
 42
-0.3639702342664197
 10
665.908666596828
 20
321.6212650557791
 42
0.0
 10
664.7537397440828
 20
328.1711807187603
 42
0.0
 10
661.6351818602052
 20
327.6212948229295
 42
0.0
 10
662.7901087129503
 20
321.0713791599628
 42
0.3639702342665697
 97
        0
 92
        7
 72
     0
 73
     1
 93
        4
 10
690.175471890565
 20
312.0641442965207
 10
710.175471890565
 20
312.0641442965207
 10
710.175471890565
 20
315.2308109625228
 10
690.175471890565
 20
315.2308109625228
 97
        0
 92
        7
 72
     0
 73
     1
 93
        4
 10
725.175471890565
 20
312.0641442965207
 10
725.175471890565
 20
315.2308109625228
 10
710.175471890565
 20
315.2308109625228
 10
710.175471890565
 20
312.0641442965207
 97
        0
 75
     0
 76
     1
 52
0.0
 41
20.0
 77
     0
 78
     1
 53
45.0
 43
680.4767259295259
 44
221.5489779721902
 45
-1.767766952966369
 46
1.767766952966369
 79
     0
 47
0.0
 98
        3
 10
664.8767259295273
 20
322.7489779721946
 10
692.8767259295273
 20
313.9489779721916
 10
714.0767259295244
 20
313.3489779721931
1001
ACAD
1010
0.0
1020
0.0
1030
0.0
1001
HATCHBACKGROUNDCOLOR
1071
-939524096
1000

1000

  0
LWPOLYLINE
  5
197A
330
A
100
AcDbEntity
  8
部材(積層鋼板)
100
AcDbPolyline
 90
        8
 70
     1
 43
0.0
 10
673.524513220771
 20
312.064144296521
 10
725.175471890565
 20
312.064144296521
 10
725.175471890565
 20
315.230810962523
 10
673.524513220771
 20
315.230810962523
 42
-0.363970234266
 10
665.908666596828
 20
321.621265055779
 10
664.753739744083
 20
328.17118071876
 10
661.635181860205
 20
327.621294822929
 10
662.79010871295
 20
321.071379159963
 42
0.363970234266
  0
LINE
  5
197B
330
A
100
AcDbEntity
  8
IBｼｰﾄ
100
AcDbLine
 10
725.175471890565
 20
316.230810962523
 30
0.0
 11
680.524513220771
 21
316.230810962523
 31
0.0
  0
ARC
  5
197C
330
A
100
AcDbEntity
  8
IBｼｰﾄ
100
AcDbCircle
 10
673.524513220771
 20
322.964144296515
 30
0.0
 40
6.733333333992315
100
AcDbArc
 50
189.999999999967
 51
247.888120325931
  0
LINE
  5
197D
330
A
100
AcDbEntity
  8
IBｼｰﾄ
100
AcDbLine
 10
666.893474349839
 20
321.794913233447
 30
0.0
 11
665.738547497094
 21
328.344828896428
 31
0.0
  0
LINE
  5
197E
330
A
100
AcDbEntity
  8
中心線
100
AcDbLine
 10
710.175471890565
 20
319.479310620816
 30
0.0
 11
710.175471890565
 21
301.479310620816
 31
0.0
  0
LINE
  5
197F
330
A
100
AcDbEntity
  8
IBｼｰﾄ
100
AcDbLine
 10
665.738547497094
 20
328.344828896428
 30
0.0
 11
661.635181860205
 21
333.235029635915
 31
0.0
  0
LINE
  5
1980
330
A
100
AcDbEntity
  8
IBｼｰﾄ
100
AcDbLine
 10
670.429941817289
 20
330.532461995361
 30
0.0
 11
666.635181860205
 21
335.054880807249
 31
0.0
  0
LINE
  5
1981
330
A
100
AcDbEntity
  8
IBｼｰﾄ
100
AcDbLine
 10
671.767234802268
 20
322.948296602131
 30
0.0
 11
670.429941817289
 21
330.532461995361
 31
0.0
  0
LINE
  5
1982
330
A
100
AcDbEntity
  8
IBｼｰﾄ
100
AcDbLine
 10
726.515217852721
 20
321.230810962523
 30
0.0
 11
680.524513220771
 21
321.230810962523
 31
0.0
  0
LINE
  5
1983
330
A
100
AcDbEntity
  8
IBｼｰﾄ
100
AcDbLine
 10
725.175471890565
 20
316.230810962523
 30
0.0
 11
732.392350254275
 21
312.064144296521
 31
0.0
  0
LINE
  5
1984
330
A
100
AcDbEntity
  8
IBｼｰﾄ
100
AcDbLine
 10
726.515217852721
 20
321.230810962523
 30
0.0
 11
733.73209621643
 21
317.064144296521
 31
0.0
  0
LINE
  5
1985
330
A
100
AcDbEntity
  8
IBｼｰﾄ
100
AcDbLine
 10
680.524513220771
 20
316.230810962523
 30
0.0
 11
680.524513220771
 21
321.230810962523
 31
0.0
  0
LINE
  5
1986
330
A
100
AcDbEntity
  8
IBリキッド
100
AcDbLine
 10
726.515217852721
 20
322.230810962523
 30
0.0
 11
719.515217852721
 21
322.230810962523
 31
0.0
  0
LINE
  5
1987
330
A
100
AcDbEntity
  8
IBｼｰﾄ
100
AcDbLine
 10
670.989976390018
 20
316.726043556686
 30
0.0
 11
680.524513220771
 21
322.230810962523
 31
0.0
  0
LINE
  5
1988
330
A
100
AcDbEntity
  8
IBｼｰﾄ
100
AcDbLine
 10
671.767234802268
 20
322.948296602131
 30
0.0
 11
679.184767258615
 21
327.230810962523
 31
0.0
  0
LINE
  5
1989
330
A
100
AcDbEntity
  8
IBリキッド
100
AcDbLine
 10
719.515217852721
 20
322.230810962523
 30
0.0
 11
719.515217852721
 21
327.230810962523
 31
0.0
  0
LINE
  5
198A
330
A
100
AcDbEntity
  8
IBｼｰﾄ
100
AcDbLine
 10
718.515217852721
 20
322.230810962523
 30
0.0
 11
718.515217852721
 21
327.230810962523
 31
0.0
  0
LINE
  5
198B
330
A
100
AcDbEntity
  8
IBｼｰﾄ
100
AcDbLine
 10
718.515217852721
 20
327.230810962523
 30
0.0
 11
679.184767258615
 21
327.230810962523
 31
0.0
  0
LINE
  5
198C
330
A
100
AcDbEntity
  8
IBｼｰﾄ
100
AcDbLine
 10
718.515217852721
 20
322.230810962523
 30
0.0
 11
680.524513220771
 21
322.230810962523
 31
0.0
  0
ARC
  5
198D
330
A
100
AcDbEntity
  8
IBリキッド
100
AcDbCircle
 10
719.515217852721
 20
319.830810962521
 30
0.0
 40
7.400000000000472
100
AcDbArc
 50
18.924644416062
 51
90.0
  0
LINE
  5
198E
330
A
100
AcDbEntity
  8
寸法線
100
AcDbLine
 10
751.216733515255
 20
432.202188739895
 30
0.0
 11
763.216733515255
 21
432.202188739895
 31
0.0
  0
TEXT
  5
198F
330
A
100
AcDbEntity
  8
文字
100
AcDbText
 10
767.757312330992
 20
428.363700333372
 30
0.0
 40
12.0
  1
IB積層鋼鈑♯16
  7
基本スタイル
100
AcDbText
1001
AcadAnnotative
1000
AnnotativeData
1002
{
1070
     1
1070
     0
1002
}
  0
LWPOLYLINE
  5
1990
330
A
100
AcDbEntity
  8
寸法線
100
AcDbPolyline
 90
        3
 70
     0
 43
0.0
 10
687.926670803914
 20
319.47347270773
 10
683.684051175012
 20
315.230810962523
 10
685.236936679627
 20
321.026373627996
  0
LINE
  5
1991
330
A
100
AcDbEntity
  8
寸法線
100
AcDbLine
 10
683.684051175012
 20
315.230810962523
 30
0.0
 11
751.216733515255
 21
432.202188739895
 31
0.0
  0
LWPOLYLINE
  5
1992
330
A
100
AcDbEntity
  8
寸法線
100
AcDbPolyline
 90
        3
 70
     0
 43
0.0
 10
728.059000115143
 20
330.095100394654
 10
723.816380486242
 20
325.852438649446
 10
725.369265990856
 20
331.648001314927
  0
LINE
  5
1993
330
A
100
AcDbEntity
  8
寸法線
100
AcDbLine
 10
769.773891865072
 20
405.454095786634
 30
0.0
 11
781.773891865072
 21
405.454095786634
 31
0.0
  0
TEXT
  5
1994
330
A
100
AcDbEntity
  8
文字
100
AcDbText
 10
786.314470680809
 20
401.61560738011
 30
0.0
 40
12.0
  1
IBリキッド
  7
基本スタイル
100
AcDbText
1001
AcadAnnotative
1000
AnnotativeData
1002
{
1070
     1
1070
     0
1002
}
  0
LINE
  5
1995
330
A
100
AcDbEntity
  8
寸法線
100
AcDbLine
 10
723.816380486242
 20
325.852438649454
 30
0.0
 11
769.773891865072
 21
405.454095786641
 31
0.0
  0
LINE
  5
1996
330
A
100
AcDbEntity
  8
寸法線
100
AcDbLine
 10
950.183639038318
 20
317.064144296521
 30
0.0
 11
1016.657858018101
 21
432.202188740892
 31
0.0
  0
LINE
  5
1997
330
A
100
AcDbEntity
  8
寸法線
100
AcDbLine
 10
1016.657858018101
 20
432.202188740892
 30
0.0
 11
1028.657858018101
 21
432.202188740892
 31
0.0
  0
TEXT
  5
1998
330
A
100
AcDbEntity
  8
文字
100
AcDbText
 10
1033.198436833838
 20
428.363700334376
 30
0.0
 40
12.0
  1
サンタックIB-LLシート 1.5㎜
  7
基本スタイル
100
AcDbText
1001
AcadAnnotative
1000
AnnotativeData
1002
{
1070
     1
1070
     0
1002
}
  0
LWPOLYLINE
  5
1999
330
A
100
AcDbEntity
  8
寸法線
100
AcDbPolyline
 90
        3
 70
     0
 43
0.0
 10
954.426258667219
 20
321.306806041728
 10
950.183639038318
 20
317.064144296521
 10
951.736524542932
 20
322.859706962001
  0
HATCH
  5
199A
330
A
100
AcDbEntity
  8
部材(積層鋼板)
 62
     4
100
AcDbHatch
 10
0.0
 20
0.0
 30
0.0
210
0.0
220
0.0
230
1.0
  2
ANSI31
 70
     0
 71
     0
 91
        2
 92
        7
 72
     1
 73
     1
 93
        6
 10
465.5745431567484
 20
918.3974776275209
 42
0.9999999999999999
 10
465.5745431567484
 20
912.0641442955384
 42
0.0
 10
477.4078764907317
 20
912.0641442955239
 42
0.0
 10
477.4078764907463
 20
915.2308109615406
 42
0.0
 10
487.4078764907463
 20
915.2308109615406
 42
0.0
 10
487.4078764907463
 20
918.3974776275281
 42
0.0
 97
        0
 92
        7
 72
     0
 73
     1
 93
        4
 10
512.4078764907463
 20
915.2308109615333
 10
512.407876490739
 20
918.3974776275427
 10
487.4078764907463
 20
918.3974776275281
 10
487.4078764907463
 20
915.2308109615406
 97
        0
 75
     0
 76
     1
 52
354.816710168937
 41
20.0
 77
     0
 78
     1
 53
39.81671016893733
 43
1073.907876490754
 44
797.7134204201866
 45
-1.600834350504252
 46
1.920242011373989
 79
     0
 47
0.0
 98
        2
 10
476.9078764907536
 20
916.2134204201866
 10
492.4078764907536
 20
916.2134204201866
1001
ACAD
1010
0.0
1020
0.0
1030
0.0
1001
HATCHBACKGROUNDCOLOR
1071
-939524096
1000

1000

  0
LWPOLYLINE
  5
199B
330
A
100
AcDbEntity
  8
部材(積層鋼板)
100
AcDbPolyline
 90
        7
 70
     0
 43
0.0
 10
465.574543156748
 20
915.230810961541
 10
512.407876490746
 20
915.230810961533
 10
512.407876490739
 20
918.397477627543
 10
465.574543156748
 20
918.397477627521
 42
0.999999999999
 10
465.574543156741
 20
912.064144295538
 10
477.407876490732
 20
912.064144295524
 10
477.407876490746
 20
915.230810961541
  0
LINE
  5
199C
330
A
100
AcDbEntity
  8
IBｼｰﾄ
100
AcDbLine
 10
512.407876490739
 20
919.397477627543
 30
0.0
 11
473.574543156748
 21
919.397477627521
 31
0.0
  0
LINE
  5
199D
330
A
100
AcDbEntity
  8
IBｼｰﾄ
100
AcDbLine
 10
513.747622452895
 20
924.397477627543
 30
0.0
 11
473.574543156748
 21
924.397477627528
 31
0.0
  0
LINE
  5
199E
330
A
100
AcDbEntity
  8
IBｼｰﾄ
100
AcDbLine
 10
473.574543156748
 20
919.397477627521
 30
0.0
 11
473.574543156748
 21
924.397477627528
 31
0.0
  0
HATCH
  5
199F
330
A
100
AcDbEntity
  8
シーリング(IBｼﾘｺｰﾝ)
100
AcDbHatch
 10
0.0
 20
0.0
 30
0.0
210
0.0
220
0.0
230
1.0
  2
DOTS1
 70
     0
 71
     0
 91
        4
 92
        7
 72
     1
 73
     1
 93
        4
 10
462.3315607546683
 20
913.5761956872593
 42
-0.1787385444181676
 10
461.3315607546683
 20
916.284208488556
 42
-0.072648558292218
 10
460.7827758594794
 20
912.5271586312665
 42
0.0
 10
462.3315607546683
 20
912.3870304740121
 42
0.0
 97
        0
 92
        7
 72
     1
 73
     1
 93
        4
 10
460.7827758594794
 20
912.5271586312665
 42
-0.0092502983552294
 10
460.6351818602052
 20
912.0641442962369
 42
0.0
 10
462.3315607546683
 20
912.0641442962369
 42
0.0
 10
462.3315607546683
 20
912.3870304740121
 42
0.0
 97
        0
 92
        7
 72
     1
 73
     1
 93
        3
 10
462.3315607546683
 20
912.3870304740121
 42
0.0
 10
465.1227768695535
 20
912.1344918730174
 42
-0.1957136047537653
 10
462.3315607546683
 20
913.5761956872593
 42
0.0
 97
        0
 92
        7
 72
     0
 73
     1
 93
        4
 10
465.9003027178696
 20
912.0641442962369
 10
465.1227768695535
 20
912.1344918730174
 10
462.3315607546683
 20
912.3870304740121
 10
462.3315607546683
 20
912.0641442962369
 97
        0
 75
     0
 76
     1
 52
225.0
 41
5.0
 77
     0
 78
     1
 53
225.0
 43
1909.489605385919
 44
827.6070320437939
 45
0.110485434560398
 46
-0.3314563036811942
 79
     2
 49
0.0
 49
-0.3125
 47
0.0
 98
        4
 10
461.5896053859178
 20
913.5070320437953
 10
461.3896053859207
 20
912.2070320437924
 10
462.6896053859164
 20
912.6070320437939
 10
462.5496053859169
 20
912.2470320438006
1001
ACAD
1010
0.0
1020
0.0
1030
0.0
1001
HATCHBACKGROUNDCOLOR
1071
-939524096
1000

1000

  0
LINE
  5
19A0
330
A
100
AcDbEntity
  8
IBｼｰﾄ
100
AcDbLine
 10
512.407876490739
 20
919.397477627543
 30
0.0
 11
525.109582408913
 21
912.064144296521
 31
0.0
  0
LINE
  5
19A1
330
A
100
AcDbEntity
  8
IBｼｰﾄ
100
AcDbLine
 10
513.747622452895
 20
924.397477627543
 30
0.0
 11
526.449328371062
 21
917.064144296528
 31
0.0
  0
LWPOLYLINE
  5
19A2
330
A
100
AcDbEntity
  8
部材(ﾋﾞｽ類)
100
AcDbPolyline
 90
       32
 70
     0
 43
0.0
 10
487.764129599876
 20
863.368453567447
 10
487.73095172429
 20
863.368453567455
 42
0.126825768809
 10
487.553139286691
 20
864.058188650801
 10
486.825618168034
 20
865.375440361349
 42
-0.256490137263
 10
486.819117128871
 20
865.950288955792
 10
488.405662798308
 20
868.918701531933
 42
0.253636490355
 10
488.39923251338
 20
870.057217094611
 10
486.951512146741
 20
873.070905949309
 42
-0.218900263645
 10
486.944923374271
 20
873.458960940603
 10
488.315803654354
 20
876.625087423512
 42
0.209095404736
 10
488.312321660102
 20
877.582211642482
 10
487.044588361467
 20
880.534832615318
 42
-0.199072424679
 10
487.04044278228
 20
880.865164195246
 10
487.611503124834
 20
882.293015735937
 42
0.099854070822
 10
487.72306630879
 20
882.846076842499
 10
487.723066308798
 20
883.656146877627
 42
3.867768794258
 10
487.09268667268
 20
883.656146877627
 10
487.09268667268
 20
882.846076842492
 42
-0.095438157436
 10
487.035707227464
 20
882.550280838208
 10
486.45534172895
 20
881.099760368219
 42
0.206638844849
 10
486.477699830895
 20
880.2584466068
 10
487.825676503118
 20
877.350853660842
 42
-0.21270382653
 10
487.832943574962
 20
876.86479285088
 10
486.464780592061
 20
873.666400230657
 42
0.20973763421
 10
486.472690121213
 20
872.813260910843
 10
487.851075718609
 20
869.749352366875
 42
-0.270363890763
 10
487.812589585556
 20
869.148730456574
 10
486.265918272155
 20
866.2277015293
 42
0.248644858073
 10
486.266411781762
 20
865.108939132369
 10
486.991911837365
 20
863.741684714529
 42
-0.122570027372
 10
487.084801257181
 20
863.368453567455
 10
487.051623381594
 20
863.368453567447
  0
LWPOLYLINE
  5
19A3
330
A
100
AcDbEntity
  8
部材(ﾋﾞｽ類)
100
AcDbPolyline
 90
       32
 70
     0
 43
0.0
 10
487.744335799121
 20
861.665768694525
 10
487.764129599876
 20
863.368453567447
 42
0.126825813089
 10
487.582181866266
 20
864.074229224345
 10
486.854574649005
 20
865.391636282598
 42
-0.256544899034
 10
486.848377828668
 20
865.934649810166
 10
488.434921146618
 20
868.903057986696
 42
0.251254532285
 10
488.433559332298
 20
870.063538883027
 10
486.981416165567
 20
873.085276790829
 42
-0.218900263645
 10
486.975298019715
 20
873.445613568467
 10
488.346250084265
 20
876.611904619007
 42
0.209095404736
 10
488.342671367835
 20
877.595615622078
 10
487.075074952045
 20
880.547922276208
 42
-0.199109332435
 10
487.071269261731
 20
880.852896226563
 10
487.651781842542
 20
882.30378410397
 42
0.095438169349
 10
487.756244184369
 20
882.846076842492
 10
487.756244184377
 20
883.636925436018
 42
3.649823686132
 10
487.059508797087
 20
883.636925436018
 10
487.059508797094
 20
882.846076842492
 42
-0.105213986763
 10
486.993401269123
 20
882.53539705187
 10
486.424239316679
 20
881.111338697308
 42
0.206444475481
 10
486.447599386884
 20
880.2444918693
 10
487.795576059107
 20
877.336898923342
 42
-0.212703826529
 10
487.802439404739
 20
876.877841491703
 10
486.434276421838
 20
873.679448871488
 42
0.209737634211
 10
486.442433123775
 20
872.799648947919
 10
487.821104278933
 20
869.735105659318
 42
-0.271504379566
 10
487.784096922485
 20
869.1658206434
 10
486.23659708046
 20
866.243226964754
 42
0.248644858073
 10
486.237104298678
 20
865.093387834575
 10
486.962604354267
 20
863.726133416734
 42
-0.122570027372
 10
487.051623381594
 20
863.368453567447
 10
487.071417182335
 20
861.665768694525
  0
LWPOLYLINE
  5
19A4
330
A
100
AcDbEntity
  8
部材(ﾋﾞｽ類)
100
AcDbPolyline
 90
        4
 70
     0
 43
0.0
 10
487.084801257181
 20
861.665768694525
 10
487.084801257181
 20
862.642961928439
 10
487.730951724297
 20
862.642961928439
 10
487.73095172429
 20
861.665768694525
  0
LINE
  5
19A5
330
A
100
AcDbEntity
  8
部材(ﾋﾞｽ類)
100
AcDbLine
 10
490.407876490724
 20
909.549020637598
 30
0.0
 11
484.407876490732
 21
909.549020637598
 31
0.0
  0
LINE
  5
19A6
330
A
100
AcDbEntity
  8
部材(ﾋﾞｽ類)
100
AcDbLine
 10
482.9107168876
 20
911.064144296521
 30
0.0
 11
491.905036093871
 21
911.064144296521
 31
0.0
  0
LINE
  5
19A7
330
A
100
AcDbEntity
  8
部材(ﾋﾞｽ類)
100
AcDbLine
 10
482.907876490739
 20
918.397477627528
 30
0.0
 11
491.907876490739
 21
918.397477627528
 31
0.0
  0
LINE
  5
19A8
330
A
100
AcDbEntity
  8
部材(ﾋﾞｽ類)
100
AcDbLine
 10
489.077876490737
 20
915.567477627541
 30
0.0
 11
485.737876490748
 21
915.567477627541
 31
0.0
  0
LINE
  5
19A9
330
A
100
AcDbEntity
  8
部材(ﾋﾞｽ類)
100
AcDbLine
 10
488.580981078187
 20
861.665768694525
 30
0.0
 11
485.570417028153
 21
860.614545621254
 31
0.0
  0
LINE
  5
19AA
330
A
100
AcDbEntity
  8
部材(ﾋﾞｽ類)
100
AcDbLine
 10
488.294594284889
 20
861.665768694525
 30
0.0
 11
485.570417028153
 21
860.714545621253
 31
0.0
  0
LINE
  5
19AB
330
A
100
AcDbEntity
  8
部材(ﾋﾞｽ類)
100
AcDbLine
 10
488.700879237367
 20
861.665768694525
 30
0.0
 11
486.491262670628
 21
860.261066097286
 31
0.0
  0
LINE
  5
19AC
330
A
100
AcDbEntity
  8
部材(ﾋﾞｽ類)
100
AcDbLine
 10
488.35623428395
 20
858.789293769318
 30
0.0
 11
486.716294804624
 21
858.217532912517
 31
0.0
  0
LINE
  5
19AD
330
A
100
AcDbEntity
  8
部材(ﾋﾞｽ類)
100
AcDbLine
 10
488.35623428395
 20
858.889293769316
 30
0.0
 11
486.716294804617
 21
858.317532912522
 31
0.0
  0
LINE
  5
19AE
330
A
100
AcDbEntity
  8
部材(ﾋﾞｽ類)
100
AcDbLine
 10
487.881277969827
 20
858.606975122115
 30
0.0
 11
487.075803371248
 21
858.079530503506
 31
0.0
  0
LINE
  5
19AF
330
A
100
AcDbEntity
  8
部材(ﾋﾞｽ類)
100
AcDbLine
 10
488.041308999105
 20
859.204219054169
 30
0.0
 11
486.949534444735
 21
858.550772552648
 31
0.0
  0
LINE
  5
19B0
330
A
100
AcDbEntity
  8
部材(ﾋﾞｽ類)
100
AcDbLine
 10
486.114873744096
 20
861.665768694525
 30
0.0
 11
486.200833589814
 21
861.34496218292
 31
0.0
  0
LWPOLYLINE
  5
19B1
330
A
100
AcDbEntity
  8
部材(ﾋﾞｽ類)
100
AcDbPolyline
 90
        4
 70
     0
 43
0.0
 10
484.496768092402
 20
875.454730527679
 10
484.496768092395
 20
875.205841366413
 10
484.798989771989
 20
874.441394346046
 10
484.834548853934
 20
873.232507625806
  0
LWPOLYLINE
  5
19B2
330
A
100
AcDbEntity
  8
部材(ﾋﾞｽ類)
100
AcDbPolyline
 90
        4
 70
     0
 43
0.0
 10
484.887881373637
 20
869.410286251659
 10
484.870107936338
 20
870.619172970044
 10
484.496768092395
 20
871.419172970789
 10
484.496768092395
 20
871.614729611414
  0
LWPOLYLINE
  5
19B3
330
A
100
AcDbEntity
  8
部材(ﾋﾞｽ類)
100
AcDbPolyline
 90
        4
 70
     0
 43
0.0
 10
484.496768092395
 20
867.792506711761
 10
484.496768092395
 20
867.614729611414
 10
484.941213893362
 20
866.779175106647
 10
484.958999537521
 20
865.570285337257
  0
LWPOLYLINE
  5
19B4
330
A
100
AcDbEntity
  8
部材(ﾋﾞｽ類)
100
AcDbPolyline
 90
       58
 70
     1
 43
0.0
 10
492.433318308133
 20
881.785105013085
 10
489.785481282597
 20
878.319600530944
 10
489.785481282619
 20
882.809019417269
 42
-0.355962003442
 10
489.950499358965
 20
883.011441035473
 10
490.158808919237
 20
883.05790857668
 10
490.229914876261
 20
883.093464606209
 10
490.301020833285
 20
883.093464606216
 10
490.372138997634
 20
883.1290206376
 10
490.389912434948
 20
883.1290206376
 10
490.389912434948
 20
909.466177925118
 42
-0.19891236738
 10
490.4484910787
 20
909.607599281357
 10
491.905036093871
 20
911.064144296521
 10
491.905036093871
 20
911.665768694525
 10
482.910716887593
 20
911.665768694525
 10
482.9107168876
 20
911.064144296521
 10
484.367261902757
 20
909.607599281357
 42
-0.19891236738
 10
484.425840546515
 20
909.466177925118
 10
484.425840546508
 20
883.1290206376
 10
484.443613983836
 20
883.1290206376
 10
484.514732148171
 20
883.093464606209
 10
484.585838105202
 20
883.093464606209
 10
484.656944062233
 20
883.05790857668
 10
484.865253622505
 20
883.011441035473
 42
-0.355962003442
 10
485.030271698852
 20
882.809019417269
 10
485.030271698859
 20
878.319600530951
 10
482.382434673338
 20
881.785105013085
 42
0.982770495282
 10
481.65961992112
 20
881.252470704552
 10
484.407876490739
 20
877.054730527307
 10
484.496768092402
 20
875.454730527679
 10
485.563430689865
 20
875.454730527686
 10
485.563430689865
 20
873.232507625806
 10
484.407876490739
 20
873.232507625798
 10
484.496768092395
 20
871.614729611414
 10
485.510110377458
 20
871.614729611414
 10
485.439004420426
 20
869.410286251659
 10
484.407876490746
 20
869.410286251667
 10
484.496768092395
 20
867.792506711761
 10
485.36788625655
 20
867.792506711769
 10
485.296768092208
 20
865.570285337257
 10
484.407876490739
 20
865.570285337257
 10
484.515809136341
 20
863.4298342525
 10
485.157876490739
 20
861.665768694525
 10
489.657876490724
 20
861.665768694525
 10
490.29994384513
 20
863.429834252514
 10
490.407876490732
 20
865.570285337257
 10
489.518984889255
 20
865.570285337257
 10
489.44786672492
 20
867.792506711769
 10
490.318984889076
 20
867.792506711761
 10
490.407876490724
 20
869.410286251667
 10
489.376748561037
 20
869.410286251667
 10
489.305642604006
 20
871.614729611407
 10
490.318984889069
 20
871.614729611414
 10
490.407876490724
 20
873.232507625806
 10
489.252322291599
 20
873.232507625806
 10
489.252322291599
 20
875.454730527686
 10
490.318984889069
 20
875.454730527686
 10
490.407876490724
 20
877.054730527307
 10
493.156133060336
 20
881.252470704552
 42
0.982770495282
  0
LWPOLYLINE
  5
19B5
330
A
100
AcDbEntity
  8
部材(ﾋﾞｽ類)
100
AcDbPolyline
 90
        4
 70
     0
 43
0.0
 10
490.318984889076
 20
867.792506711761
 10
490.318984889076
 20
867.614729611414
 10
489.874539088094
 20
866.779175106647
 10
489.856753443943
 20
865.570285337257
  0
LWPOLYLINE
  5
19B6
330
A
100
AcDbEntity
  8
部材(ﾋﾞｽ類)
100
AcDbPolyline
 90
        4
 70
     0
 43
0.0
 10
489.927871607826
 20
869.410286251667
 10
489.945645045133
 20
870.619172970044
 10
490.318984889069
 20
871.419172970782
 10
490.318984889069
 20
871.614729611414
  0
LWPOLYLINE
  5
19B7
330
A
100
AcDbEntity
  8
部材(ﾋﾞｽ類)
100
AcDbPolyline
 90
        4
 70
     0
 43
0.0
 10
490.318984889069
 20
875.454730527686
 10
490.318984889069
 20
875.205841366413
 10
490.016763209474
 20
874.441394346046
 10
489.981204127544
 20
873.232507625806
  0
LWPOLYLINE
  5
19B8
330
A
100
AcDbEntity
  8
部材(ﾋﾞｽ類)
100
AcDbPolyline
 90
        7
 70
     0
 43
0.0
 10
487.756244184384
 20
882.916890390959
 10
489.252172784152
 20
882.916854217146
 10
489.252172784152
 20
877.054598357732
 10
489.518835381816
 20
877.054598357732
 10
489.518835381816
 20
877.807520073606
 42
-0.13354901382
 10
489.587698440875
 20
878.06074119862
 10
489.785481282597
 20
878.319600530944
  0
LWPOLYLINE
  5
19B9
330
A
100
AcDbEntity
  8
部材(ﾋﾞｽ類)
100
AcDbPolyline
 90
        7
 70
     0
 43
0.0
 10
487.059509505707
 20
882.916890108878
 10
485.563580197311
 20
882.916854217146
 10
485.563580197311
 20
877.054598357732
 10
485.296917599655
 20
877.054598357725
 10
485.296917599655
 20
877.807520073606
 42
0.13354901382
 10
485.228054540596
 20
878.060741198628
 10
485.030271698866
 20
878.319600530944
  0
LWPOLYLINE
  5
19BA
330
A
100
AcDbEntity
  8
部材(ﾋﾞｽ類)
100
AcDbPolyline
 90
       10
 70
     0
 43
0.0
 10
485.737876490741
 20
911.665768694525
 10
485.737876490741
 20
915.153264065157
 42
0.19891236738
 10
485.444983271926
 20
915.860370846349
 10
482.907876490739
 20
918.397477627528
 10
482.907876490739
 20
918.697477627531
 10
491.907876490739
 20
918.697477627531
 10
491.907876490739
 20
918.397477627528
 10
489.370769709552
 20
915.860370846342
 42
0.19891236738
 10
489.077876490737
 20
915.153264065157
 10
489.077876490737
 20
911.665768694525
  0
LWPOLYLINE
  5
19BB
330
A
100
AcDbEntity
  8
部材(ﾋﾞｽ類)
100
AcDbPolyline
 90
       15
 70
     0
 43
0.0
 10
486.62235668239
 20
861.665768694525
 10
486.200833589814
 20
861.34496218292
 10
485.570417028153
 20
860.714545621253
 10
485.570417028153
 20
860.614545621254
 10
486.491262670628
 20
860.261066097286
 10
486.949534444735
 20
858.550772552648
 10
486.716294804617
 20
858.317532912522
 10
486.716294804624
 20
858.217532912517
 10
487.075803371248
 20
858.079530503506
 10
487.407876490732
 20
856.840216749755
 10
487.881277969827
 20
858.606975122115
 10
488.35623428395
 20
858.789293769318
 10
488.35623428395
 20
858.889293769316
 10
488.041308999105
 20
859.204219054169
 10
488.700879237367
 20
861.665768694525
  0
LINE
  5
19BC
330
A
100
AcDbEntity
  8
中心線
 48
0.25
100
AcDbLine
 10
487.407876490739
 20
856.803677124393
 30
0.0
 11
487.407876490739
 21
920.701859747285
 31
0.0
  0
LINE
  5
19BD
330
A
100
AcDbEntity
  8
IBリキッド
100
AcDbLine
 10
472.574543156748
 20
919.397477627528
 30
0.0
 11
472.574543156748
 21
924.397477627528
 31
0.0
  0
ARC
  5
19BE
330
A
100
AcDbEntity
  8
IBリキッド
100
AcDbCircle
 10
472.574543156748
 20
916.997477627519
 30
0.0
 40
7.400000000000472
100
AcDbArc
 50
90.0
 51
161.075355583938
  0
LINE
  5
19BF
330
A
100
AcDbEntity
  8
IBリキッド
100
AcDbLine
 10
472.574543156748
 20
919.397477627528
 30
0.0
 11
465.574543156748
 21
919.397477627521
 31
0.0
  0
LINE
  5
19C0
330
A
100
AcDbEntity
  8
シーリング(IBｼﾘｺｰﾝ)
100
AcDbLine
 10
462.866530354637
 20
912.064144296237
 30
0.0
 11
460.96808427904
 21
912.064144296237
 31
0.0
  0
LINE
  5
19C1
330
A
100
AcDbEntity
  8
寸法線
100
AcDbLine
 10
544.557594072539
 20
1053.759428831159
 30
0.0
 11
556.557594072539
 21
1053.759428831159
 31
0.0
  0
TEXT
  5
19C2
330
A
100
AcDbEntity
  8
文字
100
AcDbText
 10
561.098172888276
 20
1049.920940424636
 30
0.0
 40
12.0
  1
IBリキッド
  7
基本スタイル
100
AcDbText
1001
AcadAnnotative
1000
AnnotativeData
1002
{
1070
     1
1070
     0
1002
}
  0
LWPOLYLINE
  5
19C3
330
A
100
AcDbEntity
  8
寸法線
100
AcDbPolyline
 90
        3
 70
     0
 43
0.0
 10
473.767595838435
 20
928.04029451649
 10
469.524976209534
 20
923.797632771282
 10
471.077861714148
 20
929.593195436755
  0
LINE
  5
19C4
330
A
100
AcDbEntity
  8
寸法線
100
AcDbLine
 10
469.524976209534
 20
923.797632771282
 30
0.0
 11
544.557594072539
 21
1053.759428831159
 31
0.0
  0
LWPOLYLINE
  5
19C5
330
A
100
AcDbEntity
  8
寸法線
100
AcDbPolyline
 90
        3
 70
     0
 43
0.0
 10
503.533578047551
 20
920.706676520393
 10
499.290958418649
 20
916.464014775178
 10
500.843843923263
 20
922.259577440658
  0
LINE
  5
19C6
330
A
100
AcDbEntity
  8
寸法線
100
AcDbLine
 10
563.114752422356
 20
1027.011335877905
 30
0.0
 11
575.114752422356
 21
1027.011335877905
 31
0.0
  0
TEXT
  5
19C7
330
A
100
AcDbEntity
  8
文字
100
AcDbText
 10
579.655331238093
 20
1023.172847471382
 30
0.0
 40
12.0
  1
IB積層鋼板♯60
  7
基本スタイル
100
AcDbText
1001
AcadAnnotative
1000
AnnotativeData
1002
{
1070
     1
1070
     0
1002
}
  0
LINE
  5
19C8
330
A
100
AcDbEntity
  8
寸法線
100
AcDbLine
 10
499.290958418649
 20
916.464014775178
 30
0.0
 11
563.114752422356
 21
1027.011335877905
 31
0.0
  0
LINE
  5
19C9
330
A
100
AcDbEntity
  8
寸法線
100
AcDbLine
 10
668.301848526207
 20
911.064144296521
 30
0.0
 11
728.946119093816
 21
1016.10430613783
 31
0.0
  0
LWPOLYLINE
  5
19CA
330
A
100
AcDbEntity
  8
寸法線
100
AcDbPolyline
 90
        3
 70
     0
 43
0.0
 10
672.544468155109
 20
915.306806041728
 10
668.301848526207
 20
911.064144296521
 10
669.854734030821
 20
916.859706962001
  0
LINE
  5
19CB
330
A
100
AcDbEntity
  8
寸法線
100
AcDbLine
 10
728.946119093824
 20
1016.10430613783
 30
0.0
 11
740.946119093824
 21
1016.10430613783
 31
0.0
  0
TEXT
  5
19CC
330
A
100
AcDbEntity
  8
文字
100
AcDbText
 10
745.48669790956
 20
1012.265817731313
 30
0.0
 40
12.0
  1
保護ﾌｫｰﾑ PF-50　2.0T×50W
  7
基本スタイル
100
AcDbText
1001
AcadAnnotative
1000
AnnotativeData
1002
{
1070
     1
1070
     0
1002
}
  0
TEXT
  5
19CD
330
A
100
AcDbEntity
  8
文字
100
AcDbText
 10
745.48669790956
 20
992.673875138134
 30
0.0
 40
12.0
  1
又は、IB積層鋼鈑
  7
基本スタイル
100
AcDbText
1001
AcadAnnotative
1000
AnnotativeData
1002
{
1070
     1
1070
     0
1002
}
  0
LINE
  5
19CE
330
A
100
AcDbEntity
  8
寸法線
100
AcDbLine
 10
666.635181860205
 20
591.250111475703
 30
0.0
 11
733.109400839989
 21
706.388155920074
 31
0.0
  0
LINE
  5
19CF
330
A
100
AcDbEntity
  8
寸法線
100
AcDbLine
 10
733.109400839989
 20
706.388155920074
 30
0.0
 11
745.109400839989
 21
706.388155920074
 31
0.0
  0
TEXT
  5
19D0
330
A
100
AcDbEntity
  8
文字
100
AcDbText
 10
749.649979655725
 20
702.549667513551
 30
0.0
 40
12.0
  1
サンタックIB-LLシート 1.5㎜
  7
基本スタイル
100
AcDbText
1001
AcadAnnotative
1000
AnnotativeData
1002
{
1070
     1
1070
     0
1002
}
  0
LWPOLYLINE
  5
19D1
330
A
100
AcDbEntity
  8
寸法線
100
AcDbPolyline
 90
        3
 70
     0
 43
0.0
 10
670.877801489107
 20
595.492773220911
 10
666.635181860205
 20
591.250111475703
 10
668.188067364819
 20
597.045674141184
  0
LINE
  5
19D2
330
A
100
AcDbEntity
  8
寸法線
100
AcDbLine
 10
467.850011514383
 20
959.564580644634
 30
0.0
 11
416.761532074255
 21
1048.053437026116
 31
0.0
  0
LINE
  5
19D3
330
A
100
AcDbEntity
  8
寸法線
100
AcDbLine
 10
416.761532074248
 20
1048.053437026116
 30
0.0
 11
404.761532074248
 21
1048.053437026116
 31
0.0
  0
TEXT
  5
19D4
330
A
100
AcDbEntity
  8
文字
100
AcDbText
 10
337.797544480219
 20
1044.214948619599
 30
0.0
 40
12.0
  1
金属笠木
  7
基本スタイル
 72
     2
 11
400.220953258511
 21
1044.214948619599
 31
0.0
100
AcDbText
1001
AcadAnnotative
1000
AnnotativeData
1002
{
1070
     1
1070
     0
1002
}
  0
LWPOLYLINE
  5
19D5
330
A
100
AcDbEntity
  8
寸法線
100
AcDbPolyline
 90
        3
 70
     0
 43
0.0
 10
463.607391885482
 20
963.807242389841
 10
467.850011514383
 20
959.564580644634
 10
466.297126009769
 20
965.360143310114
  0
LINE
  5
19D6
330
A
100
AcDbEntity
  8
部材(ﾋﾞｽ類)
100
AcDbLine
 10
685.675471890543
 20
315.230810962523
 30
0.0
 11
694.675471890543
 21
315.230810962523
 31
0.0
  0
LINE
  5
19D7
330
A
100
AcDbEntity
  8
部材(ﾋﾞｽ類)
100
AcDbLine
 10
691.845471890541
 20
312.400810962528
 30
0.0
 11
688.505471890545
 21
312.400810962528
 31
0.0
  0
LWPOLYLINE
  5
19D8
330
A
100
AcDbEntity
  8
部材(ﾋﾞｽ類)
100
AcDbPolyline
 90
       10
 70
     0
 43
0.0
 10
688.505471890545
 20
311.665768694533
 10
688.505471890545
 20
311.986597400151
 42
0.19891236738
 10
688.21257867173
 20
312.693704181336
 10
685.675471890543
 20
315.230810962523
 10
685.675471890543
 20
315.530810962526
 10
694.675471890543
 20
315.530810962526
 10
694.675471890543
 20
315.230810962523
 10
692.138365109357
 20
312.693704181336
 42
0.19891236738
 10
691.845471890541
 20
311.986597400151
 10
691.845471890541
 20
311.665768694533
  0
ARC
  5
19D9
330
A
100
AcDbEntity
  8
シーリング(IBｼﾘｺｰﾝ)
100
AcDbCircle
 10
465.574543156756
 20
915.230810961526
 30
0.0
 40
4.166666665994853
100
AcDbArc
 50
180.0
 51
229.464197870378
  0
ARC
  5
19DA
330
A
100
AcDbEntity
  8
シーリング(IBｼﾘｺｰﾝ)
100
AcDbCircle
 10
449.787394492174
 20
915.230810961526
 30
0.0
 40
11.62048199857737
100
AcDbArc
 50
344.186477042907
 51
0.0
  0
VIEWPORT
  5
1D
330
B
100
AcDbEntity
 67
     1
  8
0
100
AcDbViewport
 10
210.0
 20
148.5
 30
0.0
 40
420.0
 41
297.0
 68
     1
 69
     1
 12
4.5
 22
3.259162
 13
0.0
 23
0.0
 14
1.0
 24
1.0
 15
0.0
 25
0.0
 16
0.0
 26
0.0
 36
1.0
 17
0.0
 27
0.0
 37
0.0
 42
50.0
 43
0.0
 44
0.0
 45
9.311892
 50
0.0
 51
0.0
 72
   100
 90
   557216
  1

281
     0
 71
     1
 74
     0
110
0.0
120
0.0
130
0.0
111
1.0
121
0.0
131
0.0
112
0.0
122
1.0
132
0.0
 79
     0
146
0.0
170
     0
 61
     5
348
15D0
292
     0
282
     1
141
0.0
142
0.0
 63
   250
421
  3355443
  0
ENDSEC
  0
SECTION
  2
OBJECTS
  0
DICTIONARY
  5
19
330
0
100
AcDbDictionary
281
     1
  3
ACAD_COLOR
350
165E
  3
ACAD_DETAILVIEWSTYLE
350
1639
  3
ACAD_FIELDLIST
350
1A75
  3
ACAD_GROUP
350
1A
  3
ACAD_IMAGE_VARS
350
163B
  3
ACAD_LAYOUT
350
15C8
  3
ACAD_MATERIAL
350
15E4
  3
ACAD_MLEADERSTYLE
350
15EA
  3
ACAD_MLINESTYLE
350
1B
  3
ACAD_PLOTSETTINGS
350
15A3
  3
ACAD_PLOTSTYLENAME
350
15A4
  3
ACAD_SCALELIST
350
15A6
  3
ACAD_SECTIONVIEWSTYLE
350
163A
  3
ACAD_TABLESTYLE
350
15E8
  3
ACAD_VISUALSTYLE
350
15CB
  3
ACDB_RECOMPOSE_DATA
350
1AAE
  3
AcDbVariableDictionary
350
15F4
  0
SUN
  5
15ED
330
15
100
AcDbSun
 90
        1
290
     0
 63
     7
421
 16777215
 40
1.0
291
     1
 91
  2455826
 92
 54000000
292
     0
 70
     2
 71
   256
280
     1
  0
DICTIONARY
  5
1857
330
2
100
AcDbDictionary
280
     1
281
     1
  3
ACAD_LAYERSTATES
360
1858
  0
DICTIONARY
  5
163E
330
163D
100
AcDbDictionary
280
     1
281
     1
  3
ADSK_XREC_LAYER_RECONCILED
360
163F
  0
DICTIONARY
  5
164B
330
164A
100
AcDbDictionary
280
     1
281
     1
  3
ADSK_XREC_LAYER_RECONCILED
360
164C
  0
DICTIONARY
  5
16B3
330
16B2
100
AcDbDictionary
280
     1
281
     1
  3
ACAD_SORTENTS
360
16B4
  0
DICTIONARY
  5
16BF
330
16BE
100
AcDbDictionary
280
     1
281
     1
  3
ACAD_SORTENTS
360
16C0
  0
DICTIONARY
  5
16CB
330
16CA
100
AcDbDictionary
280
     1
281
     1
  3
ACAD_SORTENTS
360
16CC
  0
DICTIONARY
  5
16D7
330
16D6
100
AcDbDictionary
280
     1
281
     1
  3
ACAD_SORTENTS
360
16D8
  0
DICTIONARY
  5
16EC
330
16EB
100
AcDbDictionary
280
     1
281
     1
  3
ACAD_SORTENTS
360
16ED
  0
DICTIONARY
  5
1A76
330
189F
100
AcDbDictionary
280
     1
281
     1
  3
ACAD_XREC_ROUNDTRIP
360
1A77
  0
DICTIONARY
  5
18A2
330
18A1
100
AcDbDictionary
280
     1
281
     1
  3
AcDbContextDataManager
360
18A3
  0
DICTIONARY
  5
18A6
330
18A5
100
AcDbDictionary
280
     1
281
     1
  3
AcDbContextDataManager
360
18A7
  0
DICTIONARY
  5
18AA
330
18A9
100
AcDbDictionary
280
     1
281
     1
  3
AcDbContextDataManager
360
18AB
  0
DICTIONARY
  5
18AE
330
18AD
100
AcDbDictionary
280
     1
281
     1
  3
AcDbContextDataManager
360
18AF
  0
DICTIONARY
  5
18B2
330
18B1
100
AcDbDictionary
280
     1
281
     1
  3
AcDbContextDataManager
360
18B3
  0
DICTIONARY
  5
18B6
330
18B5
100
AcDbDictionary
280
     1
281
     1
  3
AcDbContextDataManager
360
18B7
  0
DICTIONARY
  5
18BB
330
18BA
100
AcDbDictionary
280
     1
281
     1
  3
AcDbContextDataManager
360
18BC
  0
DICTIONARY
  5
18BF
330
18BE
100
AcDbDictionary
280
     1
281
     1
  3
AcDbContextDataManager
360
18C0
  0
DICTIONARY
  5
18C3
330
18C2
100
AcDbDictionary
280
     1
281
     1
  3
AcDbContextDataManager
360
18C4
  0
DICTIONARY
  5
18D5
330
18D4
100
AcDbDictionary
280
     1
281
     1
  3
AcDbContextDataManager
360
18D6
  0
DICTIONARY
  5
18D9
330
18D8
100
AcDbDictionary
280
     1
281
     1
  3
AcDbContextDataManager
360
18DA
  0
DICTIONARY
  5
165E
102
{ACAD_REACTORS
330
19
102
}
330
19
100
AcDbDictionary
281
     1
  0
DICTIONARY
  5
1639
102
{ACAD_REACTORS
330
19
102
}
330
19
100
AcDbDictionary
281
     1
  0
FIELDLIST
  5
1A75
102
{ACAD_REACTORS
330
19
102
}
330
19
100
AcDbIdSet
 90
        0
100
AcDbFieldList
  0
DICTIONARY
  5
1A
102
{ACAD_REACTORS
330
19
102
}
330
19
100
AcDbDictionary
281
     1
  0
RASTERVARIABLES
  5
163B
102
{ACAD_REACTORS
330
19
102
}
330
19
100
AcDbRasterVariables
 90
        0
 70
     1
 71
     1
 72
     0
  0
DICTIONARY
  5
15C8
102
{ACAD_REACTORS
330
19
102
}
330
19
100
AcDbDictionary
281
     1
  3
Model
350
15C9
  3
レイアウト1
350
15CA
  0
DICTIONARY
  5
15E4
102
{ACAD_REACTORS
330
19
102
}
330
19
100
AcDbDictionary
281
     1
  3
ByBlock
350
15E6
  3
ByLayer
350
15E5
  3
Global
350
15E7
  0
DICTIONARY
  5
15EA
102
{ACAD_REACTORS
330
19
102
}
330
19
100
AcDbDictionary
281
     1
  3
Standard
350
15EB
  0
DICTIONARY
  5
1B
102
{ACAD_REACTORS
330
19
102
}
330
19
100
AcDbDictionary
281
     1
  3
STANDARD
350
1C
  0
DICTIONARY
  5
15A3
102
{ACAD_REACTORS
330
19
102
}
330
19
100
AcDbDictionary
281
     1
  0
ACDBDICTIONARYWDFLT
  5
15A4
102
{ACAD_REACTORS
330
19
102
}
330
19
100
AcDbDictionary
281
     1
  3
Normal
350
15A5
100
AcDbDictionaryWithDefault
340
15A5
  0
DICTIONARY
  5
15A6
102
{ACAD_REACTORS
330
19
102
}
330
19
100
AcDbDictionary
281
     1
  3
A0
350
15A7
  3
A1
350
15A8
  3
A2
350
15A9
  3
A3
350
15AA
  3
A4
350
15AB
  3
A5
350
15AC
  3
A6
350
15AD
  3
A7
350
15AE
  3
A8
350
15AF
  3
A9
350
15B0
  3
B0
350
15B1
  3
B1
350
15B2
  3
B2
350
15B3
  3
B3
350
15B4
  3
B4
350
15B5
  3
B5
350
15B6
  3
B6
350
15B7
  3
B7
350
15B8
  3
B8
350
15B9
  3
B9
350
15BA
  3
C0
350
15BB
  3
C1
350
15BC
  3
C2
350
15BD
  3
C3
350
15BE
  3
C4
350
15BF
  3
C5
350
15C0
  3
C6
350
15C1
  3
C7
350
15C2
  3
C8
350
15C3
  3
C9
350
15C4
  3
D0
350
15C5
  3
D1
350
15C6
  3
D2
350
15C7
  0
DICTIONARY
  5
163A
102
{ACAD_REACTORS
330
19
102
}
330
19
100
AcDbDictionary
281
     1
  0
DICTIONARY
  5
15E8
102
{ACAD_REACTORS
330
19
102
}
330
19
100
AcDbDictionary
281
     1
  3
HISTORY_TABLE
350
1661
  3
Standard
350
15E9
  0
DICTIONARY
  5
15CB
102
{ACAD_REACTORS
330
19
102
}
330
19
100
AcDbDictionary
281
     1
  3
2dWireframe
350
15D0
  3
Basic
350
15D3
  3
Brighten
350
15D7
  3
ColorChange
350
15DB
  3
Conceptual
350
15D5
  3
Dim
350
15D6
  3
EdgeColorOff
350
15DE
  3
Facepattern
350
15DA
  3
Flat
350
15CC
  3
FlatWithEdges
350
15CD
  3
Gouraud
350
15CE
  3
GouraudWithEdges
350
15CF
  3
Hidden
350
15D2
  3
JitterOff
350
15DC
  3
Linepattern
350
15D9
  3
Modeling
350
15EC
  3
OverhangOff
350
15DD
  3
Realistic
350
15D4
  3
Shaded
350
15E3
  3
Shaded with edges
350
15E2
  3
Shades of Gray
350
15DF
  3
Sketchy
350
15E0
  3
Thicken
350
15D8
  3
Wireframe
350
15D1
  3
X-Ray
350
15E1
  0
XRECORD
  5
1AAE
102
{ACAD_REACTORS
330
19
102
}
330
19
100
AcDbXrecord
280
     1
 90
        1
330
15E9
330
1661
330
189F
  0
DICTIONARY
  5
15F4
102
{ACAD_REACTORS
330
19
102
}
330
19
100
AcDbDictionary
281
     1
  3
CANNOSCALE
350
15F5
  3
CMLEADERSTYLE
350
1637
  3
CTABLESTYLE
350
1636
  3
MSLTSCALE
350
1638
  3
XCLIPFRAME
350
15F6
  0
DICTIONARY
  5
1858
102
{ACAD_REACTORS
330
1857
102
}
330
1857
100
AcDbDictionary
281
     1
  0
XRECORD
  5
163F
102
{ACAD_REACTORS
330
163E
102
}
330
163E
100
AcDbXrecord
280
     1
290
     1
  0
XRECORD
  5
164C
102
{ACAD_REACTORS
330
164B
102
}
330
164B
100
AcDbXrecord
280
     1
290
     1
  0
SORTENTSTABLE
  5
16B4
102
{ACAD_REACTORS
330
16B3
102
}
330
16B3
100
AcDbSortentsTable
330
16B2
331
16B6
  5
16B7
331
16B7
  5
16B6
  0
SORTENTSTABLE
  5
16C0
102
{ACAD_REACTORS
330
16BF
102
}
330
16BF
100
AcDbSortentsTable
330
16BE
331
16C2
  5
16C3
331
16C3
  5
16C2
  0
SORTENTSTABLE
  5
16CC
102
{ACAD_REACTORS
330
16CB
102
}
330
16CB
100
AcDbSortentsTable
330
16CA
331
16CE
  5
16CF
331
16CF
  5
16CE
  0
SORTENTSTABLE
  5
16D8
102
{ACAD_REACTORS
330
16D7
102
}
330
16D7
100
AcDbSortentsTable
330
16D6
331
16DA
  5
16DB
331
16DB
  5
16DA
  0
SORTENTSTABLE
  5
16ED
102
{ACAD_REACTORS
330
16EC
102
}
330
16EC
100
AcDbSortentsTable
330
16EB
331
16EF
  5
171B
331
16F0
  5
171A
331
16F1
  5
1719
331
16F2
  5
1718
331
16F3
  5
1717
331
16F4
  5
1716
331
16F5
  5
1715
331
16F6
  5
1714
331
16F7
  5
1713
331
16F8
  5
1712
331
16F9
  5
1711
331
16FA
  5
1710
331
16FB
  5
170F
331
16FC
  5
170E
331
16FD
  5
170D
331
16FE
  5
170C
331
16FF
  5
170B
331
1700
  5
170A
331
1701
  5
1709
331
1702
  5
1708
331
1703
  5
1707
331
1704
  5
1706
331
1706
  5
1704
331
1707
  5
1703
331
1708
  5
1702
331
1709
  5
1701
331
170A
  5
1700
331
170B
  5
16FF
331
170C
  5
16FE
331
170D
  5
16FD
331
170E
  5
16FC
331
170F
  5
16FB
331
1710
  5
16FA
331
1711
  5
16F9
331
1712
  5
16F8
331
1713
  5
16F7
331
1714
  5
16F6
331
1715
  5
16F5
331
1716
  5
16F4
331
1717
  5
16F3
331
1718
  5
16F2
331
1719
  5
16F1
331
171A
  5
16F0
331
171B
  5
16EF
  0
XRECORD
  5
1A77
102
{ACAD_REACTORS
330
1A76
102
}
330
1A76
100
AcDbXrecord
280
     1
102
ACAD_ROUNDTRIP_2008_TABLE_ENTITY
360
1A73
 70
     2
 90
        1
 10
0.0
 20
0.0
 30
0.0
 90
        0
 90
        4
361
1A74
  0
DICTIONARY
  5
18A3
102
{ACAD_REACTORS
330
18A2
102
}
330
18A2
100
AcDbDictionary
281
     1
  3
ACDB_ANNOTATIONSCALES
350
18A4
  0
DICTIONARY
  5
18A7
102
{ACAD_REACTORS
330
18A6
102
}
330
18A6
100
AcDbDictionary
281
     1
  3
ACDB_ANNOTATIONSCALES
350
18A8
  0
DICTIONARY
  5
18AB
102
{ACAD_REACTORS
330
18AA
102
}
330
18AA
100
AcDbDictionary
281
     1
  3
ACDB_ANNOTATIONSCALES
350
18AC
  0
DICTIONARY
  5
18AF
102
{ACAD_REACTORS
330
18AE
102
}
330
18AE
100
AcDbDictionary
281
     1
  3
ACDB_ANNOTATIONSCALES
350
18B0
  0
DICTIONARY
  5
18B3
102
{ACAD_REACTORS
330
18B2
102
}
330
18B2
100
AcDbDictionary
281
     1
  3
ACDB_ANNOTATIONSCALES
350
18B4
  0
DICTIONARY
  5
18B7
102
{ACAD_REACTORS
330
18B6
102
}
330
18B6
100
AcDbDictionary
281
     1
  3
ACDB_ANNOTATIONSCALES
350
18B8
  0
DICTIONARY
  5
18BC
102
{ACAD_REACTORS
330
18BB
102
}
330
18BB
100
AcDbDictionary
281
     1
  3
ACDB_ANNOTATIONSCALES
350
18BD
  0
DICTIONARY
  5
18C0
102
{ACAD_REACTORS
330
18BF
102
}
330
18BF
100
AcDbDictionary
281
     1
  3
ACDB_ANNOTATIONSCALES
350
18C1
  0
DICTIONARY
  5
18C4
102
{ACAD_REACTORS
330
18C3
102
}
330
18C3
100
AcDbDictionary
281
     1
  3
ACDB_ANNOTATIONSCALES
350
18C5
  0
DICTIONARY
  5
18D6
102
{ACAD_REACTORS
330
18D5
102
}
330
18D5
100
AcDbDictionary
281
     1
  3
ACDB_ANNOTATIONSCALES
350
18D7
  0
DICTIONARY
  5
18DA
102
{ACAD_REACTORS
330
18D9
102
}
330
18D9
100
AcDbDictionary
281
     1
  3
ACDB_ANNOTATIONSCALES
350
18DB
  0
LAYOUT
  5
15C9
102
{ACAD_REACTORS
330
15C8
102
}
330
15C8
100
AcDbPlotSettings
  1

  2
none_device
  4
Letter_(8.50_x_11.00_Inches)
  6

 40
6.35
 41
6.35
 42
6.35000508
 43
6.35000508
 44
215.9
 45
279.4
 46
0.0
 47
0.0
 48
0.0
 49
0.0
140
0.0
141
0.0
142
1.0
143
28.28571482449
 70
  1712
 72
     0
 73
     0
 74
     0
  7

 75
     0
 76
     0
 77
     2
 78
   300
147
0.03535353468
148
-958.8054484
149
0.0
100
AcDbLayout
  1
Model
 70
     1
 71
     0
 10
0.0
 20
0.0
 11
420.0
 21
297.0
 12
0.0
 22
0.0
 32
0.0
 14
0.0
 24
0.0
 34
0.0
 15
1680.0
 25
1188.0
 35
0.0
146
0.0
 13
0.0
 23
0.0
 33
0.0
 16
1.0
 26
0.0
 36
0.0
 17
0.0
 27
1.0
 37
0.0
 76
     0
330
A
331
15
  0
LAYOUT
  5
15CA
102
{ACAD_REACTORS
330
15C8
102
}
330
15C8
100
AcDbPlotSettings
  1

  2
none_device
  4

  6

 40
0.0
 41
0.0
 42
0.0
 43
0.0
 44
0.0
 45
0.0
 46
0.0
 47
0.0
 48
0.0
 49
0.0
140
0.0
141
0.0
142
1.0
143
1.0
 70
   688
 72
     0
 73
     0
 74
     5
  7

 75
    16
 76
     0
 77
     2
 78
   300
147
1.0
148
0.0
149
0.0
100
AcDbLayout
  1
レイアウト1
 70
     0
 71
     1
 10
0.0
 20
0.0
 11
12.0
 21
9.0
 12
0.0
 22
0.0
 32
0.0
 14
1.000000000000E+20
 24
1.000000000000E+20
 34
1.000000000000E+20
 15
-1.000000000000E+20
 25
-1.000000000000E+20
 35
-1.000000000000E+20
146
0.0
 13
0.0
 23
0.0
 33
0.0
 16
1.0
 26
0.0
 36
0.0
 17
0.0
 27
1.0
 37
0.0
 76
     0
330
B
331
1D
  0
MATERIAL
  5
15E6
102
{ACAD_REACTORS
330
15E4
102
}
330
15E4
100
AcDbMaterial
  1
ByBlock
 72
     1
 94
      127
  0
MATERIAL
  5
15E5
102
{ACAD_REACTORS
330
15E4
102
}
330
15E4
100
AcDbMaterial
  1
ByLayer
 72
     1
 94
      127
  0
MATERIAL
  5
15E7
102
{ACAD_REACTORS
330
15E4
102
}
330
15E4
100
AcDbMaterial
  1
Global
 72
     1
 94
      127
  0
MLEADERSTYLE
  5
15EB
102
{ACAD_REACTORS
330
15EA
102
}
330
15EA
100
AcDbMLeaderStyle
179
     2
170
     2
171
     1
172
     0
 90
        2
 40
0.0
 41
0.0
173
     1
 91
-1056964608
340
11
 92
       -2
290
     1
 42
0.09
291
     1
 43
0.36
  3
Standard
341
0
 44
0.18
300

342
17
174
     1
178
     6
175
     1
176
     0
 93
-1056964608
 45
0.18
292
     0
297
     0
 46
0.18
343
0
 94
-1056964608
 47
1.0
 49
1.0
140
1.0
293
     1
141
0.0
294
     1
177
     0
142
1.0
295
     0
296
     0
143
0.125
271
     0
272
     9
273
     9
  0
MLINESTYLE
  5
1C
102
{ACAD_REACTORS
330
1B
102
}
330
1B
100
AcDbMlineStyle
  2
STANDARD
 70
     0
  3

 62
     0
 51
90.0
 52
90.0
 71
     2
 49
0.5
 62
   256
  6
BYLAYER
 49
-0.5
 62
   256
  6
BYLAYER
  0
ACDBPLACEHOLDER
  5
15A5
102
{ACAD_REACTORS
330
15A4
102
}
330
15A4
  0
SCALE
  5
15A7
102
{ACAD_REACTORS
330
15A6
102
}
330
15A6
100
AcDbScale
 70
     0
300
1:1
140
1.0
141
1.0
290
     1
  0
SCALE
  5
15A8
102
{ACAD_REACTORS
330
15A6
102
}
330
15A6
100
AcDbScale
 70
     0
300
1:2
140
1.0
141
2.0
290
     0
  0
SCALE
  5
15A9
102
{ACAD_REACTORS
330
15A6
102
}
330
15A6
100
AcDbScale
 70
     0
300
1:4
140
1.0
141
4.0
290
     0
  0
SCALE
  5
15AA
102
{ACAD_REACTORS
330
15A6
102
}
330
15A6
100
AcDbScale
 70
     0
300
1:5
140
1.0
141
5.0
290
     0
  0
SCALE
  5
15AB
102
{ACAD_REACTORS
330
15A6
102
}
330
15A6
100
AcDbScale
 70
     0
300
1:8
140
1.0
141
8.0
290
     0
  0
SCALE
  5
15AC
102
{ACAD_REACTORS
330
15A6
102
}
330
15A6
100
AcDbScale
 70
     0
300
1:10
140
1.0
141
10.0
290
     0
  0
SCALE
  5
15AD
102
{ACAD_REACTORS
330
15A6
102
}
330
15A6
100
AcDbScale
 70
     0
300
1:16
140
1.0
141
16.0
290
     0
  0
SCALE
  5
15AE
102
{ACAD_REACTORS
330
15A6
102
}
330
15A6
100
AcDbScale
 70
     0
300
1:20
140
1.0
141
20.0
290
     0
  0
SCALE
  5
15AF
102
{ACAD_REACTORS
330
15A6
102
}
330
15A6
100
AcDbScale
 70
     0
300
1:30
140
1.0
141
30.0
290
     0
  0
SCALE
  5
15B0
102
{ACAD_REACTORS
330
15A6
102
}
330
15A6
100
AcDbScale
 70
     0
300
1:40
140
1.0
141
40.0
290
     0
  0
SCALE
  5
15B1
102
{ACAD_REACTORS
330
15A6
102
}
330
15A6
100
AcDbScale
 70
     0
300
1:50
140
1.0
141
50.0
290
     0
  0
SCALE
  5
15B2
102
{ACAD_REACTORS
330
15A6
102
}
330
15A6
100
AcDbScale
 70
     0
300
1:100
140
1.0
141
100.0
290
     0
  0
SCALE
  5
15B3
102
{ACAD_REACTORS
330
15A6
102
}
330
15A6
100
AcDbScale
 70
     0
300
2:1
140
2.0
141
1.0
290
     0
  0
SCALE
  5
15B4
102
{ACAD_REACTORS
330
15A6
102
}
330
15A6
100
AcDbScale
 70
     0
300
4:1
140
4.0
141
1.0
290
     0
  0
SCALE
  5
15B5
102
{ACAD_REACTORS
330
15A6
102
}
330
15A6
100
AcDbScale
 70
     0
300
8:1
140
8.0
141
1.0
290
     0
  0
SCALE
  5
15B6
102
{ACAD_REACTORS
330
15A6
102
}
330
15A6
100
AcDbScale
 70
     0
300
10:1
140
10.0
141
1.0
290
     0
  0
SCALE
  5
15B7
102
{ACAD_REACTORS
330
15A6
102
}
330
15A6
100
AcDbScale
 70
     0
300
100:1
140
100.0
141
1.0
290
     0
  0
SCALE
  5
15B8
102
{ACAD_REACTORS
330
15A6
102
}
330
15A6
100
AcDbScale
 70
     0
300
1/128" = 1'-0"
140
0.0078125
141
12.0
290
     0
  0
SCALE
  5
15B9
102
{ACAD_REACTORS
330
15A6
102
}
330
15A6
100
AcDbScale
 70
     0
300
1/64" = 1'-0"
140
0.015625
141
12.0
290
     0
  0
SCALE
  5
15BA
102
{ACAD_REACTORS
330
15A6
102
}
330
15A6
100
AcDbScale
 70
     0
300
1/32" = 1'-0"
140
0.03125
141
12.0
290
     0
  0
SCALE
  5
15BB
102
{ACAD_REACTORS
330
15A6
102
}
330
15A6
100
AcDbScale
 70
     0
300
1/16" = 1'-0"
140
0.0625
141
12.0
290
     0
  0
SCALE
  5
15BC
102
{ACAD_REACTORS
330
15A6
102
}
330
15A6
100
AcDbScale
 70
     0
300
3/32" = 1'-0"
140
0.09375
141
12.0
290
     0
  0
SCALE
  5
15BD
102
{ACAD_REACTORS
330
15A6
102
}
330
15A6
100
AcDbScale
 70
     0
300
1/8" = 1'-0"
140
0.125
141
12.0
290
     0
  0
SCALE
  5
15BE
102
{ACAD_REACTORS
330
15A6
102
}
330
15A6
100
AcDbScale
 70
     0
300
3/16" = 1'-0"
140
0.1875
141
12.0
290
     0
  0
SCALE
  5
15BF
102
{ACAD_REACTORS
330
15A6
102
}
330
15A6
100
AcDbScale
 70
     0
300
1/4" = 1'-0"
140
0.25
141
12.0
290
     0
  0
SCALE
  5
15C0
102
{ACAD_REACTORS
330
15A6
102
}
330
15A6
100
AcDbScale
 70
     0
300
3/8" = 1'-0"
140
0.375
141
12.0
290
     0
  0
SCALE
  5
15C1
102
{ACAD_REACTORS
330
15A6
102
}
330
15A6
100
AcDbScale
 70
     0
300
1/2" = 1'-0"
140
0.5
141
12.0
290
     0
  0
SCALE
  5
15C2
102
{ACAD_REACTORS
330
15A6
102
}
330
15A6
100
AcDbScale
 70
     0
300
3/4" = 1'-0"
140
0.75
141
12.0
290
     0
  0
SCALE
  5
15C3
102
{ACAD_REACTORS
330
15A6
102
}
330
15A6
100
AcDbScale
 70
     0
300
1" = 1'-0"
140
1.0
141
12.0
290
     0
  0
SCALE
  5
15C4
102
{ACAD_REACTORS
330
15A6
102
}
330
15A6
100
AcDbScale
 70
     0
300
1-1/2" = 1'-0"
140
1.5
141
12.0
290
     0
  0
SCALE
  5
15C5
102
{ACAD_REACTORS
330
15A6
102
}
330
15A6
100
AcDbScale
 70
     0
300
3" = 1'-0"
140
3.0
141
12.0
290
     0
  0
SCALE
  5
15C6
102
{ACAD_REACTORS
330
15A6
102
}
330
15A6
100
AcDbScale
 70
     0
300
6" = 1'-0"
140
6.0
141
12.0
290
     0
  0
SCALE
  5
15C7
102
{ACAD_REACTORS
330
15A6
102
}
330
15A6
100
AcDbScale
 70
     0
300
1'-0" = 1'-0"
140
12.0
141
12.0
290
     0
  0
TABLESTYLE
  5
1661
102
{ACAD_REACTORS
330
15E8
330
189F
102
}
102
{ACAD_XDICTIONARY
360
1AAC
102
}
330
15E8
100
AcDbTableStyle
  3

 70
     1
 71
     0
 40
0.06
 41
0.06
280
     0
281
     0
  7
ＭＳ ゴシック
140
6.0
170
     2
 62
     0
 63
   257
283
     0
 90
        4
 91
        0
  1

274
    -2
284
     1
 64
     0
275
    -2
285
     1
 65
     0
276
    -2
286
     1
 66
     0
277
    -2
287
     1
 67
     0
278
    -2
288
     1
 68
     0
279
    -2
289
     1
 69
     0
  7
ＭＳ ゴシック
140
1.0
170
     5
 62
     0
 63
   257
283
     0
 90
        4
 91
        0
  1

274
    -2
284
     1
 64
     0
275
    -2
285
     1
 65
     0
276
    -2
286
     1
 66
     0
277
    -2
287
     1
 67
     0
278
    -2
288
     1
 68
     0
279
    -2
289
     1
 69
     0
  7
ＭＳ ゴシック
140
6.0
170
     5
 62
     0
 63
   257
283
     0
 90
        4
 91
        0
  1

274
    -2
284
     1
 64
     0
275
    -2
285
     1
 65
     0
276
    -2
286
     1
 66
     0
277
    -2
287
     1
 67
     0
278
    -2
288
     1
 68
     0
279
    -2
289
     1
 69
     0
  0
TABLESTYLE
  5
15E9
102
{ACAD_REACTORS
330
15E8
102
}
102
{ACAD_XDICTIONARY
360
1AAA
102
}
330
15E8
100
AcDbTableStyle
  3
Standard
 70
     0
 71
     0
 40
0.06
 41
0.06
280
     0
281
     0
  7
STANDARD
140
0.18
170
     2
 62
     0
 63
   257
283
     0
 90
        4
 91
        0
  1

274
    -2
284
     1
 64
     0
275
    -2
285
     1
 65
     0
276
    -2
286
     1
 66
     0
277
    -2
287
     1
 67
     0
278
    -2
288
     1
 68
     0
279
    -2
289
     1
 69
     0
  7
STANDARD
140
0.25
170
     5
 62
     0
 63
   257
283
     0
 90
        4
 91
        0
  1

274
    -2
284
     1
 64
     0
275
    -2
285
     1
 65
     0
276
    -2
286
     1
 66
     0
277
    -2
287
     1
 67
     0
278
    -2
288
     1
 68
     0
279
    -2
289
     1
 69
     0
  7
STANDARD
140
0.18
170
     5
 62
     0
 63
   257
283
     0
 90
        4
 91
        0
  1

274
    -2
284
     1
 64
     0
275
    -2
285
     1
 65
     0
276
    -2
286
     1
 66
     0
277
    -2
287
     1
 67
     0
278
    -2
288
     1
 68
     0
279
    -2
289
     1
 69
     0
  0
VISUALSTYLE
  5
15D0
102
{ACAD_REACTORS
330
15CB
102
}
102
{ACAD_XDICTIONARY
360
1A80
102
}
330
15CB
100
AcDbVisualStyle
  2
2dWireframe
 70
     4
177
     2
291
     0
 71
     0
176
     1
 72
     2
176
     1
 73
     0
176
     1
 90
        0
176
     1
 40
0.6
176
     1
 41
30.0
176
     1
 62
     5
 63
     7
421
 16777215
176
     1
 74
     1
176
     1
 91
        4
176
     1
 64
     7
176
     1
 65
   257
176
     1
 75
     1
176
     1
175
     1
176
     1
 42
1.0
176
     1
 92
        0
176
     1
 66
   257
176
     1
 43
1.0
176
     1
 76
     1
176
     1
 77
     6
176
     1
 78
     2
176
     1
 67
     7
176
     1
 79
     5
176
     1
170
     0
176
     1
171
     0
176
     1
290
     0
176
     1
 93
        1
176
     1
 44
0.0
176
     1
173
     0
176
     1
  0
VISUALSTYLE
  5
15D3
102
{ACAD_REACTORS
330
15CB
102
}
102
{ACAD_XDICTIONARY
360
1A86
102
}
330
15CB
100
AcDbVisualStyle
  2
Basic
 70
     7
177
     2
291
     1
 71
     1
176
     1
 72
     0
176
     1
 73
     1
176
     1
 90
        0
176
     1
 40
0.6
176
     1
 41
30.0
176
     1
 62
     5
 63
     7
421
 16777215
176
     1
 74
     0
176
     1
 91
        4
176
     1
 64
     7
176
     1
 65
   257
176
     1
 75
     1
176
     1
175
     1
176
     1
 42
1.0
176
     1
 92
        8
176
     1
 66
     7
176
     1
 43
1.0
176
     1
 76
     1
176
     1
 77
     6
176
     1
 78
     2
176
     1
 67
     7
176
     1
 79
     5
176
     1
170
     0
176
     1
171
     0
176
     1
290
     0
176
     1
 93
        1
176
     1
 44
0.0
176
     1
173
     0
176
     1
  0
VISUALSTYLE
  5
15D7
102
{ACAD_REACTORS
330
15CB
102
}
102
{ACAD_XDICTIONARY
360
1A8E
102
}
330
15CB
100
AcDbVisualStyle
  2
Brighten
 70
    12
177
     2
291
     1
 71
     2
176
     1
 72
     2
176
     1
 73
     0
176
     1
 90
        0
176
     1
 40
0.6
176
     1
 41
30.0
176
     1
 62
     5
 63
     7
421
 16777215
176
     1
 74
     1
176
     1
 91
        4
176
     1
 64
     7
176
     1
 65
   257
176
     1
 75
     1
176
     1
175
     1
176
     1
 42
1.0
176
     1
 92
        8
176
     1
 66
     7
176
     1
 43
1.0
176
     1
 76
     1
176
     1
 77
     6
176
     1
 78
     2
176
     1
 67
     7
176
     1
 79
     5
176
     1
170
     0
176
     1
171
     0
176
     1
290
     0
176
     1
 93
        1
176
     1
 44
50.0
176
     1
173
     0
176
     1
  0
VISUALSTYLE
  5
15DB
102
{ACAD_REACTORS
330
15CB
102
}
102
{ACAD_XDICTIONARY
360
1A96
102
}
330
15CB
100
AcDbVisualStyle
  2
ColorChange
 70
    16
177
     2
291
     1
 71
     2
176
     1
 72
     2
176
     1
 73
     3
176
     1
 90
        0
176
     1
 40
0.6
176
     1
 41
30.0
176
     1
 62
     5
 63
     8
421
  8421504
176
     1
 74
     1
176
     1
 91
        4
176
     1
 64
     7
176
     1
 65
   257
176
     1
 75
     1
176
     1
175
     1
176
     1
 42
1.0
176
     1
 92
        8
176
     1
 66
     8
424
  8421504
176
     1
 43
1.0
176
     1
 76
     1
176
     1
 77
     6
176
     1
 78
     2
176
     1
 67
     7
176
     1
 79
     5
176
     1
170
     0
176
     1
171
     0
176
     1
290
     0
176
     1
 93
        1
176
     1
 44
0.0
176
     1
173
     0
176
     1
  0
VISUALSTYLE
  5
15D5
102
{ACAD_REACTORS
330
15CB
102
}
102
{ACAD_XDICTIONARY
360
1A8A
102
}
330
15CB
100
AcDbVisualStyle
  2
Conceptual
 70
     9
177
     2
291
     0
 71
     3
176
     1
 72
     2
176
     1
 73
     0
176
     1
 90
        0
176
     1
 40
0.6
176
     1
 41
30.0
176
     1
 62
     5
 63
     7
421
 16777215
176
     1
 74
     2
176
     1
 91
        2
176
     1
 64
     7
176
     1
 65
   257
176
     1
 75
     1
176
     1
175
     1
176
     1
 42
179.0
176
     1
 92
        8
176
     1
 66
     7
176
     1
 43
1.0
176
     1
 76
     1
176
     1
 77
     6
176
     1
 78
     2
176
     1
 67
     7
176
     1
 79
     3
176
     1
170
     0
176
     1
171
     0
176
     1
290
     0
176
     1
 93
        1
176
     1
 44
0.0
176
     1
173
     0
176
     1
  0
VISUALSTYLE
  5
15D6
102
{ACAD_REACTORS
330
15CB
102
}
102
{ACAD_XDICTIONARY
360
1A8C
102
}
330
15CB
100
AcDbVisualStyle
  2
Dim
 70
    11
177
     2
291
     1
 71
     2
176
     1
 72
     2
176
     1
 73
     0
176
     1
 90
        0
176
     1
 40
0.6
176
     1
 41
30.0
176
     1
 62
     5
 63
     7
421
 16777215
176
     1
 74
     1
176
     1
 91
        4
176
     1
 64
     7
176
     1
 65
   257
176
     1
 75
     1
176
     1
175
     1
176
     1
 42
1.0
176
     1
 92
        8
176
     1
 66
     7
176
     1
 43
1.0
176
     1
 76
     1
176
     1
 77
     6
176
     1
 78
     2
176
     1
 67
     7
176
     1
 79
     5
176
     1
170
     0
176
     1
171
     0
176
     1
290
     0
176
     1
 93
        1
176
     1
 44
-50.0
176
     1
173
     0
176
     1
  0
VISUALSTYLE
  5
15DE
102
{ACAD_REACTORS
330
15CB
102
}
102
{ACAD_XDICTIONARY
360
1A9C
102
}
330
15CB
100
AcDbVisualStyle
  2
EdgeColorOff
 70
    22
177
     2
291
     1
 71
     2
176
     0
 72
     2
176
     0
 73
     0
176
     0
 90
        0
176
     0
 40
0.6
176
     0
 41
30.0
176
     0
 62
     5
 63
     7
421
 16777215
176
     0
 74
     1
176
     0
 91
        4
176
     0
 64
     7
176
     0
 65
   257
176
     0
 75
     1
176
     0
175
     1
176
     0
 42
1.0
176
     0
 92
        8
176
     2
 66
     7
176
     0
 43
1.0
176
     0
 76
     1
176
     0
 77
     6
176
     0
 78
     2
176
     0
 67
     7
176
     0
 79
     5
176
     0
170
     0
176
     0
171
     0
176
     0
290
     0
176
     0
 93
        1
176
     0
 44
0.0
176
     0
173
     0
176
     0
  0
VISUALSTYLE
  5
15DA
102
{ACAD_REACTORS
330
15CB
102
}
102
{ACAD_XDICTIONARY
360
1A94
102
}
330
15CB
100
AcDbVisualStyle
  2
Facepattern
 70
    15
177
     2
291
     1
 71
     2
176
     1
 72
     2
176
     1
 73
     0
176
     1
 90
        0
176
     1
 40
0.6
176
     1
 41
30.0
176
     1
 62
     5
 63
     7
421
 16777215
176
     1
 74
     1
176
     1
 91
        4
176
     1
 64
     7
176
     1
 65
   257
176
     1
 75
     1
176
     1
175
     1
176
     1
 42
1.0
176
     1
 92
        8
176
     1
 66
     7
176
     1
 43
1.0
176
     1
 76
     1
176
     1
 77
     6
176
     1
 78
     2
176
     1
 67
     7
176
     1
 79
     5
176
     1
170
     0
176
     1
171
     0
176
     1
290
     0
176
     1
 93
        1
176
     1
 44
0.0
176
     1
173
     0
176
     1
  0
VISUALSTYLE
  5
15CC
102
{ACAD_REACTORS
330
15CB
102
}
102
{ACAD_XDICTIONARY
360
1A78
102
}
330
15CB
100
AcDbVisualStyle
  2
Flat
 70
     0
177
     2
291
     1
 71
     2
176
     1
 72
     1
176
     1
 73
     1
176
     1
 90
        2
176
     1
 40
0.6
176
     1
 41
30.0
176
     1
 62
     5
 63
     7
421
 16777215
176
     1
 74
     0
176
     1
 91
        0
176
     1
 64
     7
176
     1
 65
   257
176
     1
 75
     1
176
     1
175
     1
176
     1
 42
1.0
176
     1
 92
        8
176
     1
 66
     7
176
     1
 43
1.0
176
     1
 76
     1
176
     1
 77
     6
176
     1
 78
     2
176
     1
 67
     7
176
     1
 79
     5
176
     1
170
     0
176
     1
171
     0
176
     1
290
     0
176
     1
 93
       13
176
     1
 44
0.0
176
     1
173
     0
176
     1
  0
VISUALSTYLE
  5
15CD
102
{ACAD_REACTORS
330
15CB
102
}
102
{ACAD_XDICTIONARY
360
1A7A
102
}
330
15CB
100
AcDbVisualStyle
  2
FlatWithEdges
 70
     1
177
     2
291
     1
 71
     2
176
     1
 72
     1
176
     1
 73
     1
176
     1
 90
        2
176
     1
 40
0.6
176
     1
 41
30.0
176
     1
 62
     5
 63
     7
421
 16777215
176
     1
 74
     1
176
     1
 91
        0
176
     1
 64
     7
176
     1
 65
   257
176
     1
 75
     1
176
     1
175
     1
176
     1
 42
1.0
176
     1
 92
        0
176
     1
 66
   257
176
     1
 43
1.0
176
     1
 76
     1
176
     1
 77
     6
176
     1
 78
     2
176
     1
 67
     7
176
     1
 79
     5
176
     1
170
     0
176
     1
171
     0
176
     1
290
     0
176
     1
 93
       13
176
     1
 44
0.0
176
     1
173
     0
176
     1
  0
VISUALSTYLE
  5
15CE
102
{ACAD_REACTORS
330
15CB
102
}
102
{ACAD_XDICTIONARY
360
1A7C
102
}
330
15CB
100
AcDbVisualStyle
  2
Gouraud
 70
     2
177
     2
291
     1
 71
     2
176
     1
 72
     2
176
     1
 73
     1
176
     1
 90
        2
176
     1
 40
0.6
176
     1
 41
30.0
176
     1
 62
     5
 63
     7
421
 16777215
176
     1
 74
     0
176
     1
 91
        0
176
     1
 64
     7
176
     1
 65
   257
176
     1
 75
     1
176
     1
175
     1
176
     1
 42
1.0
176
     1
 92
        0
176
     1
 66
     7
176
     1
 43
1.0
176
     1
 76
     1
176
     1
 77
     6
176
     1
 78
     2
176
     1
 67
     7
176
     1
 79
     5
176
     1
170
     0
176
     1
171
     0
176
     1
290
     0
176
     1
 93
       13
176
     1
 44
0.0
176
     1
173
     0
176
     1
  0
VISUALSTYLE
  5
15CF
102
{ACAD_REACTORS
330
15CB
102
}
102
{ACAD_XDICTIONARY
360
1A7E
102
}
330
15CB
100
AcDbVisualStyle
  2
GouraudWithEdges
 70
     3
177
     2
291
     1
 71
     2
176
     1
 72
     2
176
     1
 73
     1
176
     1
 90
        2
176
     1
 40
0.6
176
     1
 41
30.0
176
     1
 62
     5
 63
     7
421
 16777215
176
     1
 74
     1
176
     1
 91
        0
176
     1
 64
     7
176
     1
 65
   257
176
     1
 75
     1
176
     1
175
     1
176
     1
 42
1.0
176
     1
 92
        0
176
     1
 66
   257
176
     1
 43
1.0
176
     1
 76
     1
176
     1
 77
     6
176
     1
 78
     2
176
     1
 67
     7
176
     1
 79
     5
176
     1
170
     0
176
     1
171
     0
176
     1
290
     0
176
     1
 93
       13
176
     1
 44
0.0
176
     1
173
     0
176
     1
  0
VISUALSTYLE
  5
15D2
102
{ACAD_REACTORS
330
15CB
102
}
102
{ACAD_XDICTIONARY
360
1A84
102
}
330
15CB
100
AcDbVisualStyle
  2
Hidden
 70
     6
177
     2
291
     0
 71
     1
176
     1
 72
     2
176
     1
 73
     2
176
     1
 90
        0
176
     1
 40
0.6
176
     1
 41
30.0
176
     1
 62
     5
 63
     7
421
 16777215
176
     1
 74
     2
176
     1
 91
        2
176
     1
 64
     7
176
     1
 65
   257
176
     1
 75
     2
176
     1
175
     1
176
     1
 42
40.0
176
     1
 92
        0
176
     1
 66
   257
176
     1
 43
1.0
176
     1
 76
     1
176
     1
 77
     6
176
     1
 78
     2
176
     1
 67
     7
176
     1
 79
     3
176
     1
170
     0
176
     1
171
     0
176
     1
290
     0
176
     1
 93
        1
176
     1
 44
0.0
176
     1
173
     0
176
     1
  0
VISUALSTYLE
  5
15DC
102
{ACAD_REACTORS
330
15CB
102
}
102
{ACAD_XDICTIONARY
360
1A98
102
}
330
15CB
100
AcDbVisualStyle
  2
JitterOff
 70
    20
177
     2
291
     1
 71
     2
176
     0
 72
     2
176
     0
 73
     0
176
     0
 90
        0
176
     0
 40
0.6
176
     0
 41
30.0
176
     0
 62
     5
 63
     7
421
 16777215
176
     0
 74
     1
176
     0
 91
        4
176
     0
 64
     7
176
     0
 65
   257
176
     0
 75
     1
176
     0
175
     1
176
     0
 42
1.0
176
     0
 92
       10
176
     2
 66
     7
176
     0
 43
1.0
176
     0
 76
     1
176
     0
 77
     6
176
     0
 78
     2
176
     0
 67
     7
176
     0
 79
     5
176
     0
170
     0
176
     0
171
     0
176
     0
290
     0
176
     0
 93
        1
176
     0
 44
0.0
176
     0
173
     0
176
     0
  0
VISUALSTYLE
  5
15D9
102
{ACAD_REACTORS
330
15CB
102
}
102
{ACAD_XDICTIONARY
360
1A92
102
}
330
15CB
100
AcDbVisualStyle
  2
Linepattern
 70
    14
177
     2
291
     1
 71
     2
176
     1
 72
     2
176
     1
 73
     0
176
     1
 90
        0
176
     1
 40
0.6
176
     1
 41
30.0
176
     1
 62
     5
 63
     7
421
 16777215
176
     1
 74
     1
176
     1
 91
        4
176
     1
 64
     7
176
     1
 65
   257
176
     1
 75
     7
176
     1
175
     7
176
     1
 42
1.0
176
     1
 92
        8
176
     1
 66
     7
176
     1
 43
1.0
176
     1
 76
     1
176
     1
 77
     6
176
     1
 78
     2
176
     1
 67
     7
176
     1
 79
     5
176
     1
170
     0
176
     1
171
     0
176
     1
290
     0
176
     1
 93
        1
176
     1
 44
0.0
176
     1
173
     0
176
     1
  0
VISUALSTYLE
  5
15EC
102
{ACAD_REACTORS
330
15CB
102
}
102
{ACAD_XDICTIONARY
360
1AA8
102
}
330
15CB
100
AcDbVisualStyle
  2
Modeling
 70
    10
177
     2
291
     0
 71
     2
176
     1
 72
     3
176
     1
 73
     0
176
     1
 90
        2
176
     1
 40
0.6
176
     1
 41
30.0
176
     1
 62
     5
 63
     7
421
 16777215
176
     1
 74
     2
176
     1
 91
        0
176
     1
 64
     7
176
     1
 65
   257
176
     1
 75
     1
176
     1
175
     1
176
     1
 42
180.0
176
     1
 92
        8
176
     1
 66
     8
424
  7895160
176
     1
 43
1.0
176
     1
 76
     1
176
     1
 77
     6
176
     1
 78
     2
176
     1
 67
     7
176
     1
 79
     5
176
     1
170
     0
176
     1
171
     0
176
     1
290
     0
176
     1
 93
       13
176
     1
 44
0.0
176
     1
173
     0
176
     1
  0
VISUALSTYLE
  5
15DD
102
{ACAD_REACTORS
330
15CB
102
}
102
{ACAD_XDICTIONARY
360
1A9A
102
}
330
15CB
100
AcDbVisualStyle
  2
OverhangOff
 70
    21
177
     2
291
     1
 71
     2
176
     0
 72
     2
176
     0
 73
     0
176
     0
 90
        0
176
     0
 40
0.6
176
     0
 41
30.0
176
     0
 62
     5
 63
     7
421
 16777215
176
     0
 74
     1
176
     0
 91
        4
176
     0
 64
     7
176
     0
 65
   257
176
     0
 75
     1
176
     0
175
     1
176
     0
 42
1.0
176
     0
 92
        9
176
     2
 66
     7
176
     0
 43
1.0
176
     0
 76
     1
176
     0
 77
     6
176
     0
 78
     2
176
     0
 67
     7
176
     0
 79
     5
176
     0
170
     0
176
     0
171
     0
176
     0
290
     0
176
     0
 93
        1
176
     0
 44
0.0
176
     0
173
     0
176
     0
  0
VISUALSTYLE
  5
15D4
102
{ACAD_REACTORS
330
15CB
102
}
102
{ACAD_XDICTIONARY
360
1A88
102
}
330
15CB
100
AcDbVisualStyle
  2
Realistic
 70
     8
177
     2
291
     0
 71
     2
176
     1
 72
     3
176
     1
 73
     0
176
     1
 90
        2
176
     1
 40
0.6
176
     1
 41
30.0
176
     1
 62
     5
 63
     7
421
 16777215
176
     1
 74
     0
176
     1
 91
        0
176
     1
 64
     7
176
     1
 65
   257
176
     1
 75
     1
176
     1
175
     1
176
     1
 42
1.0
176
     1
 92
        8
176
     1
 66
   257
176
     1
 43
1.0
176
     1
 76
     1
176
     1
 77
     6
176
     1
 78
     2
176
     1
 67
     7
176
     1
 79
     3
176
     1
170
     0
176
     1
171
     0
176
     1
290
     0
176
     1
 93
       13
176
     1
 44
0.0
176
     1
173
     0
176
     1
  0
VISUALSTYLE
  5
15E3
102
{ACAD_REACTORS
330
15CB
102
}
102
{ACAD_XDICTIONARY
360
1AA6
102
}
330
15CB
100
AcDbVisualStyle
  2
Shaded
 70
    27
177
     2
291
     0
 71
     2
176
     1
 72
     2
176
     1
 73
     1
176
     1
 90
        2
176
     1
 40
0.6
176
     1
 41
30.0
176
     1
 62
     5
 63
     7
421
 16777215
176
     1
 74
     0
176
     1
 91
        4
176
     1
 64
     7
176
     1
 65
   257
176
     1
 75
     1
176
     1
175
     1
176
     1
 42
1.0
176
     1
 92
        8
176
     1
 66
   257
176
     1
 43
1.0
176
     1
 76
     1
176
     1
 77
     6
176
     1
 78
     2
176
     1
 67
     8
425
  7895160
176
     1
 79
     3
176
     1
170
     0
176
     1
171
     0
176
     1
290
     0
176
     1
 93
        5
176
     1
 44
0.0
176
     1
173
     0
176
     1
  0
VISUALSTYLE
  5
15E2
102
{ACAD_REACTORS
330
15CB
102
}
102
{ACAD_XDICTIONARY
360
1AA4
102
}
330
15CB
100
AcDbVisualStyle
  2
Shaded with edges
 70
    26
177
     2
291
     0
 71
     2
176
     1
 72
     2
176
     1
 73
     1
176
     1
 90
        2
176
     1
 40
0.6
176
     1
 41
30.0
176
     1
 62
     5
 63
     7
421
 16777215
176
     1
 74
     1
176
     1
 91
       10
176
     1
 64
     7
176
     1
 65
   257
176
     1
 75
     2
176
     1
175
     1
176
     1
 42
1.0
176
     1
 92
        8
176
     1
 66
   257
176
     1
 43
1.0
176
     1
 76
     1
176
     1
 77
     6
176
     1
 78
     2
176
     1
 67
     7
176
     1
 79
     3
176
     1
170
     0
176
     1
171
     0
176
     1
290
     0
176
     1
 93
        5
176
     1
 44
0.0
176
     1
173
     0
176
     1
  0
VISUALSTYLE
  5
15DF
102
{ACAD_REACTORS
330
15CB
102
}
102
{ACAD_XDICTIONARY
360
1A9E
102
}
330
15CB
100
AcDbVisualStyle
  2
Shades of Gray
 70
    23
177
     2
291
     0
 71
     2
176
     1
 72
     2
176
     1
 73
     3
176
     1
 90
        0
176
     1
 40
0.6
176
     1
 41
30.0
176
     1
 62
     5
 63
     7
421
 16777215
176
     1
 74
     2
176
     1
 91
        2
176
     1
 64
     7
176
     1
 65
     7
176
     1
 75
     1
176
     1
175
     1
176
     1
 42
40.0
176
     1
 92
        8
176
     1
 66
     7
176
     1
 43
1.0
176
     1
 76
     1
176
     1
 77
     6
176
     1
 78
     2
176
     1
 67
     7
176
     1
 79
     3
176
     1
170
     0
176
     1
171
     0
176
     1
290
     0
176
     1
 93
        1
176
     1
 44
0.0
176
     1
173
     0
176
     1
  0
VISUALSTYLE
  5
15E0
102
{ACAD_REACTORS
330
15CB
102
}
102
{ACAD_XDICTIONARY
360
1AA0
102
}
330
15CB
100
AcDbVisualStyle
  2
Sketchy
 70
    24
177
     2
291
     0
 71
     1
176
     1
 72
     2
176
     1
 73
     2
176
     1
 90
        0
176
     1
 40
0.6
176
     1
 41
30.0
176
     1
 62
     5
 63
     7
421
 16777215
176
     1
 74
     2
176
     1
 91
        2
176
     1
 64
     7
176
     1
 65
     7
176
     1
 75
     1
176
     1
175
     1
176
     1
 42
40.0
176
     1
 92
       11
176
     1
 66
     7
176
     1
 43
1.0
176
     1
 76
     1
176
     1
 77
     6
176
     1
 78
     2
176
     1
 67
     7
176
     1
 79
     6
176
     1
170
     0
176
     1
171
     0
176
     1
290
     0
176
     1
 93
        1
176
     1
 44
0.0
176
     1
173
     0
176
     1
  0
VISUALSTYLE
  5
15D8
102
{ACAD_REACTORS
330
15CB
102
}
102
{ACAD_XDICTIONARY
360
1A90
102
}
330
15CB
100
AcDbVisualStyle
  2
Thicken
 70
    13
177
     2
291
     1
 71
     2
176
     1
 72
     2
176
     1
 73
     0
176
     1
 90
        0
176
     1
 40
0.6
176
     1
 41
30.0
176
     1
 62
     5
 63
     7
421
 16777215
176
     1
 74
     1
176
     1
 91
        4
176
     1
 64
     7
176
     1
 65
   257
176
     1
 75
     1
176
     1
175
     1
176
     1
 42
1.0
176
     1
 92
       12
176
     1
 66
     7
176
     1
 43
1.0
176
     1
 76
     1
176
     1
 77
     6
176
     1
 78
     2
176
     1
 67
     7
176
     1
 79
     5
176
     1
170
     0
176
     1
171
     0
176
     1
290
     0
176
     1
 93
        1
176
     1
 44
0.0
176
     1
173
     0
176
     1
  0
VISUALSTYLE
  5
15D1
102
{ACAD_REACTORS
330
15CB
102
}
102
{ACAD_XDICTIONARY
360
1A82
102
}
330
15CB
100
AcDbVisualStyle
  2
Wireframe
 70
     5
177
     2
291
     0
 71
     0
176
     1
 72
     2
176
     1
 73
     0
176
     1
 90
        0
176
     1
 40
0.6
176
     1
 41
30.0
176
     1
 62
     5
 63
     7
421
 16777215
176
     1
 74
     1
176
     1
 91
        4
176
     1
 64
     7
176
     1
 65
   257
176
     1
 75
     1
176
     1
175
     1
176
     1
 42
1.0
176
     1
 92
        0
176
     1
 66
   257
176
     1
 43
1.0
176
     1
 76
     1
176
     1
 77
     6
176
     1
 78
     2
176
     1
 67
     7
176
     1
 79
     3
176
     1
170
     0
176
     1
171
     0
176
     1
290
     0
176
     1
 93
        1
176
     1
 44
0.0
176
     1
173
     0
176
     1
  0
VISUALSTYLE
  5
15E1
102
{ACAD_REACTORS
330
15CB
102
}
102
{ACAD_XDICTIONARY
360
1AA2
102
}
330
15CB
100
AcDbVisualStyle
  2
X-Ray
 70
    25
177
     2
291
     0
 71
     2
176
     1
 72
     2
176
     1
 73
     1
176
     1
 90
        1
176
     1
 40
0.5
176
     1
 41
30.0
176
     1
 62
     5
 63
     7
421
 16777215
176
     1
 74
     1
176
     1
 91
        0
176
     1
 64
     7
176
     1
 65
   257
176
     1
 75
     1
176
     1
175
     1
176
     1
 42
1.0
176
     1
 92
        8
176
     1
 66
     7
176
     1
 43
1.0
176
     1
 76
     1
176
     1
 77
     6
176
     1
 78
     2
176
     1
 67
     7
176
     1
 79
     3
176
     1
170
     0
176
     1
171
     0
176
     1
290
     0
176
     1
 93
       13
176
     1
 44
0.0
176
     1
173
     0
176
     1
  0
DICTIONARYVAR
  5
15F5
102
{ACAD_REACTORS
330
15F4
102
}
330
15F4
100
DictionaryVariables
280
     0
  1
1:1
  0
DICTIONARYVAR
  5
1637
102
{ACAD_REACTORS
330
15F4
102
}
330
15F4
100
DictionaryVariables
280
     0
  1
Standard
  0
DICTIONARYVAR
  5
1636
102
{ACAD_REACTORS
330
15F4
102
}
330
15F4
100
DictionaryVariables
280
     0
  1
Standard
  0
DICTIONARYVAR
  5
1638
102
{ACAD_REACTORS
330
15F4
102
}
330
15F4
100
DictionaryVariables
280
     0
  1
0
  0
DICTIONARYVAR
  5
15F6
102
{ACAD_REACTORS
330
15F4
102
}
330
15F4
100
DictionaryVariables
280
     0
  1
2
  0
TABLECONTENT
  5
1A73
330
1A77
100
AcDbLinkedData
  1

300

100
AcDbLinkedTableData
 90
        4
300
COLUMN
  1
LINKEDTABLEDATACOLUMN_BEGIN
300

 91
        0
301
CUSTOMDATA
  1
DATAMAP_BEGIN
 90
        0
309
DATAMAP_END
309
LINKEDTABLEDATACOLUMN_END
  1
FORMATTEDTABLEDATACOLUMN_BEGIN
300
COLUMNTABLEFORMAT
  1
TABLEFORMAT_BEGIN
 90
        3
170
     1
 91
      128
 92
        0
 62
   257
 93
        1
300
CONTENTFORMAT
  1
CONTENTFORMAT_BEGIN
 90
      128
 91
        0
 92
      512
 93
        0
300

 40
0.0
140
1.0
 94
        1
 62
     0
340
0
144
0.225
309
CONTENTFORMAT_END
171
     0
 94
        0
309
TABLEFORMAT_END
309
FORMATTEDTABLEDATACOLUMN_END
  1
TABLECOLUMN_BEGIN
 90
        0
 40
37.5
309
TABLECOLUMN_END
300
COLUMN
  1
LINKEDTABLEDATACOLUMN_BEGIN
300

 91
        0
301
CUSTOMDATA
  1
DATAMAP_BEGIN
 90
        0
309
DATAMAP_END
309
LINKEDTABLEDATACOLUMN_END
  1
FORMATTEDTABLEDATACOLUMN_BEGIN
300
COLUMNTABLEFORMAT
  1
TABLEFORMAT_BEGIN
 90
        3
170
     1
 91
      128
 92
        0
 62
   257
 93
        1
300
CONTENTFORMAT
  1
CONTENTFORMAT_BEGIN
 90
      128
 91
        0
 92
      512
 93
        0
300

 40
0.0
140
1.0
 94
        1
 62
     0
340
0
144
0.225
309
CONTENTFORMAT_END
171
     0
 94
        0
309
TABLEFORMAT_END
309
FORMATTEDTABLEDATACOLUMN_END
  1
TABLECOLUMN_BEGIN
 90
        0
 40
50.0
309
TABLECOLUMN_END
300
COLUMN
  1
LINKEDTABLEDATACOLUMN_BEGIN
300

 91
        0
301
CUSTOMDATA
  1
DATAMAP_BEGIN
 90
        0
309
DATAMAP_END
309
LINKEDTABLEDATACOLUMN_END
  1
FORMATTEDTABLEDATACOLUMN_BEGIN
300
COLUMNTABLEFORMAT
  1
TABLEFORMAT_BEGIN
 90
        3
170
     1
 91
      128
 92
        0
 62
   257
 93
        1
300
CONTENTFORMAT
  1
CONTENTFORMAT_BEGIN
 90
      128
 91
        0
 92
      512
 93
        0
300

 40
0.0
140
1.0
 94
        1
 62
     0
340
0
144
0.225
309
CONTENTFORMAT_END
171
     0
 94
        0
309
TABLEFORMAT_END
309
FORMATTEDTABLEDATACOLUMN_END
  1
TABLECOLUMN_BEGIN
 90
        0
 40
37.5
309
TABLECOLUMN_END
300
COLUMN
  1
LINKEDTABLEDATACOLUMN_BEGIN
300

 91
        0
301
CUSTOMDATA
  1
DATAMAP_BEGIN
 90
        0
309
DATAMAP_END
309
LINKEDTABLEDATACOLUMN_END
  1
FORMATTEDTABLEDATACOLUMN_BEGIN
300
COLUMNTABLEFORMAT
  1
TABLEFORMAT_BEGIN
 90
        3
170
     1
 91
      128
 92
        0
 62
   257
 93
        1
300
CONTENTFORMAT
  1
CONTENTFORMAT_BEGIN
 90
      128
 91
        0
 92
      512
 93
        0
300

 40
0.0
140
1.0
 94
        1
 62
     0
340
0
144
0.225
309
CONTENTFORMAT_END
171
     0
 94
        0
309
TABLEFORMAT_END
309
FORMATTEDTABLEDATACOLUMN_END
  1
TABLECOLUMN_BEGIN
 90
        0
 40
325.0
309
TABLECOLUMN_END
 91
        5
301
ROW
  1
LINKEDTABLEDATAROW_BEGIN
 90
        4
300
CELL
  1
LINKEDTABLEDATACELL_BEGIN
 90
        0
300

 91
        0
301
CUSTOMDATA
  1
DATAMAP_BEGIN
 90
        0
309
DATAMAP_END
 92
        0
 95
        1
302
CONTENT
  1
CELLCONTENT_BEGIN
 90
        1
300
VALUE
 93
        4
 90
        4
  1
符号
 94
        0
300

302
符号
304
ACVALUE_END
 91
        0
309
CELLCONTENT_END
  1
FORMATTEDCELLCONTENT_BEGIN
170
     1
300
CONTENTFORMAT
  1
CONTENTFORMAT_BEGIN
 90
      129
 91
        0
 92
        4
 93
        0
300

 40
0.0
140
1.0
 94
        1
 62
     0
340
0
144
7.5
309
CONTENTFORMAT_END
309
FORMATTEDCELLCONTENT_END
309
LINKEDTABLEDATACELL_END
  1
FORMATTEDTABLEDATACELL_BEGIN
300
CELLTABLEFORMAT
  1
TABLEFORMAT_BEGIN
 90
        1
170
     1
 91
   408576
 92
        0
 62
   257
 93
        1
300
CONTENTFORMAT
  1
CONTENTFORMAT_BEGIN
 90
        0
 91
        0
 92
      512
 93
        0
300

 40
0.0
140
1.0
 94
        1
 62
     0
340
0
144
0.18
309
CONTENTFORMAT_END
171
     1
301
MARGIN
  1
CELLMARGIN_BEGIN
 40
1.875
 40
1.875
 40
1.875
 40
1.875
 40
1.875
 40
1.875
309
CELLMARGIN_END
 94
        0
309
TABLEFORMAT_END
309
FORMATTEDTABLEDATACELL_END
  1
TABLECELL_BEGIN
 90
        2
 91
        0
309
TABLECELL_END
300
CELL
  1
LINKEDTABLEDATACELL_BEGIN
 90
        0
300

 91
        0
301
CUSTOMDATA
  1
DATAMAP_BEGIN
 90
        0
309
DATAMAP_END
 92
        0
 95
        1
302
CONTENT
  1
CELLCONTENT_BEGIN
 90
        1
300
VALUE
 93
        4
 90
        4
  1
日付
 94
        0
300

302
日付
304
ACVALUE_END
 91
        0
309
CELLCONTENT_END
  1
FORMATTEDCELLCONTENT_BEGIN
170
     1
300
CONTENTFORMAT
  1
CONTENTFORMAT_BEGIN
 90
      129
 91
        0
 92
        4
 93
        0
300

 40
0.0
140
1.0
 94
        1
 62
     0
340
0
144
7.5
309
CONTENTFORMAT_END
309
FORMATTEDCELLCONTENT_END
309
LINKEDTABLEDATACELL_END
  1
FORMATTEDTABLEDATACELL_BEGIN
300
CELLTABLEFORMAT
  1
TABLEFORMAT_BEGIN
 90
        1
170
     1
 91
   408576
 92
        0
 62
   257
 93
        1
300
CONTENTFORMAT
  1
CONTENTFORMAT_BEGIN
 90
        0
 91
        0
 92
      512
 93
        0
300

 40
0.0
140
1.0
 94
        1
 62
     0
340
0
144
0.18
309
CONTENTFORMAT_END
171
     1
301
MARGIN
  1
CELLMARGIN_BEGIN
 40
1.875
 40
1.875
 40
1.875
 40
1.875
 40
1.875
 40
1.875
309
CELLMARGIN_END
 94
        0
309
TABLEFORMAT_END
309
FORMATTEDTABLEDATACELL_END
  1
TABLECELL_BEGIN
 90
        2
 91
        0
309
TABLECELL_END
300
CELL
  1
LINKEDTABLEDATACELL_BEGIN
 90
        0
300

 91
        0
301
CUSTOMDATA
  1
DATAMAP_BEGIN
 90
        0
309
DATAMAP_END
 92
        0
 95
        1
302
CONTENT
  1
CELLCONTENT_BEGIN
 90
        1
300
VALUE
 93
        4
 90
        4
  1
訂正者
 94
        0
300

302
訂正者
304
ACVALUE_END
 91
        0
309
CELLCONTENT_END
  1
FORMATTEDCELLCONTENT_BEGIN
170
     1
300
CONTENTFORMAT
  1
CONTENTFORMAT_BEGIN
 90
      129
 91
        0
 92
        4
 93
        0
300

 40
0.0
140
1.0
 94
        1
 62
     0
340
0
144
7.5
309
CONTENTFORMAT_END
309
FORMATTEDCELLCONTENT_END
309
LINKEDTABLEDATACELL_END
  1
FORMATTEDTABLEDATACELL_BEGIN
300
CELLTABLEFORMAT
  1
TABLEFORMAT_BEGIN
 90
        1
170
     1
 91
   408576
 92
        0
 62
   257
 93
        1
300
CONTENTFORMAT
  1
CONTENTFORMAT_BEGIN
 90
        0
 91
        0
 92
      512
 93
        0
300

 40
0.0
140
1.0
 94
        1
 62
     0
340
0
144
0.18
309
CONTENTFORMAT_END
171
     1
301
MARGIN
  1
CELLMARGIN_BEGIN
 40
1.875
 40
1.875
 40
1.875
 40
1.875
 40
1.875
 40
1.875
309
CELLMARGIN_END
 94
        0
309
TABLEFORMAT_END
309
FORMATTEDTABLEDATACELL_END
  1
TABLECELL_BEGIN
 90
        2
 91
        0
309
TABLECELL_END
300
CELL
  1
LINKEDTABLEDATACELL_BEGIN
 90
        0
300

 91
        0
301
CUSTOMDATA
  1
DATAMAP_BEGIN
 90
        0
309
DATAMAP_END
 92
        0
 95
        1
302
CONTENT
  1
CELLCONTENT_BEGIN
 90
        1
300
VALUE
 93
        4
 90
        4
  1
訂正概要
 94
        0
300

302
訂正概要
304
ACVALUE_END
 91
        0
309
CELLCONTENT_END
  1
FORMATTEDCELLCONTENT_BEGIN
170
     1
300
CONTENTFORMAT
  1
CONTENTFORMAT_BEGIN
 90
      129
 91
        0
 92
        4
 93
        0
300

 40
0.0
140
1.0
 94
        1
 62
     0
340
0
144
7.5
309
CONTENTFORMAT_END
309
FORMATTEDCELLCONTENT_END
309
LINKEDTABLEDATACELL_END
  1
FORMATTEDTABLEDATACELL_BEGIN
300
CELLTABLEFORMAT
  1
TABLEFORMAT_BEGIN
 90
        1
170
     1
 91
   408576
 92
        0
 62
   257
 93
        1
300
CONTENTFORMAT
  1
CONTENTFORMAT_BEGIN
 90
        0
 91
        0
 92
      512
 93
        0
300

 40
0.0
140
1.0
 94
        1
 62
     0
340
0
144
0.18
309
CONTENTFORMAT_END
171
     1
301
MARGIN
  1
CELLMARGIN_BEGIN
 40
1.875
 40
1.875
 40
1.875
 40
1.875
 40
1.875
 40
1.875
309
CELLMARGIN_END
 94
        0
309
TABLEFORMAT_END
309
FORMATTEDTABLEDATACELL_END
  1
TABLECELL_BEGIN
 90
        2
 91
        0
309
TABLECELL_END
 91
        0
301
CUSTOMDATA
  1
DATAMAP_BEGIN
 90
        0
309
DATAMAP_END
309
LINKEDTABLEDATAROW_END
  1
FORMATTEDTABLEDATAROW_BEGIN
300
ROWTABLEFORMAT
  1
TABLEFORMAT_BEGIN
 90
        2
170
     1
 91
      128
 92
        0
 62
   257
 93
        1
300
CONTENTFORMAT
  1
CONTENTFORMAT_BEGIN
 90
      128
 91
        0
 92
      512
 93
        0
300

 40
0.0
140
1.0
 94
        1
 62
     0
340
0
144
7.5
309
CONTENTFORMAT_END
171
     0
 94
        0
309
TABLEFORMAT_END
309
FORMATTEDTABLEDATAROW_END
  1
TABLEROW_BEGIN
 90
        1
 40
13.75
309
TABLEROW_END
301
ROW
  1
LINKEDTABLEDATAROW_BEGIN
 90
        4
300
CELL
  1
LINKEDTABLEDATACELL_BEGIN
 90
        0
300

 91
        0
301
CUSTOMDATA
  1
DATAMAP_BEGIN
 90
        0
309
DATAMAP_END
 92
        0
 95
        3
302
CONTENT
  1
CELLCONTENT_BEGIN
 90
        1
300
VALUE
 93
        4
 90
        4
  1

 94
        0
300

302

304
ACVALUE_END
 91
        0
309
CELLCONTENT_END
  1
FORMATTEDCELLCONTENT_BEGIN
170
     1
300
CONTENTFORMAT
  1
CONTENTFORMAT_BEGIN
 90
      129
 91
        0
 92
        4
 93
        0
300

 40
0.0
140
1.0
 94
        1
 62
     0
340
0
144
7.5
309
CONTENTFORMAT_END
309
FORMATTEDCELLCONTENT_END
302
CONTENT
  1
CELLCONTENT_BEGIN
 90
        4
340
0
 91
        0
309
CELLCONTENT_END
  1
FORMATTEDCELLCONTENT_BEGIN
170
     1
300
CONTENTFORMAT
  1
CONTENTFORMAT_BEGIN
 90
        8
 91
        0
 92
      512
 93
        0
300

 40
0.0
140
1.0
 94
        1
 62
     0
340
0
144
0.18
309
CONTENTFORMAT_END
309
FORMATTEDCELLCONTENT_END
302
CONTENT
  1
CELLCONTENT_BEGIN
 90
        4
340
16B2
 91
        0
309
CELLCONTENT_END
  1
FORMATTEDCELLCONTENT_BEGIN
170
     1
300
CONTENTFORMAT
  1
CONTENTFORMAT_BEGIN
 90
      264
 91
      256
 92
      512
 93
        0
300

 40
0.0
140
1.0
 94
        1
 62
     0
340
0
144
0.18
309
CONTENTFORMAT_END
309
FORMATTEDCELLCONTENT_END
309
LINKEDTABLEDATACELL_END
  1
FORMATTEDTABLEDATACELL_BEGIN
300
CELLTABLEFORMAT
  1
TABLEFORMAT_BEGIN
 90
        1
170
     1
 91
   408592
 92
        0
 62
   257
 93
        1
300
CONTENTFORMAT
  1
CONTENTFORMAT_BEGIN
 90
       16
 91
        0
 92
      512
 93
        0
300

 40
0.0
140
1.0
 94
        5
 62
     0
340
0
144
0.18
309
CONTENTFORMAT_END
171
     1
301
MARGIN
  1
CELLMARGIN_BEGIN
 40
1.875
 40
1.875
 40
1.875
 40
1.875
 40
1.875
 40
1.875
309
CELLMARGIN_END
 94
        0
309
TABLEFORMAT_END
309
FORMATTEDTABLEDATACELL_END
  1
TABLECELL_BEGIN
 90
        3
 91
        0
309
TABLECELL_END
300
CELL
  1
LINKEDTABLEDATACELL_BEGIN
 90
        0
300

 91
        0
301
CUSTOMDATA
  1
DATAMAP_BEGIN
 90
        0
309
DATAMAP_END
 92
        0
 95
        1
302
CONTENT
  1
CELLCONTENT_BEGIN
 90
        1
300
VALUE
 93
        4
 90
        4
  1

 94
        0
300

302

304
ACVALUE_END
 91
        0
309
CELLCONTENT_END
  1
FORMATTEDCELLCONTENT_BEGIN
170
     1
300
CONTENTFORMAT
  1
CONTENTFORMAT_BEGIN
 90
      129
 91
        0
 92
        4
 93
        0
300

 40
0.0
140
1.0
 94
        1
 62
     0
340
0
144
7.5
309
CONTENTFORMAT_END
309
FORMATTEDCELLCONTENT_END
309
LINKEDTABLEDATACELL_END
  1
FORMATTEDTABLEDATACELL_BEGIN
300
CELLTABLEFORMAT
  1
TABLEFORMAT_BEGIN
 90
        1
170
     1
 91
   408592
 92
        0
 62
   257
 93
        1
300
CONTENTFORMAT
  1
CONTENTFORMAT_BEGIN
 90
       16
 91
        0
 92
      512
 93
        0
300

 40
0.0
140
1.0
 94
        5
 62
     0
340
0
144
0.18
309
CONTENTFORMAT_END
171
     1
301
MARGIN
  1
CELLMARGIN_BEGIN
 40
1.875
 40
1.875
 40
1.875
 40
1.875
 40
1.875
 40
1.875
309
CELLMARGIN_END
 94
        0
309
TABLEFORMAT_END
309
FORMATTEDTABLEDATACELL_END
  1
TABLECELL_BEGIN
 90
        3
 91
        0
309
TABLECELL_END
300
CELL
  1
LINKEDTABLEDATACELL_BEGIN
 90
        0
300

 91
        0
301
CUSTOMDATA
  1
DATAMAP_BEGIN
 90
        0
309
DATAMAP_END
 92
        0
 95
        1
302
CONTENT
  1
CELLCONTENT_BEGIN
 90
        1
300
VALUE
 93
        4
 90
        4
  1

 94
        0
300

302

304
ACVALUE_END
 91
        0
309
CELLCONTENT_END
  1
FORMATTEDCELLCONTENT_BEGIN
170
     1
300
CONTENTFORMAT
  1
CONTENTFORMAT_BEGIN
 90
      129
 91
        0
 92
        4
 93
        0
300

 40
0.0
140
1.0
 94
        1
 62
     0
340
0
144
7.5
309
CONTENTFORMAT_END
309
FORMATTEDCELLCONTENT_END
309
LINKEDTABLEDATACELL_END
  1
FORMATTEDTABLEDATACELL_BEGIN
300
CELLTABLEFORMAT
  1
TABLEFORMAT_BEGIN
 90
        1
170
     1
 91
   408592
 92
        0
 62
   257
 93
        1
300
CONTENTFORMAT
  1
CONTENTFORMAT_BEGIN
 90
       16
 91
        0
 92
      512
 93
        0
300

 40
0.0
140
1.0
 94
        5
 62
     0
340
0
144
0.18
309
CONTENTFORMAT_END
171
     1
301
MARGIN
  1
CELLMARGIN_BEGIN
 40
1.875
 40
1.875
 40
1.875
 40
1.875
 40
1.875
 40
1.875
309
CELLMARGIN_END
 94
        0
309
TABLEFORMAT_END
309
FORMATTEDTABLEDATACELL_END
  1
TABLECELL_BEGIN
 90
        3
 91
        0
309
TABLECELL_END
300
CELL
  1
LINKEDTABLEDATACELL_BEGIN
 90
        0
300

 91
        0
301
CUSTOMDATA
  1
DATAMAP_BEGIN
 90
        0
309
DATAMAP_END
 92
        0
 95
        1
302
CONTENT
  1
CELLCONTENT_BEGIN
 90
        1
300
VALUE
 93
        4
 90
        4
  1

 94
        0
300

302

304
ACVALUE_END
 91
        0
309
CELLCONTENT_END
  1
FORMATTEDCELLCONTENT_BEGIN
170
     1
300
CONTENTFORMAT
  1
CONTENTFORMAT_BEGIN
 90
      129
 91
        0
 92
        4
 93
        0
300

 40
0.0
140
1.0
 94
        1
 62
     0
340
0
144
7.5
309
CONTENTFORMAT_END
309
FORMATTEDCELLCONTENT_END
309
LINKEDTABLEDATACELL_END
  1
FORMATTEDTABLEDATACELL_BEGIN
300
CELLTABLEFORMAT
  1
TABLEFORMAT_BEGIN
 90
        1
170
     1
 91
   408592
 92
        0
 62
   257
 93
        1
300
CONTENTFORMAT
  1
CONTENTFORMAT_BEGIN
 90
       16
 91
        0
 92
      512
 93
        0
300

 40
0.0
140
1.0
 94
        4
 62
     0
340
0
144
0.18
309
CONTENTFORMAT_END
171
     1
301
MARGIN
  1
CELLMARGIN_BEGIN
 40
1.875
 40
1.875
 40
1.875
 40
1.875
 40
1.875
 40
1.875
309
CELLMARGIN_END
 94
        0
309
TABLEFORMAT_END
309
FORMATTEDTABLEDATACELL_END
  1
TABLECELL_BEGIN
 90
        3
 91
        0
309
TABLECELL_END
 91
        0
301
CUSTOMDATA
  1
DATAMAP_BEGIN
 90
        0
309
DATAMAP_END
309
LINKEDTABLEDATAROW_END
  1
FORMATTEDTABLEDATAROW_BEGIN
300
ROWTABLEFORMAT
  1
TABLEFORMAT_BEGIN
 90
        2
170
     1
 91
      128
 92
        0
 62
   257
 93
        1
300
CONTENTFORMAT
  1
CONTENTFORMAT_BEGIN
 90
      128
 91
        0
 92
      512
 93
        0
300

 40
0.0
140
1.0
 94
        1
 62
     0
340
0
144
7.5
309
CONTENTFORMAT_END
171
     0
 94
        0
309
TABLEFORMAT_END
309
FORMATTEDTABLEDATAROW_END
  1
TABLEROW_BEGIN
 90
        2
 40
13.75
309
TABLEROW_END
301
ROW
  1
LINKEDTABLEDATAROW_BEGIN
 90
        4
300
CELL
  1
LINKEDTABLEDATACELL_BEGIN
 90
        0
300

 91
        0
301
CUSTOMDATA
  1
DATAMAP_BEGIN
 90
        0
309
DATAMAP_END
 92
        0
 95
        2
302
CONTENT
  1
CELLCONTENT_BEGIN
 90
        1
300
VALUE
 93
        4
 90
        4
  1

 94
        0
300

302

304
ACVALUE_END
 91
        0
309
CELLCONTENT_END
  1
FORMATTEDCELLCONTENT_BEGIN
170
     1
300
CONTENTFORMAT
  1
CONTENTFORMAT_BEGIN
 90
      129
 91
        0
 92
        4
 93
        0
300

 40
0.0
140
1.0
 94
        1
 62
     0
340
0
144
7.5
309
CONTENTFORMAT_END
309
FORMATTEDCELLCONTENT_END
302
CONTENT
  1
CELLCONTENT_BEGIN
 90
        4
340
16BE
 91
        0
309
CELLCONTENT_END
  1
FORMATTEDCELLCONTENT_BEGIN
170
     1
300
CONTENTFORMAT
  1
CONTENTFORMAT_BEGIN
 90
      264
 91
      256
 92
      512
 93
        0
300

 40
0.0
140
1.0
 94
        1
 62
     0
340
0
144
0.18
309
CONTENTFORMAT_END
309
FORMATTEDCELLCONTENT_END
309
LINKEDTABLEDATACELL_END
  1
FORMATTEDTABLEDATACELL_BEGIN
300
CELLTABLEFORMAT
  1
TABLEFORMAT_BEGIN
 90
        1
170
     1
 91
   408592
 92
        0
 62
   257
 93
        1
300
CONTENTFORMAT
  1
CONTENTFORMAT_BEGIN
 90
       16
 91
        0
 92
      512
 93
        0
300

 40
0.0
140
1.0
 94
        5
 62
     0
340
0
144
0.18
309
CONTENTFORMAT_END
171
     1
301
MARGIN
  1
CELLMARGIN_BEGIN
 40
1.875
 40
1.875
 40
1.875
 40
1.875
 40
1.875
 40
1.875
309
CELLMARGIN_END
 94
        0
309
TABLEFORMAT_END
309
FORMATTEDTABLEDATACELL_END
  1
TABLECELL_BEGIN
 90
        3
 91
        0
309
TABLECELL_END
300
CELL
  1
LINKEDTABLEDATACELL_BEGIN
 90
        0
300

 91
        0
301
CUSTOMDATA
  1
DATAMAP_BEGIN
 90
        0
309
DATAMAP_END
 92
        0
 95
        1
302
CONTENT
  1
CELLCONTENT_BEGIN
 90
        1
300
VALUE
 93
        4
 90
        4
  1

 94
        0
300

302

304
ACVALUE_END
 91
        0
309
CELLCONTENT_END
  1
FORMATTEDCELLCONTENT_BEGIN
170
     1
300
CONTENTFORMAT
  1
CONTENTFORMAT_BEGIN
 90
      129
 91
        0
 92
        4
 93
        0
300

 40
0.0
140
1.0
 94
        1
 62
     0
340
0
144
7.5
309
CONTENTFORMAT_END
309
FORMATTEDCELLCONTENT_END
309
LINKEDTABLEDATACELL_END
  1
FORMATTEDTABLEDATACELL_BEGIN
300
CELLTABLEFORMAT
  1
TABLEFORMAT_BEGIN
 90
        1
170
     1
 91
   408592
 92
        0
 62
   257
 93
        1
300
CONTENTFORMAT
  1
CONTENTFORMAT_BEGIN
 90
       16
 91
        0
 92
      512
 93
        0
300

 40
0.0
140
1.0
 94
        5
 62
     0
340
0
144
0.18
309
CONTENTFORMAT_END
171
     1
301
MARGIN
  1
CELLMARGIN_BEGIN
 40
1.875
 40
1.875
 40
1.875
 40
1.875
 40
1.875
 40
1.875
309
CELLMARGIN_END
 94
        0
309
TABLEFORMAT_END
309
FORMATTEDTABLEDATACELL_END
  1
TABLECELL_BEGIN
 90
        3
 91
        0
309
TABLECELL_END
300
CELL
  1
LINKEDTABLEDATACELL_BEGIN
 90
        0
300

 91
        0
301
CUSTOMDATA
  1
DATAMAP_BEGIN
 90
        0
309
DATAMAP_END
 92
        0
 95
        1
302
CONTENT
  1
CELLCONTENT_BEGIN
 90
        1
300
VALUE
 93
        4
 90
        4
  1

 94
        0
300

302

304
ACVALUE_END
 91
        0
309
CELLCONTENT_END
  1
FORMATTEDCELLCONTENT_BEGIN
170
     1
300
CONTENTFORMAT
  1
CONTENTFORMAT_BEGIN
 90
      129
 91
        0
 92
        4
 93
        0
300

 40
0.0
140
1.0
 94
        1
 62
     0
340
0
144
7.5
309
CONTENTFORMAT_END
309
FORMATTEDCELLCONTENT_END
309
LINKEDTABLEDATACELL_END
  1
FORMATTEDTABLEDATACELL_BEGIN
300
CELLTABLEFORMAT
  1
TABLEFORMAT_BEGIN
 90
        1
170
     1
 91
   408592
 92
        0
 62
   257
 93
        1
300
CONTENTFORMAT
  1
CONTENTFORMAT_BEGIN
 90
       16
 91
        0
 92
      512
 93
        0
300

 40
0.0
140
1.0
 94
        5
 62
     0
340
0
144
0.18
309
CONTENTFORMAT_END
171
     1
301
MARGIN
  1
CELLMARGIN_BEGIN
 40
1.875
 40
1.875
 40
1.875
 40
1.875
 40
1.875
 40
1.875
309
CELLMARGIN_END
 94
        0
309
TABLEFORMAT_END
309
FORMATTEDTABLEDATACELL_END
  1
TABLECELL_BEGIN
 90
        3
 91
        0
309
TABLECELL_END
300
CELL
  1
LINKEDTABLEDATACELL_BEGIN
 90
        0
300

 91
        0
301
CUSTOMDATA
  1
DATAMAP_BEGIN
 90
        0
309
DATAMAP_END
 92
        0
 95
        1
302
CONTENT
  1
CELLCONTENT_BEGIN
 90
        1
300
VALUE
 93
        4
 90
        4
  1

 94
        0
300

302

304
ACVALUE_END
 91
        0
309
CELLCONTENT_END
  1
FORMATTEDCELLCONTENT_BEGIN
170
     1
300
CONTENTFORMAT
  1
CONTENTFORMAT_BEGIN
 90
      129
 91
        0
 92
        4
 93
        0
300

 40
0.0
140
1.0
 94
        1
 62
     0
340
0
144
7.5
309
CONTENTFORMAT_END
309
FORMATTEDCELLCONTENT_END
309
LINKEDTABLEDATACELL_END
  1
FORMATTEDTABLEDATACELL_BEGIN
300
CELLTABLEFORMAT
  1
TABLEFORMAT_BEGIN
 90
        1
170
     1
 91
   408592
 92
        0
 62
   257
 93
        1
300
CONTENTFORMAT
  1
CONTENTFORMAT_BEGIN
 90
       16
 91
        0
 92
      512
 93
        0
300

 40
0.0
140
1.0
 94
        4
 62
     0
340
0
144
0.18
309
CONTENTFORMAT_END
171
     1
301
MARGIN
  1
CELLMARGIN_BEGIN
 40
1.875
 40
1.875
 40
1.875
 40
1.875
 40
1.875
 40
1.875
309
CELLMARGIN_END
 94
        0
309
TABLEFORMAT_END
309
FORMATTEDTABLEDATACELL_END
  1
TABLECELL_BEGIN
 90
        3
 91
        0
309
TABLECELL_END
 91
        0
301
CUSTOMDATA
  1
DATAMAP_BEGIN
 90
        0
309
DATAMAP_END
309
LINKEDTABLEDATAROW_END
  1
FORMATTEDTABLEDATAROW_BEGIN
300
ROWTABLEFORMAT
  1
TABLEFORMAT_BEGIN
 90
        2
170
     1
 91
      128
 92
        0
 62
   257
 93
        1
300
CONTENTFORMAT
  1
CONTENTFORMAT_BEGIN
 90
      128
 91
        0
 92
      512
 93
        0
300

 40
0.0
140
1.0
 94
        1
 62
     0
340
0
144
7.5
309
CONTENTFORMAT_END
171
     0
 94
        0
309
TABLEFORMAT_END
309
FORMATTEDTABLEDATAROW_END
  1
TABLEROW_BEGIN
 90
        3
 40
13.75
309
TABLEROW_END
301
ROW
  1
LINKEDTABLEDATAROW_BEGIN
 90
        4
300
CELL
  1
LINKEDTABLEDATACELL_BEGIN
 90
        0
300

 91
        0
301
CUSTOMDATA
  1
DATAMAP_BEGIN
 90
        0
309
DATAMAP_END
 92
        0
 95
        2
302
CONTENT
  1
CELLCONTENT_BEGIN
 90
        1
300
VALUE
 93
        4
 90
        4
  1

 94
        0
300

302

304
ACVALUE_END
 91
        0
309
CELLCONTENT_END
  1
FORMATTEDCELLCONTENT_BEGIN
170
     1
300
CONTENTFORMAT
  1
CONTENTFORMAT_BEGIN
 90
      129
 91
        0
 92
        4
 93
        0
300

 40
0.0
140
1.0
 94
        1
 62
     0
340
0
144
7.5
309
CONTENTFORMAT_END
309
FORMATTEDCELLCONTENT_END
302
CONTENT
  1
CELLCONTENT_BEGIN
 90
        4
340
16CA
 91
        0
309
CELLCONTENT_END
  1
FORMATTEDCELLCONTENT_BEGIN
170
     1
300
CONTENTFORMAT
  1
CONTENTFORMAT_BEGIN
 90
      264
 91
      256
 92
      512
 93
        0
300

 40
0.0
140
1.0
 94
        1
 62
     0
340
0
144
0.18
309
CONTENTFORMAT_END
309
FORMATTEDCELLCONTENT_END
309
LINKEDTABLEDATACELL_END
  1
FORMATTEDTABLEDATACELL_BEGIN
300
CELLTABLEFORMAT
  1
TABLEFORMAT_BEGIN
 90
        1
170
     1
 91
   408592
 92
        0
 62
   257
 93
        1
300
CONTENTFORMAT
  1
CONTENTFORMAT_BEGIN
 90
       16
 91
        0
 92
      512
 93
        0
300

 40
0.0
140
1.0
 94
        5
 62
     0
340
0
144
0.18
309
CONTENTFORMAT_END
171
     1
301
MARGIN
  1
CELLMARGIN_BEGIN
 40
1.875
 40
1.875
 40
1.875
 40
1.875
 40
1.875
 40
1.875
309
CELLMARGIN_END
 94
        0
309
TABLEFORMAT_END
309
FORMATTEDTABLEDATACELL_END
  1
TABLECELL_BEGIN
 90
        3
 91
        0
309
TABLECELL_END
300
CELL
  1
LINKEDTABLEDATACELL_BEGIN
 90
        0
300

 91
        0
301
CUSTOMDATA
  1
DATAMAP_BEGIN
 90
        0
309
DATAMAP_END
 92
        0
 95
        1
302
CONTENT
  1
CELLCONTENT_BEGIN
 90
        1
300
VALUE
 93
        4
 90
        4
  1

 94
        0
300

302

304
ACVALUE_END
 91
        0
309
CELLCONTENT_END
  1
FORMATTEDCELLCONTENT_BEGIN
170
     1
300
CONTENTFORMAT
  1
CONTENTFORMAT_BEGIN
 90
      129
 91
        0
 92
        4
 93
        0
300

 40
0.0
140
1.0
 94
        1
 62
     0
340
0
144
7.5
309
CONTENTFORMAT_END
309
FORMATTEDCELLCONTENT_END
309
LINKEDTABLEDATACELL_END
  1
FORMATTEDTABLEDATACELL_BEGIN
300
CELLTABLEFORMAT
  1
TABLEFORMAT_BEGIN
 90
        1
170
     1
 91
   408592
 92
        0
 62
   257
 93
        1
300
CONTENTFORMAT
  1
CONTENTFORMAT_BEGIN
 90
       16
 91
        0
 92
      512
 93
        0
300

 40
0.0
140
1.0
 94
        5
 62
     0
340
0
144
0.18
309
CONTENTFORMAT_END
171
     1
301
MARGIN
  1
CELLMARGIN_BEGIN
 40
1.875
 40
1.875
 40
1.875
 40
1.875
 40
1.875
 40
1.875
309
CELLMARGIN_END
 94
        0
309
TABLEFORMAT_END
309
FORMATTEDTABLEDATACELL_END
  1
TABLECELL_BEGIN
 90
        3
 91
        0
309
TABLECELL_END
300
CELL
  1
LINKEDTABLEDATACELL_BEGIN
 90
        0
300

 91
        0
301
CUSTOMDATA
  1
DATAMAP_BEGIN
 90
        0
309
DATAMAP_END
 92
        0
 95
        1
302
CONTENT
  1
CELLCONTENT_BEGIN
 90
        1
300
VALUE
 93
        4
 90
        4
  1

 94
        0
300

302

304
ACVALUE_END
 91
        0
309
CELLCONTENT_END
  1
FORMATTEDCELLCONTENT_BEGIN
170
     1
300
CONTENTFORMAT
  1
CONTENTFORMAT_BEGIN
 90
      129
 91
        0
 92
        4
 93
        0
300

 40
0.0
140
1.0
 94
        1
 62
     0
340
0
144
7.5
309
CONTENTFORMAT_END
309
FORMATTEDCELLCONTENT_END
309
LINKEDTABLEDATACELL_END
  1
FORMATTEDTABLEDATACELL_BEGIN
300
CELLTABLEFORMAT
  1
TABLEFORMAT_BEGIN
 90
        1
170
     1
 91
   408592
 92
        0
 62
   257
 93
        1
300
CONTENTFORMAT
  1
CONTENTFORMAT_BEGIN
 90
       16
 91
        0
 92
      512
 93
        0
300

 40
0.0
140
1.0
 94
        5
 62
     0
340
0
144
0.18
309
CONTENTFORMAT_END
171
     1
301
MARGIN
  1
CELLMARGIN_BEGIN
 40
1.875
 40
1.875
 40
1.875
 40
1.875
 40
1.875
 40
1.875
309
CELLMARGIN_END
 94
        0
309
TABLEFORMAT_END
309
FORMATTEDTABLEDATACELL_END
  1
TABLECELL_BEGIN
 90
        3
 91
        0
309
TABLECELL_END
300
CELL
  1
LINKEDTABLEDATACELL_BEGIN
 90
        0
300

 91
        0
301
CUSTOMDATA
  1
DATAMAP_BEGIN
 90
        0
309
DATAMAP_END
 92
        0
 95
        1
302
CONTENT
  1
CELLCONTENT_BEGIN
 90
        1
300
VALUE
 93
        4
 90
        4
  1

 94
        0
300

302

304
ACVALUE_END
 91
        0
309
CELLCONTENT_END
  1
FORMATTEDCELLCONTENT_BEGIN
170
     1
300
CONTENTFORMAT
  1
CONTENTFORMAT_BEGIN
 90
      129
 91
        0
 92
        4
 93
        0
300

 40
0.0
140
1.0
 94
        1
 62
     0
340
0
144
7.5
309
CONTENTFORMAT_END
309
FORMATTEDCELLCONTENT_END
309
LINKEDTABLEDATACELL_END
  1
FORMATTEDTABLEDATACELL_BEGIN
300
CELLTABLEFORMAT
  1
TABLEFORMAT_BEGIN
 90
        1
170
     1
 91
   408592
 92
        0
 62
   257
 93
        1
300
CONTENTFORMAT
  1
CONTENTFORMAT_BEGIN
 90
       16
 91
        0
 92
      512
 93
        0
300

 40
0.0
140
1.0
 94
        4
 62
     0
340
0
144
0.18
309
CONTENTFORMAT_END
171
     1
301
MARGIN
  1
CELLMARGIN_BEGIN
 40
1.875
 40
1.875
 40
1.875
 40
1.875
 40
1.875
 40
1.875
309
CELLMARGIN_END
 94
        0
309
TABLEFORMAT_END
309
FORMATTEDTABLEDATACELL_END
  1
TABLECELL_BEGIN
 90
        3
 91
        0
309
TABLECELL_END
 91
        0
301
CUSTOMDATA
  1
DATAMAP_BEGIN
 90
        0
309
DATAMAP_END
309
LINKEDTABLEDATAROW_END
  1
FORMATTEDTABLEDATAROW_BEGIN
300
ROWTABLEFORMAT
  1
TABLEFORMAT_BEGIN
 90
        2
170
     1
 91
      128
 92
        0
 62
   257
 93
        1
300
CONTENTFORMAT
  1
CONTENTFORMAT_BEGIN
 90
      128
 91
        0
 92
      512
 93
        0
300

 40
0.0
140
1.0
 94
        1
 62
     0
340
0
144
7.5
309
CONTENTFORMAT_END
171
     0
 94
        0
309
TABLEFORMAT_END
309
FORMATTEDTABLEDATAROW_END
  1
TABLEROW_BEGIN
 90
        3
 40
13.75
309
TABLEROW_END
301
ROW
  1
LINKEDTABLEDATAROW_BEGIN
 90
        4
300
CELL
  1
LINKEDTABLEDATACELL_BEGIN
 90
        0
300

 91
        0
301
CUSTOMDATA
  1
DATAMAP_BEGIN
 90
        0
309
DATAMAP_END
 92
        0
 95
        2
302
CONTENT
  1
CELLCONTENT_BEGIN
 90
        1
300
VALUE
 93
        4
 90
        4
  1

 94
        0
300

302

304
ACVALUE_END
 91
        0
309
CELLCONTENT_END
  1
FORMATTEDCELLCONTENT_BEGIN
170
     1
300
CONTENTFORMAT
  1
CONTENTFORMAT_BEGIN
 90
      129
 91
        0
 92
        4
 93
        0
300

 40
0.0
140
1.0
 94
        1
 62
     0
340
0
144
7.5
309
CONTENTFORMAT_END
309
FORMATTEDCELLCONTENT_END
302
CONTENT
  1
CELLCONTENT_BEGIN
 90
        4
340
16D6
 91
        0
309
CELLCONTENT_END
  1
FORMATTEDCELLCONTENT_BEGIN
170
     1
300
CONTENTFORMAT
  1
CONTENTFORMAT_BEGIN
 90
      264
 91
      256
 92
      512
 93
        0
300

 40
0.0
140
1.0
 94
        1
 62
     0
340
0
144
0.18
309
CONTENTFORMAT_END
309
FORMATTEDCELLCONTENT_END
309
LINKEDTABLEDATACELL_END
  1
FORMATTEDTABLEDATACELL_BEGIN
300
CELLTABLEFORMAT
  1
TABLEFORMAT_BEGIN
 90
        1
170
     1
 91
   408592
 92
        0
 62
   257
 93
        1
300
CONTENTFORMAT
  1
CONTENTFORMAT_BEGIN
 90
       16
 91
        0
 92
      512
 93
        0
300

 40
0.0
140
1.0
 94
        5
 62
     0
340
0
144
0.18
309
CONTENTFORMAT_END
171
     1
301
MARGIN
  1
CELLMARGIN_BEGIN
 40
1.875
 40
1.875
 40
1.875
 40
1.875
 40
1.875
 40
1.875
309
CELLMARGIN_END
 94
        0
309
TABLEFORMAT_END
309
FORMATTEDTABLEDATACELL_END
  1
TABLECELL_BEGIN
 90
        3
 91
        0
309
TABLECELL_END
300
CELL
  1
LINKEDTABLEDATACELL_BEGIN
 90
        0
300

 91
        0
301
CUSTOMDATA
  1
DATAMAP_BEGIN
 90
        0
309
DATAMAP_END
 92
        0
 95
        1
302
CONTENT
  1
CELLCONTENT_BEGIN
 90
        1
300
VALUE
 93
        4
 90
        4
  1

 94
        0
300

302

304
ACVALUE_END
 91
        0
309
CELLCONTENT_END
  1
FORMATTEDCELLCONTENT_BEGIN
170
     1
300
CONTENTFORMAT
  1
CONTENTFORMAT_BEGIN
 90
      129
 91
        0
 92
        4
 93
        0
300

 40
0.0
140
1.0
 94
        1
 62
     0
340
0
144
7.5
309
CONTENTFORMAT_END
309
FORMATTEDCELLCONTENT_END
309
LINKEDTABLEDATACELL_END
  1
FORMATTEDTABLEDATACELL_BEGIN
300
CELLTABLEFORMAT
  1
TABLEFORMAT_BEGIN
 90
        1
170
     1
 91
   408592
 92
        0
 62
   257
 93
        1
300
CONTENTFORMAT
  1
CONTENTFORMAT_BEGIN
 90
       16
 91
        0
 92
      512
 93
        0
300

 40
0.0
140
1.0
 94
        5
 62
     0
340
0
144
0.18
309
CONTENTFORMAT_END
171
     1
301
MARGIN
  1
CELLMARGIN_BEGIN
 40
1.875
 40
1.875
 40
1.875
 40
1.875
 40
1.875
 40
1.875
309
CELLMARGIN_END
 94
        0
309
TABLEFORMAT_END
309
FORMATTEDTABLEDATACELL_END
  1
TABLECELL_BEGIN
 90
        3
 91
        0
309
TABLECELL_END
300
CELL
  1
LINKEDTABLEDATACELL_BEGIN
 90
        0
300

 91
        0
301
CUSTOMDATA
  1
DATAMAP_BEGIN
 90
        0
309
DATAMAP_END
 92
        0
 95
        1
302
CONTENT
  1
CELLCONTENT_BEGIN
 90
        1
300
VALUE
 93
        4
 90
        4
  1

 94
        0
300

302

304
ACVALUE_END
 91
        0
309
CELLCONTENT_END
  1
FORMATTEDCELLCONTENT_BEGIN
170
     1
300
CONTENTFORMAT
  1
CONTENTFORMAT_BEGIN
 90
      129
 91
        0
 92
        4
 93
        0
300

 40
0.0
140
1.0
 94
        1
 62
     0
340
0
144
7.5
309
CONTENTFORMAT_END
309
FORMATTEDCELLCONTENT_END
309
LINKEDTABLEDATACELL_END
  1
FORMATTEDTABLEDATACELL_BEGIN
300
CELLTABLEFORMAT
  1
TABLEFORMAT_BEGIN
 90
        1
170
     1
 91
   408592
 92
        0
 62
   257
 93
        1
300
CONTENTFORMAT
  1
CONTENTFORMAT_BEGIN
 90
       16
 91
        0
 92
      512
 93
        0
300

 40
0.0
140
1.0
 94
        5
 62
     0
340
0
144
0.18
309
CONTENTFORMAT_END
171
     1
301
MARGIN
  1
CELLMARGIN_BEGIN
 40
1.875
 40
1.875
 40
1.875
 40
1.875
 40
1.875
 40
1.875
309
CELLMARGIN_END
 94
        0
309
TABLEFORMAT_END
309
FORMATTEDTABLEDATACELL_END
  1
TABLECELL_BEGIN
 90
        3
 91
        0
309
TABLECELL_END
300
CELL
  1
LINKEDTABLEDATACELL_BEGIN
 90
        0
300

 91
        0
301
CUSTOMDATA
  1
DATAMAP_BEGIN
 90
        0
309
DATAMAP_END
 92
        0
 95
        1
302
CONTENT
  1
CELLCONTENT_BEGIN
 90
        1
300
VALUE
 93
        4
 90
        4
  1

 94
        0
300

302

304
ACVALUE_END
 91
        0
309
CELLCONTENT_END
  1
FORMATTEDCELLCONTENT_BEGIN
170
     1
300
CONTENTFORMAT
  1
CONTENTFORMAT_BEGIN
 90
      129
 91
        0
 92
        4
 93
        0
300

 40
0.0
140
1.0
 94
        1
 62
     0
340
0
144
7.5
309
CONTENTFORMAT_END
309
FORMATTEDCELLCONTENT_END
309
LINKEDTABLEDATACELL_END
  1
FORMATTEDTABLEDATACELL_BEGIN
300
CELLTABLEFORMAT
  1
TABLEFORMAT_BEGIN
 90
        1
170
     1
 91
   408592
 92
        0
 62
   257
 93
        1
300
CONTENTFORMAT
  1
CONTENTFORMAT_BEGIN
 90
       16
 91
        0
 92
      512
 93
        0
300

 40
0.0
140
1.0
 94
        4
 62
     0
340
0
144
0.18
309
CONTENTFORMAT_END
171
     1
301
MARGIN
  1
CELLMARGIN_BEGIN
 40
1.875
 40
1.875
 40
1.875
 40
1.875
 40
1.875
 40
1.875
309
CELLMARGIN_END
 94
        0
309
TABLEFORMAT_END
309
FORMATTEDTABLEDATACELL_END
  1
TABLECELL_BEGIN
 90
        3
 91
        0
309
TABLECELL_END
 91
        0
301
CUSTOMDATA
  1
DATAMAP_BEGIN
 90
        0
309
DATAMAP_END
309
LINKEDTABLEDATAROW_END
  1
FORMATTEDTABLEDATAROW_BEGIN
300
ROWTABLEFORMAT
  1
TABLEFORMAT_BEGIN
 90
        2
170
     1
 91
      128
 92
        0
 62
   257
 93
        1
300
CONTENTFORMAT
  1
CONTENTFORMAT_BEGIN
 90
      128
 91
        0
 92
      512
 93
        0
300

 40
0.0
140
1.0
 94
        1
 62
     0
340
0
144
7.5
309
CONTENTFORMAT_END
171
     0
 94
        0
309
TABLEFORMAT_END
309
FORMATTEDTABLEDATAROW_END
  1
TABLEROW_BEGIN
 90
        3
 40
13.75
309
TABLEROW_END
 92
        0
100
AcDbFormattedTableData
300
TABLEFORMAT
  1
TABLEFORMAT_BEGIN
 90
        4
170
     1
 91
   408576
 92
    65536
 62
   257
 93
        1
300
CONTENTFORMAT
  1
CONTENTFORMAT_BEGIN
 90
        0
 91
        0
 92
      512
 93
        0
300

 40
0.0
140
1.0
 94
        1
 62
     0
340
0
144
0.18
309
CONTENTFORMAT_END
171
     1
301
MARGIN
  1
CELLMARGIN_BEGIN
 40
1.875
 40
1.875
 40
1.875
 40
1.875
 40
0.075
 40
0.075
309
CELLMARGIN_END
 94
        0
309
TABLEFORMAT_END
 90
        0
100
AcDbTableContent
340
1661
  0
TABLEGEOMETRY
  5
1A74
330
1A77
100
AcDbTableGeometry
 90
        5
 91
        4
 92
       20
 93
        0
 40
0.0
 41
0.0
330
0
 94
        0
 93
        0
 40
0.0
 41
0.0
330
0
 94
        0
 93
        0
 40
0.0
 41
0.0
330
0
 94
        0
 93
        0
 40
0.0
 41
0.0
330
0
 94
        0
 93
        0
 40
0.0
 41
0.0
330
0
 94
        0
 93
        0
 40
0.0
 41
0.0
330
0
 94
        0
 93
        0
 40
0.0
 41
0.0
330
0
 94
        0
 93
        0
 40
0.0
 41
0.0
330
0
 94
        0
 93
        0
 40
0.0
 41
0.0
330
0
 94
        0
 93
        0
 40
0.0
 41
0.0
330
0
 94
        0
 93
        0
 40
0.0
 41
0.0
330
0
 94
        0
 93
        0
 40
0.0
 41
0.0
330
0
 94
        0
 93
        0
 40
0.0
 41
0.0
330
0
 94
        0
 93
        0
 40
0.0
 41
0.0
330
0
 94
        0
 93
        0
 40
0.0
 41
0.0
330
0
 94
        0
 93
        0
 40
0.0
 41
0.0
330
0
 94
        0
 93
        0
 40
0.0
 41
0.0
330
0
 94
        0
 93
        0
 40
0.0
 41
0.0
330
0
 94
        0
 93
        0
 40
0.0
 41
0.0
330
0
 94
        0
 93
        0
 40
0.0
 41
0.0
330
0
 94
        0
  0
DICTIONARY
  5
18A4
102
{ACAD_REACTORS
330
18A3
102
}
330
18A3
100
AcDbDictionary
281
     1
  0
DICTIONARY
  5
18A8
102
{ACAD_REACTORS
330
18A7
102
}
330
18A7
100
AcDbDictionary
281
     1
  0
DICTIONARY
  5
18AC
102
{ACAD_REACTORS
330
18AB
102
}
330
18AB
100
AcDbDictionary
281
     1
  0
DICTIONARY
  5
18B0
102
{ACAD_REACTORS
330
18AF
102
}
330
18AF
100
AcDbDictionary
281
     1
  0
DICTIONARY
  5
18B4
102
{ACAD_REACTORS
330
18B3
102
}
330
18B3
100
AcDbDictionary
281
     1
  0
DICTIONARY
  5
18B8
102
{ACAD_REACTORS
330
18B7
102
}
330
18B7
100
AcDbDictionary
281
     1
  0
DICTIONARY
  5
18BD
102
{ACAD_REACTORS
330
18BC
102
}
330
18BC
100
AcDbDictionary
281
     1
  0
DICTIONARY
  5
18C1
102
{ACAD_REACTORS
330
18C0
102
}
330
18C0
100
AcDbDictionary
281
     1
  0
DICTIONARY
  5
18C5
102
{ACAD_REACTORS
330
18C4
102
}
330
18C4
100
AcDbDictionary
281
     1
  0
DICTIONARY
  5
18D7
102
{ACAD_REACTORS
330
18D6
102
}
330
18D6
100
AcDbDictionary
281
     1
  0
DICTIONARY
  5
18DB
102
{ACAD_REACTORS
330
18DA
102
}
330
18DA
100
AcDbDictionary
281
     1
  0
DICTIONARY
  5
1AAC
330
1661
100
AcDbDictionary
280
     1
281
     1
  3
ACAD_ROUNDTRIP_2008_TABLESTYLE_CELLSTYLEMAP
360
1AAD
  0
DICTIONARY
  5
1AAA
330
15E9
100
AcDbDictionary
280
     1
281
     1
  3
ACAD_ROUNDTRIP_2008_TABLESTYLE_CELLSTYLEMAP
360
1AAB
  0
DICTIONARY
  5
1A80
330
15D0
100
AcDbDictionary
280
     1
281
     1
  3
ACAD_XREC_ROUNDTRIP
360
1A81
  0
DICTIONARY
  5
1A86
330
15D3
100
AcDbDictionary
280
     1
281
     1
  3
ACAD_XREC_ROUNDTRIP
360
1A87
  0
DICTIONARY
  5
1A8E
330
15D7
100
AcDbDictionary
280
     1
281
     1
  3
ACAD_XREC_ROUNDTRIP
360
1A8F
  0
DICTIONARY
  5
1A96
330
15DB
100
AcDbDictionary
280
     1
281
     1
  3
ACAD_XREC_ROUNDTRIP
360
1A97
  0
DICTIONARY
  5
1A8A
330
15D5
100
AcDbDictionary
280
     1
281
     1
  3
ACAD_XREC_ROUNDTRIP
360
1A8B
  0
DICTIONARY
  5
1A8C
330
15D6
100
AcDbDictionary
280
     1
281
     1
  3
ACAD_XREC_ROUNDTRIP
360
1A8D
  0
DICTIONARY
  5
1A9C
330
15DE
100
AcDbDictionary
280
     1
281
     1
  3
ACAD_XREC_ROUNDTRIP
360
1A9D
  0
DICTIONARY
  5
1A94
330
15DA
100
AcDbDictionary
280
     1
281
     1
  3
ACAD_XREC_ROUNDTRIP
360
1A95
  0
DICTIONARY
  5
1A78
330
15CC
100
AcDbDictionary
280
     1
281
     1
  3
ACAD_XREC_ROUNDTRIP
360
1A79
  0
DICTIONARY
  5
1A7A
330
15CD
100
AcDbDictionary
280
     1
281
     1
  3
ACAD_XREC_ROUNDTRIP
360
1A7B
  0
DICTIONARY
  5
1A7C
330
15CE
100
AcDbDictionary
280
     1
281
     1
  3
ACAD_XREC_ROUNDTRIP
360
1A7D
  0
DICTIONARY
  5
1A7E
330
15CF
100
AcDbDictionary
280
     1
281
     1
  3
ACAD_XREC_ROUNDTRIP
360
1A7F
  0
DICTIONARY
  5
1A84
330
15D2
100
AcDbDictionary
280
     1
281
     1
  3
ACAD_XREC_ROUNDTRIP
360
1A85
  0
DICTIONARY
  5
1A98
330
15DC
100
AcDbDictionary
280
     1
281
     1
  3
ACAD_XREC_ROUNDTRIP
360
1A99
  0
DICTIONARY
  5
1A92
330
15D9
100
AcDbDictionary
280
     1
281
     1
  3
ACAD_XREC_ROUNDTRIP
360
1A93
  0
DICTIONARY
  5
1AA8
330
15EC
100
AcDbDictionary
280
     1
281
     1
  3
ACAD_XREC_ROUNDTRIP
360
1AA9
  0
DICTIONARY
  5
1A9A
330
15DD
100
AcDbDictionary
280
     1
281
     1
  3
ACAD_XREC_ROUNDTRIP
360
1A9B
  0
DICTIONARY
  5
1A88
330
15D4
100
AcDbDictionary
280
     1
281
     1
  3
ACAD_XREC_ROUNDTRIP
360
1A89
  0
DICTIONARY
  5
1AA6
330
15E3
100
AcDbDictionary
280
     1
281
     1
  3
ACAD_XREC_ROUNDTRIP
360
1AA7
  0
DICTIONARY
  5
1AA4
330
15E2
100
AcDbDictionary
280
     1
281
     1
  3
ACAD_XREC_ROUNDTRIP
360
1AA5
  0
DICTIONARY
  5
1A9E
330
15DF
100
AcDbDictionary
280
     1
281
     1
  3
ACAD_XREC_ROUNDTRIP
360
1A9F
  0
DICTIONARY
  5
1AA0
330
15E0
100
AcDbDictionary
280
     1
281
     1
  3
ACAD_XREC_ROUNDTRIP
360
1AA1
  0
DICTIONARY
  5
1A90
330
15D8
100
AcDbDictionary
280
     1
281
     1
  3
ACAD_XREC_ROUNDTRIP
360
1A91
  0
DICTIONARY
  5
1A82
330
15D1
100
AcDbDictionary
280
     1
281
     1
  3
ACAD_XREC_ROUNDTRIP
360
1A83
  0
DICTIONARY
  5
1AA2
330
15E1
100
AcDbDictionary
280
     1
281
     1
  3
ACAD_XREC_ROUNDTRIP
360
1AA3
  0
CELLSTYLEMAP
  5
1AAD
102
{ACAD_REACTORS
330
1AAC
102
}
330
1AAC
100
AcDbCellStyleMap
 90
        3
300
CELLSTYLE
  1
TABLEFORMAT_BEGIN
 90
        5
170
     1
 91
        0
 92
    32768
 62
   257
 93
        1
300
CONTENTFORMAT
  1
CONTENTFORMAT_BEGIN
 90
        0
 91
        0
 92
        4
 93
        0
300

 40
0.0
140
1.0
 94
        5
 62
     0
340
165C
144
1.0
309
CONTENTFORMAT_END
171
     1
301
MARGIN
  1
CELLMARGIN_BEGIN
 40
1.5
 40
1.5
 40
1.5
 40
1.5
 40
1.5
 40
1.5
309
CELLMARGIN_END
 94
        6
 95
        1
302
GRIDFORMAT
  1
GRIDFORMAT_BEGIN
 90
        0
 91
        1
 62
     0
 92
       -2
340
11
 93
        0
 40
0.045
309
GRIDFORMAT_END
 95
        2
302
GRIDFORMAT
  1
GRIDFORMAT_BEGIN
 90
        0
 91
        1
 62
     0
 92
       -2
340
11
 93
        0
 40
0.045
309
GRIDFORMAT_END
 95
        4
302
GRIDFORMAT
  1
GRIDFORMAT_BEGIN
 90
        0
 91
        1
 62
     0
 92
       -2
340
11
 93
        0
 40
0.045
309
GRIDFORMAT_END
 95
        8
302
GRIDFORMAT
  1
GRIDFORMAT_BEGIN
 90
        0
 91
        1
 62
     0
 92
       -2
340
11
 93
        0
 40
0.045
309
GRIDFORMAT_END
 95
       16
302
GRIDFORMAT
  1
GRIDFORMAT_BEGIN
 90
        0
 91
        1
 62
     0
 92
       -2
340
11
 93
        0
 40
0.045
309
GRIDFORMAT_END
 95
       32
302
GRIDFORMAT
  1
GRIDFORMAT_BEGIN
 90
        0
 91
        1
 62
     0
 92
       -2
340
11
 93
        0
 40
0.045
309
GRIDFORMAT_END
309
TABLEFORMAT_END
  1
CELLSTYLE_BEGIN
 90
        1
 91
        1
300
_TITLE
309
CELLSTYLE_END
300
CELLSTYLE
  1
TABLEFORMAT_BEGIN
 90
        5
170
     1
 91
        0
 92
        0
 62
   257
 93
        1
300
CONTENTFORMAT
  1
CONTENTFORMAT_BEGIN
 90
        0
 91
        0
 92
        4
 93
        0
300

 40
0.0
140
1.0
 94
        5
 62
     0
340
165C
144
6.0
309
CONTENTFORMAT_END
171
     1
301
MARGIN
  1
CELLMARGIN_BEGIN
 40
1.5
 40
1.5
 40
1.5
 40
1.5
 40
1.5
 40
1.5
309
CELLMARGIN_END
 94
        6
 95
        1
302
GRIDFORMAT
  1
GRIDFORMAT_BEGIN
 90
        0
 91
        1
 62
     0
 92
       -2
340
11
 93
        0
 40
0.045
309
GRIDFORMAT_END
 95
        2
302
GRIDFORMAT
  1
GRIDFORMAT_BEGIN
 90
        0
 91
        1
 62
     0
 92
       -2
340
11
 93
        0
 40
0.045
309
GRIDFORMAT_END
 95
        4
302
GRIDFORMAT
  1
GRIDFORMAT_BEGIN
 90
        0
 91
        1
 62
     0
 92
       -2
340
11
 93
        0
 40
0.045
309
GRIDFORMAT_END
 95
        8
302
GRIDFORMAT
  1
GRIDFORMAT_BEGIN
 90
        0
 91
        1
 62
     0
 92
       -2
340
11
 93
        0
 40
0.045
309
GRIDFORMAT_END
 95
       16
302
GRIDFORMAT
  1
GRIDFORMAT_BEGIN
 90
        0
 91
        1
 62
     0
 92
       -2
340
11
 93
        0
 40
0.045
309
GRIDFORMAT_END
 95
       32
302
GRIDFORMAT
  1
GRIDFORMAT_BEGIN
 90
        0
 91
        1
 62
     0
 92
       -2
340
11
 93
        0
 40
0.045
309
GRIDFORMAT_END
309
TABLEFORMAT_END
  1
CELLSTYLE_BEGIN
 90
        2
 91
        1
300
_HEADER
309
CELLSTYLE_END
300
CELLSTYLE
  1
TABLEFORMAT_BEGIN
 90
        5
170
     1
 91
        0
 92
        0
 62
   257
 93
        1
300
CONTENTFORMAT
  1
CONTENTFORMAT_BEGIN
 90
        0
 91
        0
 92
        4
 93
        0
300

 40
0.0
140
1.0
 94
        2
 62
     0
340
165C
144
6.0
309
CONTENTFORMAT_END
171
     1
301
MARGIN
  1
CELLMARGIN_BEGIN
 40
1.5
 40
1.5
 40
1.5
 40
1.5
 40
1.5
 40
1.5
309
CELLMARGIN_END
 94
        6
 95
        1
302
GRIDFORMAT
  1
GRIDFORMAT_BEGIN
 90
        0
 91
        1
 62
     0
 92
       -2
340
11
 93
        0
 40
0.045
309
GRIDFORMAT_END
 95
        2
302
GRIDFORMAT
  1
GRIDFORMAT_BEGIN
 90
        0
 91
        1
 62
     0
 92
       -2
340
11
 93
        0
 40
0.045
309
GRIDFORMAT_END
 95
        4
302
GRIDFORMAT
  1
GRIDFORMAT_BEGIN
 90
        0
 91
        1
 62
     0
 92
       -2
340
11
 93
        0
 40
0.045
309
GRIDFORMAT_END
 95
        8
302
GRIDFORMAT
  1
GRIDFORMAT_BEGIN
 90
        0
 91
        1
 62
     0
 92
       -2
340
11
 93
        0
 40
0.045
309
GRIDFORMAT_END
 95
       16
302
GRIDFORMAT
  1
GRIDFORMAT_BEGIN
 90
        0
 91
        1
 62
     0
 92
       -2
340
11
 93
        0
 40
0.045
309
GRIDFORMAT_END
 95
       32
302
GRIDFORMAT
  1
GRIDFORMAT_BEGIN
 90
        0
 91
        1
 62
     0
 92
       -2
340
11
 93
        0
 40
0.045
309
GRIDFORMAT_END
309
TABLEFORMAT_END
  1
CELLSTYLE_BEGIN
 90
        3
 91
        2
300
_DATA
309
CELLSTYLE_END
  0
CELLSTYLEMAP
  5
1AAB
102
{ACAD_REACTORS
330
1AAA
102
}
330
1AAA
100
AcDbCellStyleMap
 90
        3
300
CELLSTYLE
  1
TABLEFORMAT_BEGIN
 90
        5
170
     1
 91
        0
 92
    32768
 62
   257
 93
        1
300
CONTENTFORMAT
  1
CONTENTFORMAT_BEGIN
 90
        0
 91
        0
 92
        4
 93
        0
300

 40
0.0
140
1.0
 94
        5
 62
     0
340
17
144
0.25
309
CONTENTFORMAT_END
171
     1
301
MARGIN
  1
CELLMARGIN_BEGIN
 40
0.06
 40
0.06
 40
0.06
 40
0.06
 40
0.06
 40
0.06
309
CELLMARGIN_END
 94
        6
 95
        1
302
GRIDFORMAT
  1
GRIDFORMAT_BEGIN
 90
        0
 91
        1
 62
     0
 92
       -2
340
11
 93
        0
 40
0.045
309
GRIDFORMAT_END
 95
        2
302
GRIDFORMAT
  1
GRIDFORMAT_BEGIN
 90
        0
 91
        1
 62
     0
 92
       -2
340
11
 93
        0
 40
0.045
309
GRIDFORMAT_END
 95
        4
302
GRIDFORMAT
  1
GRIDFORMAT_BEGIN
 90
        0
 91
        1
 62
     0
 92
       -2
340
11
 93
        0
 40
0.045
309
GRIDFORMAT_END
 95
        8
302
GRIDFORMAT
  1
GRIDFORMAT_BEGIN
 90
        0
 91
        1
 62
     0
 92
       -2
340
11
 93
        0
 40
0.045
309
GRIDFORMAT_END
 95
       16
302
GRIDFORMAT
  1
GRIDFORMAT_BEGIN
 90
        0
 91
        1
 62
     0
 92
       -2
340
11
 93
        0
 40
0.045
309
GRIDFORMAT_END
 95
       32
302
GRIDFORMAT
  1
GRIDFORMAT_BEGIN
 90
        0
 91
        1
 62
     0
 92
       -2
340
11
 93
        0
 40
0.045
309
GRIDFORMAT_END
309
TABLEFORMAT_END
  1
CELLSTYLE_BEGIN
 90
        1
 91
        1
300
_TITLE
309
CELLSTYLE_END
300
CELLSTYLE
  1
TABLEFORMAT_BEGIN
 90
        5
170
     1
 91
        0
 92
        0
 62
   257
 93
        1
300
CONTENTFORMAT
  1
CONTENTFORMAT_BEGIN
 90
        0
 91
        0
 92
        4
 93
        0
300

 40
0.0
140
1.0
 94
        5
 62
     0
340
17
144
0.18
309
CONTENTFORMAT_END
171
     1
301
MARGIN
  1
CELLMARGIN_BEGIN
 40
0.06
 40
0.06
 40
0.06
 40
0.06
 40
0.06
 40
0.06
309
CELLMARGIN_END
 94
        6
 95
        1
302
GRIDFORMAT
  1
GRIDFORMAT_BEGIN
 90
        0
 91
        1
 62
     0
 92
       -2
340
11
 93
        0
 40
0.045
309
GRIDFORMAT_END
 95
        2
302
GRIDFORMAT
  1
GRIDFORMAT_BEGIN
 90
        0
 91
        1
 62
     0
 92
       -2
340
11
 93
        0
 40
0.045
309
GRIDFORMAT_END
 95
        4
302
GRIDFORMAT
  1
GRIDFORMAT_BEGIN
 90
        0
 91
        1
 62
     0
 92
       -2
340
11
 93
        0
 40
0.045
309
GRIDFORMAT_END
 95
        8
302
GRIDFORMAT
  1
GRIDFORMAT_BEGIN
 90
        0
 91
        1
 62
     0
 92
       -2
340
11
 93
        0
 40
0.045
309
GRIDFORMAT_END
 95
       16
302
GRIDFORMAT
  1
GRIDFORMAT_BEGIN
 90
        0
 91
        1
 62
     0
 92
       -2
340
11
 93
        0
 40
0.045
309
GRIDFORMAT_END
 95
       32
302
GRIDFORMAT
  1
GRIDFORMAT_BEGIN
 90
        0
 91
        1
 62
     0
 92
       -2
340
11
 93
        0
 40
0.045
309
GRIDFORMAT_END
309
TABLEFORMAT_END
  1
CELLSTYLE_BEGIN
 90
        2
 91
        1
300
_HEADER
309
CELLSTYLE_END
300
CELLSTYLE
  1
TABLEFORMAT_BEGIN
 90
        5
170
     1
 91
        0
 92
        0
 62
   257
 93
        1
300
CONTENTFORMAT
  1
CONTENTFORMAT_BEGIN
 90
        0
 91
        0
 92
        4
 93
        0
300

 40
0.0
140
1.0
 94
        2
 62
     0
340
17
144
0.18
309
CONTENTFORMAT_END
171
     1
301
MARGIN
  1
CELLMARGIN_BEGIN
 40
0.06
 40
0.06
 40
0.06
 40
0.06
 40
0.06
 40
0.06
309
CELLMARGIN_END
 94
        6
 95
        1
302
GRIDFORMAT
  1
GRIDFORMAT_BEGIN
 90
        0
 91
        1
 62
     0
 92
       -2
340
11
 93
        0
 40
0.045
309
GRIDFORMAT_END
 95
        2
302
GRIDFORMAT
  1
GRIDFORMAT_BEGIN
 90
        0
 91
        1
 62
     0
 92
       -2
340
11
 93
        0
 40
0.045
309
GRIDFORMAT_END
 95
        4
302
GRIDFORMAT
  1
GRIDFORMAT_BEGIN
 90
        0
 91
        1
 62
     0
 92
       -2
340
11
 93
        0
 40
0.045
309
GRIDFORMAT_END
 95
        8
302
GRIDFORMAT
  1
GRIDFORMAT_BEGIN
 90
        0
 91
        1
 62
     0
 92
       -2
340
11
 93
        0
 40
0.045
309
GRIDFORMAT_END
 95
       16
302
GRIDFORMAT
  1
GRIDFORMAT_BEGIN
 90
        0
 91
        1
 62
     0
 92
       -2
340
11
 93
        0
 40
0.045
309
GRIDFORMAT_END
 95
       32
302
GRIDFORMAT
  1
GRIDFORMAT_BEGIN
 90
        0
 91
        1
 62
     0
 92
       -2
340
11
 93
        0
 40
0.045
309
GRIDFORMAT_END
309
TABLEFORMAT_END
  1
CELLSTYLE_BEGIN
 90
        3
 91
        2
300
_DATA
309
CELLSTYLE_END
  0
XRECORD
  5
1A81
102
{ACAD_REACTORS
330
1A80
102
}
330
1A80
100
AcDbXrecord
280
     1
102
RTVSPost2010Prop28
280
     1
102
RTVSPost2010PropOp28
 70
     1
102
RTVSPost2010Prop29
280
     1
102
RTVSPost2010PropOp29
 70
     1
102
RTVSPost2010Prop30
280
     0
102
RTVSPost2010PropOp30
 70
     1
102
RTVSPost2010Prop31
280
     0
102
RTVSPost2010PropOp31
 70
     1
102
RTVSPost2010Prop32
280
     0
102
RTVSPost2010PropOp32
 70
     1
102
RTVSPost2010Prop33
280
     0
102
RTVSPost2010PropOp33
 70
     1
102
RTVSPost2010Prop34
280
     0
102
RTVSPost2010PropOp34
 70
     1
102
RTVSPost2010Prop35
280
     0
102
RTVSPost2010PropOp35
 70
     1
102
RTVSPost2010Prop36
280
     0
102
RTVSPost2010PropOp36
 70
     1
102
RTVSPost2010Prop37
 90
       50
102
RTVSPost2010PropOp37
 70
     1
102
RTVSPost2010Prop38
140
0.0
102
RTVSPost2010PropOp38
 70
     1
102
RTVSPost2010Prop39
140
1.0
102
RTVSPost2010PropOp39
 70
     1
102
RTVSPost2010Prop40
 90
        0
102
RTVSPost2010PropOp40
 70
     1
102
RTVSPost2010Prop41ColorIndex
 90
       18
102
RTVSPost2010Prop41ColorRGB
 90
        0
102
RTVSPost2010PropOp41
 70
     1
102
RTVSPost2010Prop42
 90
       50
102
RTVSPost2010PropOp42
 70
     1
102
RTVSPost2010Prop43
 90
        3
102
RTVSPost2010PropOp43
 70
     1
102
RTVSPost2010Prop44ColorIndex
 90
        5
102
RTVSPost2010Prop44ColorRGB
 90
      255
102
RTVSPost2010PropOp44
 70
     1
102
RTVSPost2010Prop45
280
     0
102
RTVSPost2010PropOp45
 70
     1
102
RTVSPost2010Prop46
 90
       50
102
RTVSPost2010PropOp46
 70
     1
102
RTVSPost2010Prop47
 90
       50
102
RTVSPost2010PropOp47
 70
     1
102
RTVSPost2010Prop48
 90
       50
102
RTVSPost2010PropOp48
 70
     1
102
RTVSPost2010Prop49
280
     0
102
RTVSPost2010PropOp49
 70
     1
102
RTVSPost2010Prop50
 90
       50
102
RTVSPost2010PropOp50
 70
     1
102
RTVSPost2010Prop51ColorIndex
 90
      256
102
RTVSPost2010Prop51ColorRGB
 90
-16777216
102
RTVSPost2010PropOp51
 70
     0
102
RTVSPost2010Prop52
140
1.0
102
RTVSPost2010PropOp52
 70
     0
102
RTVSPost2010Prop53
 90
        2
102
RTVSPost2010PropOp53
 70
     1
102
RTVSPost2010Prop54
  1
strokes_ogs.tif
102
RTVSPost2010PropOp54
 70
     1
102
RTVSPost2010Prop55
280
     0
102
RTVSPost2010PropOp55
 70
     1
102
RTVSPost2010Prop56
140
1.0
102
RTVSPost2010PropOp56
 70
     1
102
RTVSPost2010Prop57
140
1.0
102
RTVSPost2010PropOp57
 70
     1
  0
XRECORD
  5
1A87
102
{ACAD_REACTORS
330
1A86
102
}
330
1A86
100
AcDbXrecord
280
     1
102
RTVSPost2010Prop28
280
     0
102
RTVSPost2010PropOp28
 70
     1
102
RTVSPost2010Prop29
280
     1
102
RTVSPost2010PropOp29
 70
     1
102
RTVSPost2010Prop30
280
     1
102
RTVSPost2010PropOp30
 70
     1
102
RTVSPost2010Prop31
280
     0
102
RTVSPost2010PropOp31
 70
     1
102
RTVSPost2010Prop32
280
     0
102
RTVSPost2010PropOp32
 70
     1
102
RTVSPost2010Prop33
280
     0
102
RTVSPost2010PropOp33
 70
     1
102
RTVSPost2010Prop34
280
     0
102
RTVSPost2010PropOp34
 70
     1
102
RTVSPost2010Prop35
280
     0
102
RTVSPost2010PropOp35
 70
     1
102
RTVSPost2010Prop36
280
     0
102
RTVSPost2010PropOp36
 70
     1
102
RTVSPost2010Prop37
 90
       50
102
RTVSPost2010PropOp37
 70
     1
102
RTVSPost2010Prop38
140
0.0
102
RTVSPost2010PropOp38
 70
     1
102
RTVSPost2010Prop39
140
1.0
102
RTVSPost2010PropOp39
 70
     1
102
RTVSPost2010Prop40
 90
        0
102
RTVSPost2010PropOp40
 70
     1
102
RTVSPost2010Prop41ColorIndex
 90
       18
102
RTVSPost2010Prop41ColorRGB
 90
        0
102
RTVSPost2010PropOp41
 70
     1
102
RTVSPost2010Prop42
 90
       50
102
RTVSPost2010PropOp42
 70
     1
102
RTVSPost2010Prop43
 90
        3
102
RTVSPost2010PropOp43
 70
     1
102
RTVSPost2010Prop44ColorIndex
 90
        5
102
RTVSPost2010Prop44ColorRGB
 90
      255
102
RTVSPost2010PropOp44
 70
     1
102
RTVSPost2010Prop45
280
     0
102
RTVSPost2010PropOp45
 70
     1
102
RTVSPost2010Prop46
 90
       50
102
RTVSPost2010PropOp46
 70
     1
102
RTVSPost2010Prop47
 90
       50
102
RTVSPost2010PropOp47
 70
     1
102
RTVSPost2010Prop48
 90
       50
102
RTVSPost2010PropOp48
 70
     1
102
RTVSPost2010Prop49
280
     0
102
RTVSPost2010PropOp49
 70
     1
102
RTVSPost2010Prop50
 90
       50
102
RTVSPost2010PropOp50
 70
     1
102
RTVSPost2010Prop51ColorIndex
 90
      256
102
RTVSPost2010Prop51ColorRGB
 90
-16777216
102
RTVSPost2010PropOp51
 70
     0
102
RTVSPost2010Prop52
140
1.0
102
RTVSPost2010PropOp52
 70
     0
102
RTVSPost2010Prop53
 90
        2
102
RTVSPost2010PropOp53
 70
     1
102
RTVSPost2010Prop54
  1
strokes_ogs.tif
102
RTVSPost2010PropOp54
 70
     1
102
RTVSPost2010Prop55
280
     0
102
RTVSPost2010PropOp55
 70
     1
102
RTVSPost2010Prop56
140
1.0
102
RTVSPost2010PropOp56
 70
     1
102
RTVSPost2010Prop57
140
1.0
102
RTVSPost2010PropOp57
 70
     1
  0
XRECORD
  5
1A8F
102
{ACAD_REACTORS
330
1A8E
102
}
330
1A8E
100
AcDbXrecord
280
     1
102
RTVSPost2010Prop28
280
     0
102
RTVSPost2010PropOp28
 70
     1
102
RTVSPost2010Prop29
280
     1
102
RTVSPost2010PropOp29
 70
     1
102
RTVSPost2010Prop30
280
     1
102
RTVSPost2010PropOp30
 70
     1
102
RTVSPost2010Prop31
280
     0
102
RTVSPost2010PropOp31
 70
     1
102
RTVSPost2010Prop32
280
     0
102
RTVSPost2010PropOp32
 70
     1
102
RTVSPost2010Prop33
280
     0
102
RTVSPost2010PropOp33
 70
     1
102
RTVSPost2010Prop34
280
     0
102
RTVSPost2010PropOp34
 70
     1
102
RTVSPost2010Prop35
280
     0
102
RTVSPost2010PropOp35
 70
     1
102
RTVSPost2010Prop36
280
     0
102
RTVSPost2010PropOp36
 70
     1
102
RTVSPost2010Prop37
 90
       50
102
RTVSPost2010PropOp37
 70
     1
102
RTVSPost2010Prop38
140
0.0
102
RTVSPost2010PropOp38
 70
     1
102
RTVSPost2010Prop39
140
1.0
102
RTVSPost2010PropOp39
 70
     1
102
RTVSPost2010Prop40
 90
        0
102
RTVSPost2010PropOp40
 70
     1
102
RTVSPost2010Prop41ColorIndex
 90
       18
102
RTVSPost2010Prop41ColorRGB
 90
        0
102
RTVSPost2010PropOp41
 70
     1
102
RTVSPost2010Prop42
 90
       50
102
RTVSPost2010PropOp42
 70
     1
102
RTVSPost2010Prop43
 90
        3
102
RTVSPost2010PropOp43
 70
     1
102
RTVSPost2010Prop44ColorIndex
 90
        5
102
RTVSPost2010Prop44ColorRGB
 90
      255
102
RTVSPost2010PropOp44
 70
     1
102
RTVSPost2010Prop45
280
     0
102
RTVSPost2010PropOp45
 70
     1
102
RTVSPost2010Prop46
 90
       50
102
RTVSPost2010PropOp46
 70
     1
102
RTVSPost2010Prop47
 90
       50
102
RTVSPost2010PropOp47
 70
     1
102
RTVSPost2010Prop48
 90
       50
102
RTVSPost2010PropOp48
 70
     1
102
RTVSPost2010Prop49
280
     0
102
RTVSPost2010PropOp49
 70
     1
102
RTVSPost2010Prop50
 90
       50
102
RTVSPost2010PropOp50
 70
     1
102
RTVSPost2010Prop51ColorIndex
 90
      256
102
RTVSPost2010Prop51ColorRGB
 90
-16777216
102
RTVSPost2010PropOp51
 70
     0
102
RTVSPost2010Prop52
140
1.0
102
RTVSPost2010PropOp52
 70
     0
102
RTVSPost2010Prop53
 90
        2
102
RTVSPost2010PropOp53
 70
     1
102
RTVSPost2010Prop54
  1
strokes_ogs.tif
102
RTVSPost2010PropOp54
 70
     1
102
RTVSPost2010Prop55
280
     0
102
RTVSPost2010PropOp55
 70
     1
102
RTVSPost2010Prop56
140
1.0
102
RTVSPost2010PropOp56
 70
     1
102
RTVSPost2010Prop57
140
1.0
102
RTVSPost2010PropOp57
 70
     1
  0
XRECORD
  5
1A97
102
{ACAD_REACTORS
330
1A96
102
}
330
1A96
100
AcDbXrecord
280
     1
102
RTVSPost2010Prop28
280
     0
102
RTVSPost2010PropOp28
 70
     1
102
RTVSPost2010Prop29
280
     1
102
RTVSPost2010PropOp29
 70
     1
102
RTVSPost2010Prop30
280
     1
102
RTVSPost2010PropOp30
 70
     1
102
RTVSPost2010Prop31
280
     0
102
RTVSPost2010PropOp31
 70
     1
102
RTVSPost2010Prop32
280
     0
102
RTVSPost2010PropOp32
 70
     1
102
RTVSPost2010Prop33
280
     0
102
RTVSPost2010PropOp33
 70
     1
102
RTVSPost2010Prop34
280
     0
102
RTVSPost2010PropOp34
 70
     1
102
RTVSPost2010Prop35
280
     0
102
RTVSPost2010PropOp35
 70
     1
102
RTVSPost2010Prop36
280
     0
102
RTVSPost2010PropOp36
 70
     1
102
RTVSPost2010Prop37
 90
       50
102
RTVSPost2010PropOp37
 70
     1
102
RTVSPost2010Prop38
140
0.0
102
RTVSPost2010PropOp38
 70
     1
102
RTVSPost2010Prop39
140
1.0
102
RTVSPost2010PropOp39
 70
     1
102
RTVSPost2010Prop40
 90
        0
102
RTVSPost2010PropOp40
 70
     1
102
RTVSPost2010Prop41ColorIndex
 90
       18
102
RTVSPost2010Prop41ColorRGB
 90
        0
102
RTVSPost2010PropOp41
 70
     1
102
RTVSPost2010Prop42
 90
       50
102
RTVSPost2010PropOp42
 70
     1
102
RTVSPost2010Prop43
 90
        3
102
RTVSPost2010PropOp43
 70
     1
102
RTVSPost2010Prop44ColorIndex
 90
        5
102
RTVSPost2010Prop44ColorRGB
 90
      255
102
RTVSPost2010PropOp44
 70
     1
102
RTVSPost2010Prop45
280
     0
102
RTVSPost2010PropOp45
 70
     1
102
RTVSPost2010Prop46
 90
       50
102
RTVSPost2010PropOp46
 70
     1
102
RTVSPost2010Prop47
 90
       50
102
RTVSPost2010PropOp47
 70
     1
102
RTVSPost2010Prop48
 90
       50
102
RTVSPost2010PropOp48
 70
     1
102
RTVSPost2010Prop49
280
     0
102
RTVSPost2010PropOp49
 70
     1
102
RTVSPost2010Prop50
 90
       50
102
RTVSPost2010PropOp50
 70
     1
102
RTVSPost2010Prop51ColorIndex
 90
      256
102
RTVSPost2010Prop51ColorRGB
 90
-16777216
102
RTVSPost2010PropOp51
 70
     0
102
RTVSPost2010Prop52
140
1.0
102
RTVSPost2010PropOp52
 70
     0
102
RTVSPost2010Prop53
 90
        2
102
RTVSPost2010PropOp53
 70
     1
102
RTVSPost2010Prop54
  1
strokes_ogs.tif
102
RTVSPost2010PropOp54
 70
     1
102
RTVSPost2010Prop55
280
     0
102
RTVSPost2010PropOp55
 70
     1
102
RTVSPost2010Prop56
140
1.0
102
RTVSPost2010PropOp56
 70
     1
102
RTVSPost2010Prop57
140
1.0
102
RTVSPost2010PropOp57
 70
     1
  0
XRECORD
  5
1A8B
102
{ACAD_REACTORS
330
1A8A
102
}
330
1A8A
100
AcDbXrecord
280
     1
102
RTVSPost2010Prop28
280
     0
102
RTVSPost2010PropOp28
 70
     1
102
RTVSPost2010Prop29
280
     1
102
RTVSPost2010PropOp29
 70
     1
102
RTVSPost2010Prop30
280
     1
102
RTVSPost2010PropOp30
 70
     1
102
RTVSPost2010Prop31
280
     0
102
RTVSPost2010PropOp31
 70
     1
102
RTVSPost2010Prop32
280
     0
102
RTVSPost2010PropOp32
 70
     1
102
RTVSPost2010Prop33
280
     0
102
RTVSPost2010PropOp33
 70
     1
102
RTVSPost2010Prop34
280
     0
102
RTVSPost2010PropOp34
 70
     1
102
RTVSPost2010Prop35
280
     0
102
RTVSPost2010PropOp35
 70
     1
102
RTVSPost2010Prop36
280
     0
102
RTVSPost2010PropOp36
 70
     1
102
RTVSPost2010Prop37
 90
       50
102
RTVSPost2010PropOp37
 70
     1
102
RTVSPost2010Prop38
140
0.0
102
RTVSPost2010PropOp38
 70
     1
102
RTVSPost2010Prop39
140
1.0
102
RTVSPost2010PropOp39
 70
     1
102
RTVSPost2010Prop40
 90
        0
102
RTVSPost2010PropOp40
 70
     1
102
RTVSPost2010Prop41ColorIndex
 90
       18
102
RTVSPost2010Prop41ColorRGB
 90
        0
102
RTVSPost2010PropOp41
 70
     1
102
RTVSPost2010Prop42
 90
       50
102
RTVSPost2010PropOp42
 70
     1
102
RTVSPost2010Prop43
 90
        3
102
RTVSPost2010PropOp43
 70
     1
102
RTVSPost2010Prop44ColorIndex
 90
        5
102
RTVSPost2010Prop44ColorRGB
 90
      255
102
RTVSPost2010PropOp44
 70
     1
102
RTVSPost2010Prop45
280
     0
102
RTVSPost2010PropOp45
 70
     1
102
RTVSPost2010Prop46
 90
       50
102
RTVSPost2010PropOp46
 70
     1
102
RTVSPost2010Prop47
 90
       50
102
RTVSPost2010PropOp47
 70
     1
102
RTVSPost2010Prop48
 90
       50
102
RTVSPost2010PropOp48
 70
     1
102
RTVSPost2010Prop49
280
     0
102
RTVSPost2010PropOp49
 70
     1
102
RTVSPost2010Prop50
 90
       50
102
RTVSPost2010PropOp50
 70
     1
102
RTVSPost2010Prop51ColorIndex
 90
      256
102
RTVSPost2010Prop51ColorRGB
 90
-16777216
102
RTVSPost2010PropOp51
 70
     0
102
RTVSPost2010Prop52
140
1.0
102
RTVSPost2010PropOp52
 70
     0
102
RTVSPost2010Prop53
 90
        2
102
RTVSPost2010PropOp53
 70
     1
102
RTVSPost2010Prop54
  1
strokes_ogs.tif
102
RTVSPost2010PropOp54
 70
     1
102
RTVSPost2010Prop55
280
     0
102
RTVSPost2010PropOp55
 70
     1
102
RTVSPost2010Prop56
140
1.0
102
RTVSPost2010PropOp56
 70
     1
102
RTVSPost2010Prop57
140
1.0
102
RTVSPost2010PropOp57
 70
     1
  0
XRECORD
  5
1A8D
102
{ACAD_REACTORS
330
1A8C
102
}
330
1A8C
100
AcDbXrecord
280
     1
102
RTVSPost2010Prop28
280
     0
102
RTVSPost2010PropOp28
 70
     1
102
RTVSPost2010Prop29
280
     1
102
RTVSPost2010PropOp29
 70
     1
102
RTVSPost2010Prop30
280
     1
102
RTVSPost2010PropOp30
 70
     1
102
RTVSPost2010Prop31
280
     0
102
RTVSPost2010PropOp31
 70
     1
102
RTVSPost2010Prop32
280
     0
102
RTVSPost2010PropOp32
 70
     1
102
RTVSPost2010Prop33
280
     0
102
RTVSPost2010PropOp33
 70
     1
102
RTVSPost2010Prop34
280
     0
102
RTVSPost2010PropOp34
 70
     1
102
RTVSPost2010Prop35
280
     0
102
RTVSPost2010PropOp35
 70
     1
102
RTVSPost2010Prop36
280
     0
102
RTVSPost2010PropOp36
 70
     1
102
RTVSPost2010Prop37
 90
       50
102
RTVSPost2010PropOp37
 70
     1
102
RTVSPost2010Prop38
140
0.0
102
RTVSPost2010PropOp38
 70
     1
102
RTVSPost2010Prop39
140
1.0
102
RTVSPost2010PropOp39
 70
     1
102
RTVSPost2010Prop40
 90
        0
102
RTVSPost2010PropOp40
 70
     1
102
RTVSPost2010Prop41ColorIndex
 90
       18
102
RTVSPost2010Prop41ColorRGB
 90
        0
102
RTVSPost2010PropOp41
 70
     1
102
RTVSPost2010Prop42
 90
       50
102
RTVSPost2010PropOp42
 70
     1
102
RTVSPost2010Prop43
 90
        3
102
RTVSPost2010PropOp43
 70
     1
102
RTVSPost2010Prop44ColorIndex
 90
        5
102
RTVSPost2010Prop44ColorRGB
 90
      255
102
RTVSPost2010PropOp44
 70
     1
102
RTVSPost2010Prop45
280
     0
102
RTVSPost2010PropOp45
 70
     1
102
RTVSPost2010Prop46
 90
       50
102
RTVSPost2010PropOp46
 70
     1
102
RTVSPost2010Prop47
 90
       50
102
RTVSPost2010PropOp47
 70
     1
102
RTVSPost2010Prop48
 90
       50
102
RTVSPost2010PropOp48
 70
     1
102
RTVSPost2010Prop49
280
     0
102
RTVSPost2010PropOp49
 70
     1
102
RTVSPost2010Prop50
 90
       50
102
RTVSPost2010PropOp50
 70
     1
102
RTVSPost2010Prop51ColorIndex
 90
      256
102
RTVSPost2010Prop51ColorRGB
 90
-16777216
102
RTVSPost2010PropOp51
 70
     0
102
RTVSPost2010Prop52
140
1.0
102
RTVSPost2010PropOp52
 70
     0
102
RTVSPost2010Prop53
 90
        2
102
RTVSPost2010PropOp53
 70
     1
102
RTVSPost2010Prop54
  1
strokes_ogs.tif
102
RTVSPost2010PropOp54
 70
     1
102
RTVSPost2010Prop55
280
     0
102
RTVSPost2010PropOp55
 70
     1
102
RTVSPost2010Prop56
140
1.0
102
RTVSPost2010PropOp56
 70
     1
102
RTVSPost2010Prop57
140
1.0
102
RTVSPost2010PropOp57
 70
     1
  0
XRECORD
  5
1A9D
102
{ACAD_REACTORS
330
1A9C
102
}
330
1A9C
100
AcDbXrecord
280
     1
102
RTVSPost2010Prop28
280
     0
102
RTVSPost2010PropOp28
 70
     0
102
RTVSPost2010Prop29
280
     1
102
RTVSPost2010PropOp29
 70
     0
102
RTVSPost2010Prop30
280
     1
102
RTVSPost2010PropOp30
 70
     0
102
RTVSPost2010Prop31
280
     0
102
RTVSPost2010PropOp31
 70
     0
102
RTVSPost2010Prop32
280
     0
102
RTVSPost2010PropOp32
 70
     0
102
RTVSPost2010Prop33
280
     0
102
RTVSPost2010PropOp33
 70
     0
102
RTVSPost2010Prop34
280
     0
102
RTVSPost2010PropOp34
 70
     0
102
RTVSPost2010Prop35
280
     0
102
RTVSPost2010PropOp35
 70
     0
102
RTVSPost2010Prop36
280
     0
102
RTVSPost2010PropOp36
 70
     0
102
RTVSPost2010Prop37
 90
       50
102
RTVSPost2010PropOp37
 70
     0
102
RTVSPost2010Prop38
140
0.0
102
RTVSPost2010PropOp38
 70
     0
102
RTVSPost2010Prop39
140
1.0
102
RTVSPost2010PropOp39
 70
     0
102
RTVSPost2010Prop40
 90
        0
102
RTVSPost2010PropOp40
 70
     0
102
RTVSPost2010Prop41ColorIndex
 90
       18
102
RTVSPost2010Prop41ColorRGB
 90
        0
102
RTVSPost2010PropOp41
 70
     0
102
RTVSPost2010Prop42
 90
       50
102
RTVSPost2010PropOp42
 70
     0
102
RTVSPost2010Prop43
 90
        3
102
RTVSPost2010PropOp43
 70
     0
102
RTVSPost2010Prop44ColorIndex
 90
        5
102
RTVSPost2010Prop44ColorRGB
 90
      255
102
RTVSPost2010PropOp44
 70
     0
102
RTVSPost2010Prop45
280
     0
102
RTVSPost2010PropOp45
 70
     0
102
RTVSPost2010Prop46
 90
       50
102
RTVSPost2010PropOp46
 70
     0
102
RTVSPost2010Prop47
 90
       50
102
RTVSPost2010PropOp47
 70
     0
102
RTVSPost2010Prop48
 90
       50
102
RTVSPost2010PropOp48
 70
     0
102
RTVSPost2010Prop49
280
     0
102
RTVSPost2010PropOp49
 70
     0
102
RTVSPost2010Prop50
 90
       50
102
RTVSPost2010PropOp50
 70
     0
102
RTVSPost2010Prop51ColorIndex
 90
      256
102
RTVSPost2010Prop51ColorRGB
 90
-16777216
102
RTVSPost2010PropOp51
 70
     0
102
RTVSPost2010Prop52
140
1.0
102
RTVSPost2010PropOp52
 70
     0
102
RTVSPost2010Prop53
 90
        2
102
RTVSPost2010PropOp53
 70
     0
102
RTVSPost2010Prop54
  1
strokes_ogs.tif
102
RTVSPost2010PropOp54
 70
     0
102
RTVSPost2010Prop55
280
     0
102
RTVSPost2010PropOp55
 70
     0
102
RTVSPost2010Prop56
140
1.0
102
RTVSPost2010PropOp56
 70
     0
102
RTVSPost2010Prop57
140
1.0
102
RTVSPost2010PropOp57
 70
     0
  0
XRECORD
  5
1A95
102
{ACAD_REACTORS
330
1A94
102
}
330
1A94
100
AcDbXrecord
280
     1
102
RTVSPost2010Prop28
280
     0
102
RTVSPost2010PropOp28
 70
     1
102
RTVSPost2010Prop29
280
     1
102
RTVSPost2010PropOp29
 70
     1
102
RTVSPost2010Prop30
280
     1
102
RTVSPost2010PropOp30
 70
     1
102
RTVSPost2010Prop31
280
     0
102
RTVSPost2010PropOp31
 70
     1
102
RTVSPost2010Prop32
280
     0
102
RTVSPost2010PropOp32
 70
     1
102
RTVSPost2010Prop33
280
     0
102
RTVSPost2010PropOp33
 70
     1
102
RTVSPost2010Prop34
280
     0
102
RTVSPost2010PropOp34
 70
     1
102
RTVSPost2010Prop35
280
     0
102
RTVSPost2010PropOp35
 70
     1
102
RTVSPost2010Prop36
280
     0
102
RTVSPost2010PropOp36
 70
     1
102
RTVSPost2010Prop37
 90
       50
102
RTVSPost2010PropOp37
 70
     1
102
RTVSPost2010Prop38
140
0.0
102
RTVSPost2010PropOp38
 70
     1
102
RTVSPost2010Prop39
140
1.0
102
RTVSPost2010PropOp39
 70
     1
102
RTVSPost2010Prop40
 90
        0
102
RTVSPost2010PropOp40
 70
     1
102
RTVSPost2010Prop41ColorIndex
 90
       18
102
RTVSPost2010Prop41ColorRGB
 90
        0
102
RTVSPost2010PropOp41
 70
     1
102
RTVSPost2010Prop42
 90
       50
102
RTVSPost2010PropOp42
 70
     1
102
RTVSPost2010Prop43
 90
        3
102
RTVSPost2010PropOp43
 70
     1
102
RTVSPost2010Prop44ColorIndex
 90
        5
102
RTVSPost2010Prop44ColorRGB
 90
      255
102
RTVSPost2010PropOp44
 70
     1
102
RTVSPost2010Prop45
280
     0
102
RTVSPost2010PropOp45
 70
     1
102
RTVSPost2010Prop46
 90
       50
102
RTVSPost2010PropOp46
 70
     1
102
RTVSPost2010Prop47
 90
       50
102
RTVSPost2010PropOp47
 70
     1
102
RTVSPost2010Prop48
 90
       50
102
RTVSPost2010PropOp48
 70
     1
102
RTVSPost2010Prop49
280
     0
102
RTVSPost2010PropOp49
 70
     1
102
RTVSPost2010Prop50
 90
       50
102
RTVSPost2010PropOp50
 70
     1
102
RTVSPost2010Prop51ColorIndex
 90
      256
102
RTVSPost2010Prop51ColorRGB
 90
-16777216
102
RTVSPost2010PropOp51
 70
     0
102
RTVSPost2010Prop52
140
1.0
102
RTVSPost2010PropOp52
 70
     0
102
RTVSPost2010Prop53
 90
        2
102
RTVSPost2010PropOp53
 70
     1
102
RTVSPost2010Prop54
  1
strokes_ogs.tif
102
RTVSPost2010PropOp54
 70
     1
102
RTVSPost2010Prop55
280
     0
102
RTVSPost2010PropOp55
 70
     1
102
RTVSPost2010Prop56
140
1.0
102
RTVSPost2010PropOp56
 70
     1
102
RTVSPost2010Prop57
140
1.0
102
RTVSPost2010PropOp57
 70
     1
  0
XRECORD
  5
1A79
102
{ACAD_REACTORS
330
1A78
102
}
330
1A78
100
AcDbXrecord
280
     1
102
RTVSPost2010Prop28
280
     0
102
RTVSPost2010PropOp28
 70
     1
102
RTVSPost2010Prop29
280
     1
102
RTVSPost2010PropOp29
 70
     1
102
RTVSPost2010Prop30
280
     1
102
RTVSPost2010PropOp30
 70
     1
102
RTVSPost2010Prop31
280
     0
102
RTVSPost2010PropOp31
 70
     1
102
RTVSPost2010Prop32
280
     0
102
RTVSPost2010PropOp32
 70
     1
102
RTVSPost2010Prop33
280
     0
102
RTVSPost2010PropOp33
 70
     1
102
RTVSPost2010Prop34
280
     0
102
RTVSPost2010PropOp34
 70
     1
102
RTVSPost2010Prop35
280
     0
102
RTVSPost2010PropOp35
 70
     1
102
RTVSPost2010Prop36
280
     0
102
RTVSPost2010PropOp36
 70
     1
102
RTVSPost2010Prop37
 90
       50
102
RTVSPost2010PropOp37
 70
     1
102
RTVSPost2010Prop38
140
0.0
102
RTVSPost2010PropOp38
 70
     1
102
RTVSPost2010Prop39
140
1.0
102
RTVSPost2010PropOp39
 70
     1
102
RTVSPost2010Prop40
 90
        0
102
RTVSPost2010PropOp40
 70
     1
102
RTVSPost2010Prop41ColorIndex
 90
       18
102
RTVSPost2010Prop41ColorRGB
 90
        0
102
RTVSPost2010PropOp41
 70
     1
102
RTVSPost2010Prop42
 90
       50
102
RTVSPost2010PropOp42
 70
     1
102
RTVSPost2010Prop43
 90
        3
102
RTVSPost2010PropOp43
 70
     1
102
RTVSPost2010Prop44ColorIndex
 90
        5
102
RTVSPost2010Prop44ColorRGB
 90
      255
102
RTVSPost2010PropOp44
 70
     1
102
RTVSPost2010Prop45
280
     0
102
RTVSPost2010PropOp45
 70
     1
102
RTVSPost2010Prop46
 90
       50
102
RTVSPost2010PropOp46
 70
     1
102
RTVSPost2010Prop47
 90
       50
102
RTVSPost2010PropOp47
 70
     1
102
RTVSPost2010Prop48
 90
       50
102
RTVSPost2010PropOp48
 70
     1
102
RTVSPost2010Prop49
280
     0
102
RTVSPost2010PropOp49
 70
     1
102
RTVSPost2010Prop50
 90
       50
102
RTVSPost2010PropOp50
 70
     1
102
RTVSPost2010Prop51ColorIndex
 90
      256
102
RTVSPost2010Prop51ColorRGB
 90
-16777216
102
RTVSPost2010PropOp51
 70
     0
102
RTVSPost2010Prop52
140
1.0
102
RTVSPost2010PropOp52
 70
     0
102
RTVSPost2010Prop53
 90
        2
102
RTVSPost2010PropOp53
 70
     1
102
RTVSPost2010Prop54
  1
strokes_ogs.tif
102
RTVSPost2010PropOp54
 70
     1
102
RTVSPost2010Prop55
280
     0
102
RTVSPost2010PropOp55
 70
     1
102
RTVSPost2010Prop56
140
1.0
102
RTVSPost2010PropOp56
 70
     1
102
RTVSPost2010Prop57
140
1.0
102
RTVSPost2010PropOp57
 70
     1
  0
XRECORD
  5
1A7B
102
{ACAD_REACTORS
330
1A7A
102
}
330
1A7A
100
AcDbXrecord
280
     1
102
RTVSPost2010Prop28
280
     0
102
RTVSPost2010PropOp28
 70
     1
102
RTVSPost2010Prop29
280
     1
102
RTVSPost2010PropOp29
 70
     1
102
RTVSPost2010Prop30
280
     1
102
RTVSPost2010PropOp30
 70
     1
102
RTVSPost2010Prop31
280
     0
102
RTVSPost2010PropOp31
 70
     1
102
RTVSPost2010Prop32
280
     0
102
RTVSPost2010PropOp32
 70
     1
102
RTVSPost2010Prop33
280
     0
102
RTVSPost2010PropOp33
 70
     1
102
RTVSPost2010Prop34
280
     0
102
RTVSPost2010PropOp34
 70
     1
102
RTVSPost2010Prop35
280
     0
102
RTVSPost2010PropOp35
 70
     1
102
RTVSPost2010Prop36
280
     0
102
RTVSPost2010PropOp36
 70
     1
102
RTVSPost2010Prop37
 90
       50
102
RTVSPost2010PropOp37
 70
     1
102
RTVSPost2010Prop38
140
0.0
102
RTVSPost2010PropOp38
 70
     1
102
RTVSPost2010Prop39
140
1.0
102
RTVSPost2010PropOp39
 70
     1
102
RTVSPost2010Prop40
 90
        0
102
RTVSPost2010PropOp40
 70
     1
102
RTVSPost2010Prop41ColorIndex
 90
       18
102
RTVSPost2010Prop41ColorRGB
 90
        0
102
RTVSPost2010PropOp41
 70
     1
102
RTVSPost2010Prop42
 90
       50
102
RTVSPost2010PropOp42
 70
     1
102
RTVSPost2010Prop43
 90
        3
102
RTVSPost2010PropOp43
 70
     1
102
RTVSPost2010Prop44ColorIndex
 90
        5
102
RTVSPost2010Prop44ColorRGB
 90
      255
102
RTVSPost2010PropOp44
 70
     1
102
RTVSPost2010Prop45
280
     0
102
RTVSPost2010PropOp45
 70
     1
102
RTVSPost2010Prop46
 90
       50
102
RTVSPost2010PropOp46
 70
     1
102
RTVSPost2010Prop47
 90
       50
102
RTVSPost2010PropOp47
 70
     1
102
RTVSPost2010Prop48
 90
       50
102
RTVSPost2010PropOp48
 70
     1
102
RTVSPost2010Prop49
280
     0
102
RTVSPost2010PropOp49
 70
     1
102
RTVSPost2010Prop50
 90
       50
102
RTVSPost2010PropOp50
 70
     1
102
RTVSPost2010Prop51ColorIndex
 90
      256
102
RTVSPost2010Prop51ColorRGB
 90
-16777216
102
RTVSPost2010PropOp51
 70
     0
102
RTVSPost2010Prop52
140
1.0
102
RTVSPost2010PropOp52
 70
     0
102
RTVSPost2010Prop53
 90
        2
102
RTVSPost2010PropOp53
 70
     1
102
RTVSPost2010Prop54
  1
strokes_ogs.tif
102
RTVSPost2010PropOp54
 70
     1
102
RTVSPost2010Prop55
280
     0
102
RTVSPost2010PropOp55
 70
     1
102
RTVSPost2010Prop56
140
1.0
102
RTVSPost2010PropOp56
 70
     1
102
RTVSPost2010Prop57
140
1.0
102
RTVSPost2010PropOp57
 70
     1
  0
XRECORD
  5
1A7D
102
{ACAD_REACTORS
330
1A7C
102
}
330
1A7C
100
AcDbXrecord
280
     1
102
RTVSPost2010Prop28
280
     0
102
RTVSPost2010PropOp28
 70
     1
102
RTVSPost2010Prop29
280
     1
102
RTVSPost2010PropOp29
 70
     1
102
RTVSPost2010Prop30
280
     1
102
RTVSPost2010PropOp30
 70
     1
102
RTVSPost2010Prop31
280
     0
102
RTVSPost2010PropOp31
 70
     1
102
RTVSPost2010Prop32
280
     0
102
RTVSPost2010PropOp32
 70
     1
102
RTVSPost2010Prop33
280
     0
102
RTVSPost2010PropOp33
 70
     1
102
RTVSPost2010Prop34
280
     0
102
RTVSPost2010PropOp34
 70
     1
102
RTVSPost2010Prop35
280
     0
102
RTVSPost2010PropOp35
 70
     1
102
RTVSPost2010Prop36
280
     0
102
RTVSPost2010PropOp36
 70
     1
102
RTVSPost2010Prop37
 90
       50
102
RTVSPost2010PropOp37
 70
     1
102
RTVSPost2010Prop38
140
0.0
102
RTVSPost2010PropOp38
 70
     1
102
RTVSPost2010Prop39
140
1.0
102
RTVSPost2010PropOp39
 70
     1
102
RTVSPost2010Prop40
 90
        0
102
RTVSPost2010PropOp40
 70
     1
102
RTVSPost2010Prop41ColorIndex
 90
       18
102
RTVSPost2010Prop41ColorRGB
 90
        0
102
RTVSPost2010PropOp41
 70
     1
102
RTVSPost2010Prop42
 90
       50
102
RTVSPost2010PropOp42
 70
     1
102
RTVSPost2010Prop43
 90
        3
102
RTVSPost2010PropOp43
 70
     1
102
RTVSPost2010Prop44ColorIndex
 90
        5
102
RTVSPost2010Prop44ColorRGB
 90
      255
102
RTVSPost2010PropOp44
 70
     1
102
RTVSPost2010Prop45
280
     0
102
RTVSPost2010PropOp45
 70
     1
102
RTVSPost2010Prop46
 90
       50
102
RTVSPost2010PropOp46
 70
     1
102
RTVSPost2010Prop47
 90
       50
102
RTVSPost2010PropOp47
 70
     1
102
RTVSPost2010Prop48
 90
       50
102
RTVSPost2010PropOp48
 70
     1
102
RTVSPost2010Prop49
280
     0
102
RTVSPost2010PropOp49
 70
     1
102
RTVSPost2010Prop50
 90
       50
102
RTVSPost2010PropOp50
 70
     1
102
RTVSPost2010Prop51ColorIndex
 90
      256
102
RTVSPost2010Prop51ColorRGB
 90
-16777216
102
RTVSPost2010PropOp51
 70
     0
102
RTVSPost2010Prop52
140
1.0
102
RTVSPost2010PropOp52
 70
     0
102
RTVSPost2010Prop53
 90
        2
102
RTVSPost2010PropOp53
 70
     1
102
RTVSPost2010Prop54
  1
strokes_ogs.tif
102
RTVSPost2010PropOp54
 70
     1
102
RTVSPost2010Prop55
280
     0
102
RTVSPost2010PropOp55
 70
     1
102
RTVSPost2010Prop56
140
1.0
102
RTVSPost2010PropOp56
 70
     1
102
RTVSPost2010Prop57
140
1.0
102
RTVSPost2010PropOp57
 70
     1
  0
XRECORD
  5
1A7F
102
{ACAD_REACTORS
330
1A7E
102
}
330
1A7E
100
AcDbXrecord
280
     1
102
RTVSPost2010Prop28
280
     0
102
RTVSPost2010PropOp28
 70
     1
102
RTVSPost2010Prop29
280
     1
102
RTVSPost2010PropOp29
 70
     1
102
RTVSPost2010Prop30
280
     1
102
RTVSPost2010PropOp30
 70
     1
102
RTVSPost2010Prop31
280
     0
102
RTVSPost2010PropOp31
 70
     1
102
RTVSPost2010Prop32
280
     0
102
RTVSPost2010PropOp32
 70
     1
102
RTVSPost2010Prop33
280
     0
102
RTVSPost2010PropOp33
 70
     1
102
RTVSPost2010Prop34
280
     0
102
RTVSPost2010PropOp34
 70
     1
102
RTVSPost2010Prop35
280
     0
102
RTVSPost2010PropOp35
 70
     1
102
RTVSPost2010Prop36
280
     0
102
RTVSPost2010PropOp36
 70
     1
102
RTVSPost2010Prop37
 90
       50
102
RTVSPost2010PropOp37
 70
     1
102
RTVSPost2010Prop38
140
0.0
102
RTVSPost2010PropOp38
 70
     1
102
RTVSPost2010Prop39
140
1.0
102
RTVSPost2010PropOp39
 70
     1
102
RTVSPost2010Prop40
 90
        0
102
RTVSPost2010PropOp40
 70
     1
102
RTVSPost2010Prop41ColorIndex
 90
       18
102
RTVSPost2010Prop41ColorRGB
 90
        0
102
RTVSPost2010PropOp41
 70
     1
102
RTVSPost2010Prop42
 90
       50
102
RTVSPost2010PropOp42
 70
     1
102
RTVSPost2010Prop43
 90
        3
102
RTVSPost2010PropOp43
 70
     1
102
RTVSPost2010Prop44ColorIndex
 90
        5
102
RTVSPost2010Prop44ColorRGB
 90
      255
102
RTVSPost2010PropOp44
 70
     1
102
RTVSPost2010Prop45
280
     0
102
RTVSPost2010PropOp45
 70
     1
102
RTVSPost2010Prop46
 90
       50
102
RTVSPost2010PropOp46
 70
     1
102
RTVSPost2010Prop47
 90
       50
102
RTVSPost2010PropOp47
 70
     1
102
RTVSPost2010Prop48
 90
       50
102
RTVSPost2010PropOp48
 70
     1
102
RTVSPost2010Prop49
280
     0
102
RTVSPost2010PropOp49
 70
     1
102
RTVSPost2010Prop50
 90
       50
102
RTVSPost2010PropOp50
 70
     1
102
RTVSPost2010Prop51ColorIndex
 90
      256
102
RTVSPost2010Prop51ColorRGB
 90
-16777216
102
RTVSPost2010PropOp51
 70
     0
102
RTVSPost2010Prop52
140
1.0
102
RTVSPost2010PropOp52
 70
     0
102
RTVSPost2010Prop53
 90
        2
102
RTVSPost2010PropOp53
 70
     1
102
RTVSPost2010Prop54
  1
strokes_ogs.tif
102
RTVSPost2010PropOp54
 70
     1
102
RTVSPost2010Prop55
280
     0
102
RTVSPost2010PropOp55
 70
     1
102
RTVSPost2010Prop56
140
1.0
102
RTVSPost2010PropOp56
 70
     1
102
RTVSPost2010Prop57
140
1.0
102
RTVSPost2010PropOp57
 70
     1
  0
XRECORD
  5
1A85
102
{ACAD_REACTORS
330
1A84
102
}
330
1A84
100
AcDbXrecord
280
     1
102
RTVSPost2010Prop28
280
     0
102
RTVSPost2010PropOp28
 70
     1
102
RTVSPost2010Prop29
280
     1
102
RTVSPost2010PropOp29
 70
     1
102
RTVSPost2010Prop30
280
     1
102
RTVSPost2010PropOp30
 70
     1
102
RTVSPost2010Prop31
280
     0
102
RTVSPost2010PropOp31
 70
     1
102
RTVSPost2010Prop32
280
     0
102
RTVSPost2010PropOp32
 70
     1
102
RTVSPost2010Prop33
280
     0
102
RTVSPost2010PropOp33
 70
     1
102
RTVSPost2010Prop34
280
     0
102
RTVSPost2010PropOp34
 70
     1
102
RTVSPost2010Prop35
280
     0
102
RTVSPost2010PropOp35
 70
     1
102
RTVSPost2010Prop36
280
     0
102
RTVSPost2010PropOp36
 70
     1
102
RTVSPost2010Prop37
 90
       50
102
RTVSPost2010PropOp37
 70
     1
102
RTVSPost2010Prop38
140
0.0
102
RTVSPost2010PropOp38
 70
     1
102
RTVSPost2010Prop39
140
1.0
102
RTVSPost2010PropOp39
 70
     1
102
RTVSPost2010Prop40
 90
        0
102
RTVSPost2010PropOp40
 70
     1
102
RTVSPost2010Prop41ColorIndex
 90
       18
102
RTVSPost2010Prop41ColorRGB
 90
        0
102
RTVSPost2010PropOp41
 70
     1
102
RTVSPost2010Prop42
 90
       50
102
RTVSPost2010PropOp42
 70
     1
102
RTVSPost2010Prop43
 90
        3
102
RTVSPost2010PropOp43
 70
     1
102
RTVSPost2010Prop44ColorIndex
 90
        5
102
RTVSPost2010Prop44ColorRGB
 90
      255
102
RTVSPost2010PropOp44
 70
     1
102
RTVSPost2010Prop45
280
     0
102
RTVSPost2010PropOp45
 70
     1
102
RTVSPost2010Prop46
 90
       50
102
RTVSPost2010PropOp46
 70
     1
102
RTVSPost2010Prop47
 90
       50
102
RTVSPost2010PropOp47
 70
     1
102
RTVSPost2010Prop48
 90
       50
102
RTVSPost2010PropOp48
 70
     1
102
RTVSPost2010Prop49
280
     0
102
RTVSPost2010PropOp49
 70
     1
102
RTVSPost2010Prop50
 90
       50
102
RTVSPost2010PropOp50
 70
     1
102
RTVSPost2010Prop51ColorIndex
 90
      256
102
RTVSPost2010Prop51ColorRGB
 90
-16777216
102
RTVSPost2010PropOp51
 70
     0
102
RTVSPost2010Prop52
140
1.0
102
RTVSPost2010PropOp52
 70
     0
102
RTVSPost2010Prop53
 90
        2
102
RTVSPost2010PropOp53
 70
     1
102
RTVSPost2010Prop54
  1
strokes_ogs.tif
102
RTVSPost2010PropOp54
 70
     1
102
RTVSPost2010Prop55
280
     0
102
RTVSPost2010PropOp55
 70
     1
102
RTVSPost2010Prop56
140
1.0
102
RTVSPost2010PropOp56
 70
     1
102
RTVSPost2010Prop57
140
1.0
102
RTVSPost2010PropOp57
 70
     1
  0
XRECORD
  5
1A99
102
{ACAD_REACTORS
330
1A98
102
}
330
1A98
100
AcDbXrecord
280
     1
102
RTVSPost2010Prop28
280
     0
102
RTVSPost2010PropOp28
 70
     0
102
RTVSPost2010Prop29
280
     1
102
RTVSPost2010PropOp29
 70
     0
102
RTVSPost2010Prop30
280
     1
102
RTVSPost2010PropOp30
 70
     0
102
RTVSPost2010Prop31
280
     0
102
RTVSPost2010PropOp31
 70
     0
102
RTVSPost2010Prop32
280
     0
102
RTVSPost2010PropOp32
 70
     0
102
RTVSPost2010Prop33
280
     0
102
RTVSPost2010PropOp33
 70
     0
102
RTVSPost2010Prop34
280
     0
102
RTVSPost2010PropOp34
 70
     0
102
RTVSPost2010Prop35
280
     0
102
RTVSPost2010PropOp35
 70
     0
102
RTVSPost2010Prop36
280
     0
102
RTVSPost2010PropOp36
 70
     0
102
RTVSPost2010Prop37
 90
       50
102
RTVSPost2010PropOp37
 70
     0
102
RTVSPost2010Prop38
140
0.0
102
RTVSPost2010PropOp38
 70
     0
102
RTVSPost2010Prop39
140
1.0
102
RTVSPost2010PropOp39
 70
     0
102
RTVSPost2010Prop40
 90
        0
102
RTVSPost2010PropOp40
 70
     0
102
RTVSPost2010Prop41ColorIndex
 90
       18
102
RTVSPost2010Prop41ColorRGB
 90
        0
102
RTVSPost2010PropOp41
 70
     0
102
RTVSPost2010Prop42
 90
       50
102
RTVSPost2010PropOp42
 70
     0
102
RTVSPost2010Prop43
 90
        3
102
RTVSPost2010PropOp43
 70
     0
102
RTVSPost2010Prop44ColorIndex
 90
        5
102
RTVSPost2010Prop44ColorRGB
 90
      255
102
RTVSPost2010PropOp44
 70
     0
102
RTVSPost2010Prop45
280
     0
102
RTVSPost2010PropOp45
 70
     0
102
RTVSPost2010Prop46
 90
       50
102
RTVSPost2010PropOp46
 70
     0
102
RTVSPost2010Prop47
 90
       50
102
RTVSPost2010PropOp47
 70
     0
102
RTVSPost2010Prop48
 90
       50
102
RTVSPost2010PropOp48
 70
     0
102
RTVSPost2010Prop49
280
     0
102
RTVSPost2010PropOp49
 70
     0
102
RTVSPost2010Prop50
 90
       50
102
RTVSPost2010PropOp50
 70
     0
102
RTVSPost2010Prop51ColorIndex
 90
      256
102
RTVSPost2010Prop51ColorRGB
 90
-16777216
102
RTVSPost2010PropOp51
 70
     0
102
RTVSPost2010Prop52
140
1.0
102
RTVSPost2010PropOp52
 70
     0
102
RTVSPost2010Prop53
 90
        2
102
RTVSPost2010PropOp53
 70
     0
102
RTVSPost2010Prop54
  1
strokes_ogs.tif
102
RTVSPost2010PropOp54
 70
     0
102
RTVSPost2010Prop55
280
     0
102
RTVSPost2010PropOp55
 70
     0
102
RTVSPost2010Prop56
140
1.0
102
RTVSPost2010PropOp56
 70
     0
102
RTVSPost2010Prop57
140
1.0
102
RTVSPost2010PropOp57
 70
     0
  0
XRECORD
  5
1A93
102
{ACAD_REACTORS
330
1A92
102
}
330
1A92
100
AcDbXrecord
280
     1
102
RTVSPost2010Prop28
280
     0
102
RTVSPost2010PropOp28
 70
     1
102
RTVSPost2010Prop29
280
     1
102
RTVSPost2010PropOp29
 70
     1
102
RTVSPost2010Prop30
280
     1
102
RTVSPost2010PropOp30
 70
     1
102
RTVSPost2010Prop31
280
     0
102
RTVSPost2010PropOp31
 70
     1
102
RTVSPost2010Prop32
280
     0
102
RTVSPost2010PropOp32
 70
     1
102
RTVSPost2010Prop33
280
     0
102
RTVSPost2010PropOp33
 70
     1
102
RTVSPost2010Prop34
280
     0
102
RTVSPost2010PropOp34
 70
     1
102
RTVSPost2010Prop35
280
     0
102
RTVSPost2010PropOp35
 70
     1
102
RTVSPost2010Prop36
280
     0
102
RTVSPost2010PropOp36
 70
     1
102
RTVSPost2010Prop37
 90
       50
102
RTVSPost2010PropOp37
 70
     1
102
RTVSPost2010Prop38
140
0.0
102
RTVSPost2010PropOp38
 70
     1
102
RTVSPost2010Prop39
140
1.0
102
RTVSPost2010PropOp39
 70
     1
102
RTVSPost2010Prop40
 90
        0
102
RTVSPost2010PropOp40
 70
     1
102
RTVSPost2010Prop41ColorIndex
 90
       18
102
RTVSPost2010Prop41ColorRGB
 90
        0
102
RTVSPost2010PropOp41
 70
     1
102
RTVSPost2010Prop42
 90
       50
102
RTVSPost2010PropOp42
 70
     1
102
RTVSPost2010Prop43
 90
        3
102
RTVSPost2010PropOp43
 70
     1
102
RTVSPost2010Prop44ColorIndex
 90
        5
102
RTVSPost2010Prop44ColorRGB
 90
      255
102
RTVSPost2010PropOp44
 70
     1
102
RTVSPost2010Prop45
280
     0
102
RTVSPost2010PropOp45
 70
     1
102
RTVSPost2010Prop46
 90
       50
102
RTVSPost2010PropOp46
 70
     1
102
RTVSPost2010Prop47
 90
       50
102
RTVSPost2010PropOp47
 70
     1
102
RTVSPost2010Prop48
 90
       50
102
RTVSPost2010PropOp48
 70
     1
102
RTVSPost2010Prop49
280
     0
102
RTVSPost2010PropOp49
 70
     1
102
RTVSPost2010Prop50
 90
       50
102
RTVSPost2010PropOp50
 70
     1
102
RTVSPost2010Prop51ColorIndex
 90
      256
102
RTVSPost2010Prop51ColorRGB
 90
-16777216
102
RTVSPost2010PropOp51
 70
     0
102
RTVSPost2010Prop52
140
1.0
102
RTVSPost2010PropOp52
 70
     0
102
RTVSPost2010Prop53
 90
        2
102
RTVSPost2010PropOp53
 70
     1
102
RTVSPost2010Prop54
  1
strokes_ogs.tif
102
RTVSPost2010PropOp54
 70
     1
102
RTVSPost2010Prop55
280
     0
102
RTVSPost2010PropOp55
 70
     1
102
RTVSPost2010Prop56
140
1.0
102
RTVSPost2010PropOp56
 70
     1
102
RTVSPost2010Prop57
140
1.0
102
RTVSPost2010PropOp57
 70
     1
  0
XRECORD
  5
1AA9
102
{ACAD_REACTORS
330
1AA8
102
}
330
1AA8
100
AcDbXrecord
280
     1
102
RTVSPost2010Prop28
280
     0
102
RTVSPost2010PropOp28
 70
     1
102
RTVSPost2010Prop29
280
     1
102
RTVSPost2010PropOp29
 70
     1
102
RTVSPost2010Prop30
280
     1
102
RTVSPost2010PropOp30
 70
     1
102
RTVSPost2010Prop31
280
     0
102
RTVSPost2010PropOp31
 70
     1
102
RTVSPost2010Prop32
280
     0
102
RTVSPost2010PropOp32
 70
     1
102
RTVSPost2010Prop33
280
     0
102
RTVSPost2010PropOp33
 70
     1
102
RTVSPost2010Prop34
280
     0
102
RTVSPost2010PropOp34
 70
     1
102
RTVSPost2010Prop35
280
     0
102
RTVSPost2010PropOp35
 70
     1
102
RTVSPost2010Prop36
280
     0
102
RTVSPost2010PropOp36
 70
     1
102
RTVSPost2010Prop37
 90
       50
102
RTVSPost2010PropOp37
 70
     1
102
RTVSPost2010Prop38
140
0.0
102
RTVSPost2010PropOp38
 70
     1
102
RTVSPost2010Prop39
140
1.0
102
RTVSPost2010PropOp39
 70
     1
102
RTVSPost2010Prop40
 90
        0
102
RTVSPost2010PropOp40
 70
     1
102
RTVSPost2010Prop41ColorIndex
 90
       18
102
RTVSPost2010Prop41ColorRGB
 90
        0
102
RTVSPost2010PropOp41
 70
     1
102
RTVSPost2010Prop42
 90
       50
102
RTVSPost2010PropOp42
 70
     1
102
RTVSPost2010Prop43
 90
        3
102
RTVSPost2010PropOp43
 70
     1
102
RTVSPost2010Prop44ColorIndex
 90
        5
102
RTVSPost2010Prop44ColorRGB
 90
      255
102
RTVSPost2010PropOp44
 70
     1
102
RTVSPost2010Prop45
280
     0
102
RTVSPost2010PropOp45
 70
     1
102
RTVSPost2010Prop46
 90
       50
102
RTVSPost2010PropOp46
 70
     1
102
RTVSPost2010Prop47
 90
       50
102
RTVSPost2010PropOp47
 70
     1
102
RTVSPost2010Prop48
 90
       50
102
RTVSPost2010PropOp48
 70
     1
102
RTVSPost2010Prop49
280
     0
102
RTVSPost2010PropOp49
 70
     1
102
RTVSPost2010Prop50
 90
       50
102
RTVSPost2010PropOp50
 70
     1
102
RTVSPost2010Prop51ColorIndex
 90
      256
102
RTVSPost2010Prop51ColorRGB
 90
-16777216
102
RTVSPost2010PropOp51
 70
     0
102
RTVSPost2010Prop52
140
1.0
102
RTVSPost2010PropOp52
 70
     0
102
RTVSPost2010Prop53
 90
        2
102
RTVSPost2010PropOp53
 70
     1
102
RTVSPost2010Prop54
  1
strokes_ogs.tif
102
RTVSPost2010PropOp54
 70
     1
102
RTVSPost2010Prop55
280
     0
102
RTVSPost2010PropOp55
 70
     1
102
RTVSPost2010Prop56
140
1.0
102
RTVSPost2010PropOp56
 70
     1
102
RTVSPost2010Prop57
140
1.0
102
RTVSPost2010PropOp57
 70
     1
  0
XRECORD
  5
1A9B
102
{ACAD_REACTORS
330
1A9A
102
}
330
1A9A
100
AcDbXrecord
280
     1
102
RTVSPost2010Prop28
280
     0
102
RTVSPost2010PropOp28
 70
     0
102
RTVSPost2010Prop29
280
     1
102
RTVSPost2010PropOp29
 70
     0
102
RTVSPost2010Prop30
280
     1
102
RTVSPost2010PropOp30
 70
     0
102
RTVSPost2010Prop31
280
     0
102
RTVSPost2010PropOp31
 70
     0
102
RTVSPost2010Prop32
280
     0
102
RTVSPost2010PropOp32
 70
     0
102
RTVSPost2010Prop33
280
     0
102
RTVSPost2010PropOp33
 70
     0
102
RTVSPost2010Prop34
280
     0
102
RTVSPost2010PropOp34
 70
     0
102
RTVSPost2010Prop35
280
     0
102
RTVSPost2010PropOp35
 70
     0
102
RTVSPost2010Prop36
280
     0
102
RTVSPost2010PropOp36
 70
     0
102
RTVSPost2010Prop37
 90
       50
102
RTVSPost2010PropOp37
 70
     0
102
RTVSPost2010Prop38
140
0.0
102
RTVSPost2010PropOp38
 70
     0
102
RTVSPost2010Prop39
140
1.0
102
RTVSPost2010PropOp39
 70
     0
102
RTVSPost2010Prop40
 90
        0
102
RTVSPost2010PropOp40
 70
     0
102
RTVSPost2010Prop41ColorIndex
 90
       18
102
RTVSPost2010Prop41ColorRGB
 90
        0
102
RTVSPost2010PropOp41
 70
     0
102
RTVSPost2010Prop42
 90
       50
102
RTVSPost2010PropOp42
 70
     0
102
RTVSPost2010Prop43
 90
        3
102
RTVSPost2010PropOp43
 70
     0
102
RTVSPost2010Prop44ColorIndex
 90
        5
102
RTVSPost2010Prop44ColorRGB
 90
      255
102
RTVSPost2010PropOp44
 70
     0
102
RTVSPost2010Prop45
280
     0
102
RTVSPost2010PropOp45
 70
     0
102
RTVSPost2010Prop46
 90
       50
102
RTVSPost2010PropOp46
 70
     0
102
RTVSPost2010Prop47
 90
       50
102
RTVSPost2010PropOp47
 70
     0
102
RTVSPost2010Prop48
 90
       50
102
RTVSPost2010PropOp48
 70
     0
102
RTVSPost2010Prop49
280
     0
102
RTVSPost2010PropOp49
 70
     0
102
RTVSPost2010Prop50
 90
       50
102
RTVSPost2010PropOp50
 70
     0
102
RTVSPost2010Prop51ColorIndex
 90
      256
102
RTVSPost2010Prop51ColorRGB
 90
-16777216
102
RTVSPost2010PropOp51
 70
     0
102
RTVSPost2010Prop52
140
1.0
102
RTVSPost2010PropOp52
 70
     0
102
RTVSPost2010Prop53
 90
        2
102
RTVSPost2010PropOp53
 70
     0
102
RTVSPost2010Prop54
  1
strokes_ogs.tif
102
RTVSPost2010PropOp54
 70
     0
102
RTVSPost2010Prop55
280
     0
102
RTVSPost2010PropOp55
 70
     0
102
RTVSPost2010Prop56
140
1.0
102
RTVSPost2010PropOp56
 70
     0
102
RTVSPost2010Prop57
140
1.0
102
RTVSPost2010PropOp57
 70
     0
  0
XRECORD
  5
1A89
102
{ACAD_REACTORS
330
1A88
102
}
330
1A88
100
AcDbXrecord
280
     1
102
RTVSPost2010Prop28
280
     0
102
RTVSPost2010PropOp28
 70
     1
102
RTVSPost2010Prop29
280
     1
102
RTVSPost2010PropOp29
 70
     1
102
RTVSPost2010Prop30
280
     1
102
RTVSPost2010PropOp30
 70
     1
102
RTVSPost2010Prop31
280
     0
102
RTVSPost2010PropOp31
 70
     1
102
RTVSPost2010Prop32
280
     0
102
RTVSPost2010PropOp32
 70
     1
102
RTVSPost2010Prop33
280
     0
102
RTVSPost2010PropOp33
 70
     1
102
RTVSPost2010Prop34
280
     0
102
RTVSPost2010PropOp34
 70
     1
102
RTVSPost2010Prop35
280
     0
102
RTVSPost2010PropOp35
 70
     1
102
RTVSPost2010Prop36
280
     0
102
RTVSPost2010PropOp36
 70
     1
102
RTVSPost2010Prop37
 90
       50
102
RTVSPost2010PropOp37
 70
     1
102
RTVSPost2010Prop38
140
0.0
102
RTVSPost2010PropOp38
 70
     1
102
RTVSPost2010Prop39
140
1.0
102
RTVSPost2010PropOp39
 70
     1
102
RTVSPost2010Prop40
 90
        0
102
RTVSPost2010PropOp40
 70
     1
102
RTVSPost2010Prop41ColorIndex
 90
       18
102
RTVSPost2010Prop41ColorRGB
 90
        0
102
RTVSPost2010PropOp41
 70
     1
102
RTVSPost2010Prop42
 90
       50
102
RTVSPost2010PropOp42
 70
     1
102
RTVSPost2010Prop43
 90
        3
102
RTVSPost2010PropOp43
 70
     1
102
RTVSPost2010Prop44ColorIndex
 90
        5
102
RTVSPost2010Prop44ColorRGB
 90
      255
102
RTVSPost2010PropOp44
 70
     1
102
RTVSPost2010Prop45
280
     0
102
RTVSPost2010PropOp45
 70
     1
102
RTVSPost2010Prop46
 90
       50
102
RTVSPost2010PropOp46
 70
     1
102
RTVSPost2010Prop47
 90
       50
102
RTVSPost2010PropOp47
 70
     1
102
RTVSPost2010Prop48
 90
       50
102
RTVSPost2010PropOp48
 70
     1
102
RTVSPost2010Prop49
280
     0
102
RTVSPost2010PropOp49
 70
     1
102
RTVSPost2010Prop50
 90
       50
102
RTVSPost2010PropOp50
 70
     1
102
RTVSPost2010Prop51ColorIndex
 90
      256
102
RTVSPost2010Prop51ColorRGB
 90
-16777216
102
RTVSPost2010PropOp51
 70
     0
102
RTVSPost2010Prop52
140
1.0
102
RTVSPost2010PropOp52
 70
     0
102
RTVSPost2010Prop53
 90
        2
102
RTVSPost2010PropOp53
 70
     1
102
RTVSPost2010Prop54
  1
strokes_ogs.tif
102
RTVSPost2010PropOp54
 70
     1
102
RTVSPost2010Prop55
280
     0
102
RTVSPost2010PropOp55
 70
     1
102
RTVSPost2010Prop56
140
1.0
102
RTVSPost2010PropOp56
 70
     1
102
RTVSPost2010Prop57
140
1.0
102
RTVSPost2010PropOp57
 70
     1
  0
XRECORD
  5
1AA7
102
{ACAD_REACTORS
330
1AA6
102
}
330
1AA6
100
AcDbXrecord
280
     1
102
RTVSPost2010Prop28
280
     0
102
RTVSPost2010PropOp28
 70
     1
102
RTVSPost2010Prop29
280
     1
102
RTVSPost2010PropOp29
 70
     1
102
RTVSPost2010Prop30
280
     1
102
RTVSPost2010PropOp30
 70
     1
102
RTVSPost2010Prop31
280
     0
102
RTVSPost2010PropOp31
 70
     1
102
RTVSPost2010Prop32
280
     0
102
RTVSPost2010PropOp32
 70
     1
102
RTVSPost2010Prop33
280
     0
102
RTVSPost2010PropOp33
 70
     1
102
RTVSPost2010Prop34
280
     0
102
RTVSPost2010PropOp34
 70
     1
102
RTVSPost2010Prop35
280
     0
102
RTVSPost2010PropOp35
 70
     1
102
RTVSPost2010Prop36
280
     0
102
RTVSPost2010PropOp36
 70
     1
102
RTVSPost2010Prop37
 90
       50
102
RTVSPost2010PropOp37
 70
     1
102
RTVSPost2010Prop38
140
0.0
102
RTVSPost2010PropOp38
 70
     1
102
RTVSPost2010Prop39
140
1.0
102
RTVSPost2010PropOp39
 70
     1
102
RTVSPost2010Prop40
 90
        0
102
RTVSPost2010PropOp40
 70
     1
102
RTVSPost2010Prop41ColorIndex
 90
       18
102
RTVSPost2010Prop41ColorRGB
 90
        0
102
RTVSPost2010PropOp41
 70
     1
102
RTVSPost2010Prop42
 90
       50
102
RTVSPost2010PropOp42
 70
     1
102
RTVSPost2010Prop43
 90
        3
102
RTVSPost2010PropOp43
 70
     1
102
RTVSPost2010Prop44ColorIndex
 90
        5
102
RTVSPost2010Prop44ColorRGB
 90
      255
102
RTVSPost2010PropOp44
 70
     1
102
RTVSPost2010Prop45
280
     0
102
RTVSPost2010PropOp45
 70
     1
102
RTVSPost2010Prop46
 90
       50
102
RTVSPost2010PropOp46
 70
     1
102
RTVSPost2010Prop47
 90
       50
102
RTVSPost2010PropOp47
 70
     1
102
RTVSPost2010Prop48
 90
       50
102
RTVSPost2010PropOp48
 70
     1
102
RTVSPost2010Prop49
280
     0
102
RTVSPost2010PropOp49
 70
     1
102
RTVSPost2010Prop50
 90
       50
102
RTVSPost2010PropOp50
 70
     1
102
RTVSPost2010Prop51ColorIndex
 90
      256
102
RTVSPost2010Prop51ColorRGB
 90
-16777216
102
RTVSPost2010PropOp51
 70
     0
102
RTVSPost2010Prop52
140
1.0
102
RTVSPost2010PropOp52
 70
     0
102
RTVSPost2010Prop53
 90
        2
102
RTVSPost2010PropOp53
 70
     1
102
RTVSPost2010Prop54
  1
strokes_ogs.tif
102
RTVSPost2010PropOp54
 70
     1
102
RTVSPost2010Prop55
280
     0
102
RTVSPost2010PropOp55
 70
     1
102
RTVSPost2010Prop56
140
1.0
102
RTVSPost2010PropOp56
 70
     1
102
RTVSPost2010Prop57
140
1.0
102
RTVSPost2010PropOp57
 70
     1
  0
XRECORD
  5
1AA5
102
{ACAD_REACTORS
330
1AA4
102
}
330
1AA4
100
AcDbXrecord
280
     1
102
RTVSPost2010Prop28
280
     0
102
RTVSPost2010PropOp28
 70
     1
102
RTVSPost2010Prop29
280
     1
102
RTVSPost2010PropOp29
 70
     1
102
RTVSPost2010Prop30
280
     1
102
RTVSPost2010PropOp30
 70
     1
102
RTVSPost2010Prop31
280
     0
102
RTVSPost2010PropOp31
 70
     1
102
RTVSPost2010Prop32
280
     0
102
RTVSPost2010PropOp32
 70
     1
102
RTVSPost2010Prop33
280
     0
102
RTVSPost2010PropOp33
 70
     1
102
RTVSPost2010Prop34
280
     0
102
RTVSPost2010PropOp34
 70
     1
102
RTVSPost2010Prop35
280
     0
102
RTVSPost2010PropOp35
 70
     1
102
RTVSPost2010Prop36
280
     0
102
RTVSPost2010PropOp36
 70
     1
102
RTVSPost2010Prop37
 90
       50
102
RTVSPost2010PropOp37
 70
     1
102
RTVSPost2010Prop38
140
0.0
102
RTVSPost2010PropOp38
 70
     1
102
RTVSPost2010Prop39
140
1.0
102
RTVSPost2010PropOp39
 70
     1
102
RTVSPost2010Prop40
 90
        0
102
RTVSPost2010PropOp40
 70
     1
102
RTVSPost2010Prop41ColorIndex
 90
       18
102
RTVSPost2010Prop41ColorRGB
 90
        0
102
RTVSPost2010PropOp41
 70
     1
102
RTVSPost2010Prop42
 90
       50
102
RTVSPost2010PropOp42
 70
     1
102
RTVSPost2010Prop43
 90
        3
102
RTVSPost2010PropOp43
 70
     1
102
RTVSPost2010Prop44ColorIndex
 90
        5
102
RTVSPost2010Prop44ColorRGB
 90
      255
102
RTVSPost2010PropOp44
 70
     1
102
RTVSPost2010Prop45
280
     0
102
RTVSPost2010PropOp45
 70
     1
102
RTVSPost2010Prop46
 90
       50
102
RTVSPost2010PropOp46
 70
     1
102
RTVSPost2010Prop47
 90
       50
102
RTVSPost2010PropOp47
 70
     1
102
RTVSPost2010Prop48
 90
       50
102
RTVSPost2010PropOp48
 70
     1
102
RTVSPost2010Prop49
280
     0
102
RTVSPost2010PropOp49
 70
     1
102
RTVSPost2010Prop50
 90
       50
102
RTVSPost2010PropOp50
 70
     1
102
RTVSPost2010Prop51ColorIndex
 90
      256
102
RTVSPost2010Prop51ColorRGB
 90
-16777216
102
RTVSPost2010PropOp51
 70
     0
102
RTVSPost2010Prop52
140
1.0
102
RTVSPost2010PropOp52
 70
     0
102
RTVSPost2010Prop53
 90
        2
102
RTVSPost2010PropOp53
 70
     1
102
RTVSPost2010Prop54
  1
strokes_ogs.tif
102
RTVSPost2010PropOp54
 70
     1
102
RTVSPost2010Prop55
280
     0
102
RTVSPost2010PropOp55
 70
     1
102
RTVSPost2010Prop56
140
1.0
102
RTVSPost2010PropOp56
 70
     1
102
RTVSPost2010Prop57
140
1.0
102
RTVSPost2010PropOp57
 70
     1
  0
XRECORD
  5
1A9F
102
{ACAD_REACTORS
330
1A9E
102
}
330
1A9E
100
AcDbXrecord
280
     1
102
RTVSPost2010Prop28
280
     0
102
RTVSPost2010PropOp28
 70
     1
102
RTVSPost2010Prop29
280
     1
102
RTVSPost2010PropOp29
 70
     1
102
RTVSPost2010Prop30
280
     1
102
RTVSPost2010PropOp30
 70
     1
102
RTVSPost2010Prop31
280
     0
102
RTVSPost2010PropOp31
 70
     1
102
RTVSPost2010Prop32
280
     0
102
RTVSPost2010PropOp32
 70
     1
102
RTVSPost2010Prop33
280
     0
102
RTVSPost2010PropOp33
 70
     1
102
RTVSPost2010Prop34
280
     0
102
RTVSPost2010PropOp34
 70
     1
102
RTVSPost2010Prop35
280
     0
102
RTVSPost2010PropOp35
 70
     1
102
RTVSPost2010Prop36
280
     0
102
RTVSPost2010PropOp36
 70
     1
102
RTVSPost2010Prop37
 90
       50
102
RTVSPost2010PropOp37
 70
     1
102
RTVSPost2010Prop38
140
0.0
102
RTVSPost2010PropOp38
 70
     1
102
RTVSPost2010Prop39
140
1.0
102
RTVSPost2010PropOp39
 70
     1
102
RTVSPost2010Prop40
 90
        0
102
RTVSPost2010PropOp40
 70
     1
102
RTVSPost2010Prop41ColorIndex
 90
       18
102
RTVSPost2010Prop41ColorRGB
 90
        0
102
RTVSPost2010PropOp41
 70
     1
102
RTVSPost2010Prop42
 90
       50
102
RTVSPost2010PropOp42
 70
     1
102
RTVSPost2010Prop43
 90
        3
102
RTVSPost2010PropOp43
 70
     1
102
RTVSPost2010Prop44ColorIndex
 90
        5
102
RTVSPost2010Prop44ColorRGB
 90
      255
102
RTVSPost2010PropOp44
 70
     1
102
RTVSPost2010Prop45
280
     0
102
RTVSPost2010PropOp45
 70
     1
102
RTVSPost2010Prop46
 90
       50
102
RTVSPost2010PropOp46
 70
     1
102
RTVSPost2010Prop47
 90
       50
102
RTVSPost2010PropOp47
 70
     1
102
RTVSPost2010Prop48
 90
       50
102
RTVSPost2010PropOp48
 70
     1
102
RTVSPost2010Prop49
280
     0
102
RTVSPost2010PropOp49
 70
     1
102
RTVSPost2010Prop50
 90
       50
102
RTVSPost2010PropOp50
 70
     1
102
RTVSPost2010Prop51ColorIndex
 90
      256
102
RTVSPost2010Prop51ColorRGB
 90
-16777216
102
RTVSPost2010PropOp51
 70
     0
102
RTVSPost2010Prop52
140
1.0
102
RTVSPost2010PropOp52
 70
     0
102
RTVSPost2010Prop53
 90
        2
102
RTVSPost2010PropOp53
 70
     1
102
RTVSPost2010Prop54
  1
strokes_ogs.tif
102
RTVSPost2010PropOp54
 70
     1
102
RTVSPost2010Prop55
280
     0
102
RTVSPost2010PropOp55
 70
     1
102
RTVSPost2010Prop56
140
1.0
102
RTVSPost2010PropOp56
 70
     1
102
RTVSPost2010Prop57
140
1.0
102
RTVSPost2010PropOp57
 70
     1
  0
XRECORD
  5
1AA1
102
{ACAD_REACTORS
330
1AA0
102
}
330
1AA0
100
AcDbXrecord
280
     1
102
RTVSPost2010Prop28
280
     0
102
RTVSPost2010PropOp28
 70
     1
102
RTVSPost2010Prop29
280
     1
102
RTVSPost2010PropOp29
 70
     1
102
RTVSPost2010Prop30
280
     1
102
RTVSPost2010PropOp30
 70
     1
102
RTVSPost2010Prop31
280
     0
102
RTVSPost2010PropOp31
 70
     1
102
RTVSPost2010Prop32
280
     0
102
RTVSPost2010PropOp32
 70
     1
102
RTVSPost2010Prop33
280
     0
102
RTVSPost2010PropOp33
 70
     1
102
RTVSPost2010Prop34
280
     0
102
RTVSPost2010PropOp34
 70
     1
102
RTVSPost2010Prop35
280
     0
102
RTVSPost2010PropOp35
 70
     1
102
RTVSPost2010Prop36
280
     0
102
RTVSPost2010PropOp36
 70
     1
102
RTVSPost2010Prop37
 90
       50
102
RTVSPost2010PropOp37
 70
     1
102
RTVSPost2010Prop38
140
0.0
102
RTVSPost2010PropOp38
 70
     1
102
RTVSPost2010Prop39
140
1.0
102
RTVSPost2010PropOp39
 70
     1
102
RTVSPost2010Prop40
 90
        0
102
RTVSPost2010PropOp40
 70
     1
102
RTVSPost2010Prop41ColorIndex
 90
       18
102
RTVSPost2010Prop41ColorRGB
 90
        0
102
RTVSPost2010PropOp41
 70
     1
102
RTVSPost2010Prop42
 90
       50
102
RTVSPost2010PropOp42
 70
     1
102
RTVSPost2010Prop43
 90
        3
102
RTVSPost2010PropOp43
 70
     1
102
RTVSPost2010Prop44ColorIndex
 90
        5
102
RTVSPost2010Prop44ColorRGB
 90
      255
102
RTVSPost2010PropOp44
 70
     1
102
RTVSPost2010Prop45
280
     0
102
RTVSPost2010PropOp45
 70
     1
102
RTVSPost2010Prop46
 90
       50
102
RTVSPost2010PropOp46
 70
     1
102
RTVSPost2010Prop47
 90
       50
102
RTVSPost2010PropOp47
 70
     1
102
RTVSPost2010Prop48
 90
       50
102
RTVSPost2010PropOp48
 70
     1
102
RTVSPost2010Prop49
280
     0
102
RTVSPost2010PropOp49
 70
     1
102
RTVSPost2010Prop50
 90
       50
102
RTVSPost2010PropOp50
 70
     1
102
RTVSPost2010Prop51ColorIndex
 90
      256
102
RTVSPost2010Prop51ColorRGB
 90
-16777216
102
RTVSPost2010PropOp51
 70
     0
102
RTVSPost2010Prop52
140
1.0
102
RTVSPost2010PropOp52
 70
     0
102
RTVSPost2010Prop53
 90
        2
102
RTVSPost2010PropOp53
 70
     1
102
RTVSPost2010Prop54
  1
strokes_ogs.tif
102
RTVSPost2010PropOp54
 70
     1
102
RTVSPost2010Prop55
280
     0
102
RTVSPost2010PropOp55
 70
     1
102
RTVSPost2010Prop56
140
1.0
102
RTVSPost2010PropOp56
 70
     1
102
RTVSPost2010Prop57
140
1.0
102
RTVSPost2010PropOp57
 70
     1
  0
XRECORD
  5
1A91
102
{ACAD_REACTORS
330
1A90
102
}
330
1A90
100
AcDbXrecord
280
     1
102
RTVSPost2010Prop28
280
     0
102
RTVSPost2010PropOp28
 70
     1
102
RTVSPost2010Prop29
280
     1
102
RTVSPost2010PropOp29
 70
     1
102
RTVSPost2010Prop30
280
     1
102
RTVSPost2010PropOp30
 70
     1
102
RTVSPost2010Prop31
280
     0
102
RTVSPost2010PropOp31
 70
     1
102
RTVSPost2010Prop32
280
     0
102
RTVSPost2010PropOp32
 70
     1
102
RTVSPost2010Prop33
280
     0
102
RTVSPost2010PropOp33
 70
     1
102
RTVSPost2010Prop34
280
     0
102
RTVSPost2010PropOp34
 70
     1
102
RTVSPost2010Prop35
280
     0
102
RTVSPost2010PropOp35
 70
     1
102
RTVSPost2010Prop36
280
     0
102
RTVSPost2010PropOp36
 70
     1
102
RTVSPost2010Prop37
 90
       50
102
RTVSPost2010PropOp37
 70
     1
102
RTVSPost2010Prop38
140
0.0
102
RTVSPost2010PropOp38
 70
     1
102
RTVSPost2010Prop39
140
1.0
102
RTVSPost2010PropOp39
 70
     1
102
RTVSPost2010Prop40
 90
        0
102
RTVSPost2010PropOp40
 70
     1
102
RTVSPost2010Prop41ColorIndex
 90
       18
102
RTVSPost2010Prop41ColorRGB
 90
        0
102
RTVSPost2010PropOp41
 70
     1
102
RTVSPost2010Prop42
 90
       50
102
RTVSPost2010PropOp42
 70
     1
102
RTVSPost2010Prop43
 90
        3
102
RTVSPost2010PropOp43
 70
     1
102
RTVSPost2010Prop44ColorIndex
 90
        5
102
RTVSPost2010Prop44ColorRGB
 90
      255
102
RTVSPost2010PropOp44
 70
     1
102
RTVSPost2010Prop45
280
     0
102
RTVSPost2010PropOp45
 70
     1
102
RTVSPost2010Prop46
 90
       50
102
RTVSPost2010PropOp46
 70
     1
102
RTVSPost2010Prop47
 90
       50
102
RTVSPost2010PropOp47
 70
     1
102
RTVSPost2010Prop48
 90
       50
102
RTVSPost2010PropOp48
 70
     1
102
RTVSPost2010Prop49
280
     0
102
RTVSPost2010PropOp49
 70
     1
102
RTVSPost2010Prop50
 90
       50
102
RTVSPost2010PropOp50
 70
     1
102
RTVSPost2010Prop51ColorIndex
 90
      256
102
RTVSPost2010Prop51ColorRGB
 90
-16777216
102
RTVSPost2010PropOp51
 70
     0
102
RTVSPost2010Prop52
140
1.0
102
RTVSPost2010PropOp52
 70
     0
102
RTVSPost2010Prop53
 90
        2
102
RTVSPost2010PropOp53
 70
     1
102
RTVSPost2010Prop54
  1
strokes_ogs.tif
102
RTVSPost2010PropOp54
 70
     1
102
RTVSPost2010Prop55
280
     0
102
RTVSPost2010PropOp55
 70
     1
102
RTVSPost2010Prop56
140
1.0
102
RTVSPost2010PropOp56
 70
     1
102
RTVSPost2010Prop57
140
1.0
102
RTVSPost2010PropOp57
 70
     1
  0
XRECORD
  5
1A83
102
{ACAD_REACTORS
330
1A82
102
}
330
1A82
100
AcDbXrecord
280
     1
102
RTVSPost2010Prop28
280
     0
102
RTVSPost2010PropOp28
 70
     1
102
RTVSPost2010Prop29
280
     1
102
RTVSPost2010PropOp29
 70
     1
102
RTVSPost2010Prop30
280
     1
102
RTVSPost2010PropOp30
 70
     1
102
RTVSPost2010Prop31
280
     0
102
RTVSPost2010PropOp31
 70
     1
102
RTVSPost2010Prop32
280
     0
102
RTVSPost2010PropOp32
 70
     1
102
RTVSPost2010Prop33
280
     0
102
RTVSPost2010PropOp33
 70
     1
102
RTVSPost2010Prop34
280
     0
102
RTVSPost2010PropOp34
 70
     1
102
RTVSPost2010Prop35
280
     0
102
RTVSPost2010PropOp35
 70
     1
102
RTVSPost2010Prop36
280
     0
102
RTVSPost2010PropOp36
 70
     1
102
RTVSPost2010Prop37
 90
       50
102
RTVSPost2010PropOp37
 70
     1
102
RTVSPost2010Prop38
140
0.0
102
RTVSPost2010PropOp38
 70
     1
102
RTVSPost2010Prop39
140
1.0
102
RTVSPost2010PropOp39
 70
     1
102
RTVSPost2010Prop40
 90
        0
102
RTVSPost2010PropOp40
 70
     1
102
RTVSPost2010Prop41ColorIndex
 90
       18
102
RTVSPost2010Prop41ColorRGB
 90
        0
102
RTVSPost2010PropOp41
 70
     1
102
RTVSPost2010Prop42
 90
       50
102
RTVSPost2010PropOp42
 70
     1
102
RTVSPost2010Prop43
 90
        3
102
RTVSPost2010PropOp43
 70
     1
102
RTVSPost2010Prop44ColorIndex
 90
        5
102
RTVSPost2010Prop44ColorRGB
 90
      255
102
RTVSPost2010PropOp44
 70
     1
102
RTVSPost2010Prop45
280
     0
102
RTVSPost2010PropOp45
 70
     1
102
RTVSPost2010Prop46
 90
       50
102
RTVSPost2010PropOp46
 70
     1
102
RTVSPost2010Prop47
 90
       50
102
RTVSPost2010PropOp47
 70
     1
102
RTVSPost2010Prop48
 90
       50
102
RTVSPost2010PropOp48
 70
     1
102
RTVSPost2010Prop49
280
     0
102
RTVSPost2010PropOp49
 70
     1
102
RTVSPost2010Prop50
 90
       50
102
RTVSPost2010PropOp50
 70
     1
102
RTVSPost2010Prop51ColorIndex
 90
      256
102
RTVSPost2010Prop51ColorRGB
 90
-16777216
102
RTVSPost2010PropOp51
 70
     0
102
RTVSPost2010Prop52
140
1.0
102
RTVSPost2010PropOp52
 70
     0
102
RTVSPost2010Prop53
 90
        2
102
RTVSPost2010PropOp53
 70
     1
102
RTVSPost2010Prop54
  1
strokes_ogs.tif
102
RTVSPost2010PropOp54
 70
     1
102
RTVSPost2010Prop55
280
     0
102
RTVSPost2010PropOp55
 70
     1
102
RTVSPost2010Prop56
140
1.0
102
RTVSPost2010PropOp56
 70
     1
102
RTVSPost2010Prop57
140
1.0
102
RTVSPost2010PropOp57
 70
     1
  0
XRECORD
  5
1AA3
102
{ACAD_REACTORS
330
1AA2
102
}
330
1AA2
100
AcDbXrecord
280
     1
102
RTVSPost2010Prop28
280
     0
102
RTVSPost2010PropOp28
 70
     1
102
RTVSPost2010Prop29
280
     1
102
RTVSPost2010PropOp29
 70
     1
102
RTVSPost2010Prop30
280
     1
102
RTVSPost2010PropOp30
 70
     1
102
RTVSPost2010Prop31
280
     0
102
RTVSPost2010PropOp31
 70
     1
102
RTVSPost2010Prop32
280
     0
102
RTVSPost2010PropOp32
 70
     1
102
RTVSPost2010Prop33
280
     0
102
RTVSPost2010PropOp33
 70
     1
102
RTVSPost2010Prop34
280
     0
102
RTVSPost2010PropOp34
 70
     1
102
RTVSPost2010Prop35
280
     0
102
RTVSPost2010PropOp35
 70
     1
102
RTVSPost2010Prop36
280
     0
102
RTVSPost2010PropOp36
 70
     1
102
RTVSPost2010Prop37
 90
       50
102
RTVSPost2010PropOp37
 70
     1
102
RTVSPost2010Prop38
140
0.0
102
RTVSPost2010PropOp38
 70
     1
102
RTVSPost2010Prop39
140
1.0
102
RTVSPost2010PropOp39
 70
     1
102
RTVSPost2010Prop40
 90
        0
102
RTVSPost2010PropOp40
 70
     1
102
RTVSPost2010Prop41ColorIndex
 90
       18
102
RTVSPost2010Prop41ColorRGB
 90
        0
102
RTVSPost2010PropOp41
 70
     1
102
RTVSPost2010Prop42
 90
       50
102
RTVSPost2010PropOp42
 70
     1
102
RTVSPost2010Prop43
 90
        3
102
RTVSPost2010PropOp43
 70
     1
102
RTVSPost2010Prop44ColorIndex
 90
        5
102
RTVSPost2010Prop44ColorRGB
 90
      255
102
RTVSPost2010PropOp44
 70
     1
102
RTVSPost2010Prop45
280
     0
102
RTVSPost2010PropOp45
 70
     1
102
RTVSPost2010Prop46
 90
       50
102
RTVSPost2010PropOp46
 70
     1
102
RTVSPost2010Prop47
 90
       50
102
RTVSPost2010PropOp47
 70
     1
102
RTVSPost2010Prop48
 90
       50
102
RTVSPost2010PropOp48
 70
     1
102
RTVSPost2010Prop49
280
     0
102
RTVSPost2010PropOp49
 70
     1
102
RTVSPost2010Prop50
 90
       50
102
RTVSPost2010PropOp50
 70
     1
102
RTVSPost2010Prop51ColorIndex
 90
      256
102
RTVSPost2010Prop51ColorRGB
 90
-16777216
102
RTVSPost2010PropOp51
 70
     0
102
RTVSPost2010Prop52
140
1.0
102
RTVSPost2010PropOp52
 70
     0
102
RTVSPost2010Prop53
 90
        2
102
RTVSPost2010PropOp53
 70
     1
102
RTVSPost2010Prop54
  1
strokes_ogs.tif
102
RTVSPost2010PropOp54
 70
     1
102
RTVSPost2010Prop55
280
     0
102
RTVSPost2010PropOp55
 70
     1
102
RTVSPost2010Prop56
140
1.0
102
RTVSPost2010PropOp56
 70
     1
102
RTVSPost2010Prop57
140
1.0
102
RTVSPost2010PropOp57
 70
     1
  0
ENDSEC
  0
SECTION
  2
THUMBNAILIMAGE
 90
    24616
310
28000000800000004000000001001800000000000000000000000000000000000000000000000000000000000000000000000000000000000000000000000000000000000000000000000000000000000000000000000000000000000000000000000000FFFFFFFFFFFFFFFFFFFFFFFFFFFFFFFFFFFFFFFFFFFFFFFFFFFFFF
310
FFFFFFFFFFFFFFFFFFFFFFFFFFFFFFFFFFFFFFFFFFFFFFFFFFFFFFFFFFFFFFFFFFFFFFFFFFFFFFFFFFFFFFFFFFFFFFFFFFFFFFFFFFFFFFFFFFFFFFFFFFFFFFFFFFFFFFFFFFFFFFFFFFFFFFFFFFFFFFFFFFFFFFFFFFFFFFFFFFFFFFFFFFFFFFFFFFFFFFFFFFFFFFFFFFFFFFFFFFFFFFFFFFFFFFFFFFFFFFFFFFFFFFFFFFFFFF
310
FFFFFFFFFFFFFFFFFFFFFFFFFFFFFFFFFFFFFFFFFFFFFFFFFFFFFFFFFFFFFFFFFFFFFFFFFFFFFFFFFFFFFFFFFFFFFFFFFFFFFFFFFFFFFFFFFFFFFFFFFFFFFFFFFFFFFFFFFFFFFFFFFFFFFFFFFFFFFFFFFFFFFFFFFFFFFFFFFFFFFFFFFFFFFFFFFFFFFFFFFFFFFFFFFFFFFFFFFFFFFFFFFF0000000000000000000000000000
310
00000000000000000000000000000000000000000000000000000000000000000000000000000000000000000000000000000000000000000000000000000000000000000000000000000000000000000000000000000000000000000000000000000000000000FFFFFF000000000000000000000000000000000000000000
310
00000000000000000000000000000000000000000000000000000000000000000000000000000000000000000000000000000000000000000000000000000000000000000000000000000000000000000000000000000000000000000000000000000000000000000000000000000000000000000000000000000000000000
310
0000000000000000000000000000000000000000000000000000000000000000000000000000000000000000000000000000000000000000000000000000000000000000000000000000000000000000000000000000000000000000000000000000000000000000000000000000000000FFFFFF0000000000000000000000
310
00000000000000000000000000000000000000000000000000000000000000000000000000000000000000000000000000000000000000000000000000000000000000000000000000000000000000000000000000000000000000000000000000000000000000000000FFFFFF00000000BFFF00BFFF00BFFF00BFFF00BFFF
310
00BFFF00BFFF00BFFF00BFFF00BFFF00BFFF00BFFF00BFFF00BFFF00BFFF00BFFF00BFFF00BFFF00BFFF00BFFF00BFFF00BFFF00BFFF00BFFF00BFFF00BFFF00BFFF00BFFF00BFFF00BFFF00BFFF00BFFF00BFFF00BFFF00BFFF00BFFF00BFFF00BFFF00BFFF00BFFF00BFFF00BFFF00BFFF00BFFF00BFFF00BFFF00BFFFFF
310
FFFFFFFFFFFFFFFFFFFFFFFFFFFFFFFFFFFFFFFFFFFFFFFFFFFFFFFFFFFFFFFFFFFFFFFFFFFFFFFFFFFFFFFFFFFFFFFFFFFFFFFFFFFFFFFFFFFFFFFFFFFFFFFFFFFFFFFFFFFFFFFFFFFFFFFFFFFFFFFF007299FFFFFFFFFFFFFFFFFFFFFFFFFFFFFFFFFFFFFFFFFFFFFFFFFFFFFFFFFFFF000000FFFFFF0000000000000000
310
00000000000000000000000000000000000000000000000000000000000000000000000000000000000000000000000000000000000000000000000000000000000000000000000000000000000000000000000000000000000000000000000000000000000000000000000000FFFFFF00000000BFFF000000000000000000
310
00000000000000000000000000000000000000000000000000000000000000000000000000000000000000000000000000000000000000000000000000000000000000000000000000000000000000000000000000000000000000000000000000000000000000000000000000000000000000000000000000000000000000
310
0000FFFFFFFFFFFFFFFFFFFFFFFFFFFFFFFFFFFFFFFFFFFFFFFFFFFFFFFFFFFFFFFFFFFFFFFFFFFFFFFFFFFFFFFFFFFFFFFFFFFFFFFFFFFFFFFFFFFFFFFFFFFFFFFFFFFFFFFFFFFFFFFF007299007299007299007299FFFFFFFFFFFFFFFFFFFFFFFFFFFFFFFFFFFFFFFFFFFFFFFFFFFFFFFFFFFF000000FFFFFF0000000000
310
00000000000000000000000000000000000000000000000000000000000000000000000000000000000000000000000000000000000000000000000000000000000000000000000000000000000000000000000000000000000000000000000000000000000000000000000000000000FFFFFF00000000BFFF000000000000
310
00000000000000000000000000000000000000000000000000000000000000000000000000000000000000000000000000000000000000000000000000000000000000000000000000000000000000000000000000000000000000000000000000000000000000000000000000000000000000000000000000000000000000
310
0000000000FFFFFFFFFFFFFFFFFFFFFFFFFFFFFFFFFFFFFFFFFFFFFFFFFFFFFFFFFFFFFFFFFFFFFFFFFFFFFFFFFFFFFFFFFFFFFFFFFFFFFFFFFFFFFFFFFFFFFFFFFFFFFFFFFFFFFFFFFFFFFFFF007299007299007299007299FFFFFFFFFFFFFFFFFFFFFFFFFFFFFFFFFFFF000000000000000000FFFFFF000000FFFFFF0000
310
00000000000000000000000000000000000000000000000000000000000000000000000000000000000000000000000000000000000000000000000000000000000000000000000000000000000000000000000000000000000000000000000000000000000000000000000000000000000000FFFFFF00000000BFFF000000
310
00000000000000000000000000000000000000000000000000000000000000000000000000000000000000000000000000000000000000000000000000000000000000000000000000000000000000000000000000000000000000000000000000000000000000000000000000000000000000000000000000000000000000
310
0000000000000000FFFFFFFFFFFFFFFFFFFFFFFFFFFFFFFFFFFFFFFFFFFFFFFFFFFFFFFFFFFFFFFFFFFFFFFFFFFFFFFFFFFFFFFFFFFFFFFFFFFFFFFFFFFFFFFFFFFFFFFFFFFFFFFFFFFFFFFFFFFFFFFFFFFFFFFFFFFFFFFFFFFFFFFFFFFFFFFFFFFFFFFFFFFFFFFFFFFFFFFFFFFFFFFFFFFFFFFFFFFFFFFFFFFF000000FFFF
310
FF000000000000000000000000000000000000000000000000000000000000000000000000000000000000000000000000000000000000000000000000000000000000000000000000000000000000000000000000000000000000000000000000000000000000000000000000000000000000000000FFFFFF00000000BFFF
310
00000000000000000000000000000000000000000000000000000000000000000000000000000000000000000000000000000000000000000000000000000000000000000000000000000000000000000000000000000000000000000000000000000000000000000000000000000000000000000000000000000000000000
310
0000000000000000000000000000000000000000000000000000000000000000000000000000000000000000000000000000000000000000000000000000000000000000000000000000000000000000FFFFFF007299FFFFFFFFFFFFFFFFFFFFFFFFFFFFFFFFFFFFFFFFFFFFFFFFFFFFFFFFFFFFFFFFFFFFFFFFFFFFFF0000
310
00FFFFFF000000000000000000000000000000000000000000000000000000000000000000000000000000000000000000000000000000000000000000000000000000000000000000000000000000000000000000000000000000000000000000000000000000000000000000000000000000000000000000FFFFFF000000
310
00BFFF00000000000000000000000000000000000000000000000000000000000000000000000000000000000000000000000000000000000000000000000000000000000000000000000000000000000000000000000000000000000000000000000000000000000000000000000000000000000000000000000000000000
310
0000000000000000000000000000000000000000000000000000000000000000000000000000000000000000000000000000000000000000000000000000000000000000000000000000000000000000000000FFFFFFFFFFFFFFFFFFFFFFFFFFFFFFFFFFFFFFFFFFFFFFFFFFFFFFFFFFFF000000000000000000000000FFFF
310
FF000000FFFFFF000000000000000000000000000000000000000000000000000000000000000000000000000000000000000000000000000000000000000000000000000000000000000000000000000000000000000000000000000000000000000000000000000000000000000000000000000000000000000000FFFFFF
310
00000000BFFF00000000000000000000000000000000000000000000000000000000000000000000000000000000000000000000000000000000000000000000000000000000000000000000000000000000000000000000000000000000000000000000000000000000000000000000000000000000000000000000000000
310
0000000000000000000000000000000000000000000000000000000000000000000000000000000000000000000000FFFFFF000000000000000000000000000000000000000000000000000000000000000000000000FFFFFFFFFFFFFFFFFFFFFFFFFFFFFFFFFFFFFFFFFFFFFFFFFFFFFFFFFFFFFFFFFFFFFFFFFFFFFFFFFF
310
FFFFFFFF000000FFFFFF000000000000000000000000000000000000000000000000000000000000000000000000000000000000000000000000000000000000000000000000000000000000000000000000000000000000000000000000000000000000000000000000000000000000000000000000000000000000000000
310
FFFFFF00000000BFFF00000000000000000000000000000000000000000000000000000000000000000000000000000000000000000000000000000000000000000000000000000000000000000000000000000000000000000000000000000000000000000000000000000000000000000000000000000000000000000000
310
0000000000000000000000000000000000000000000000000000000000000000000000000000000000000000000000FFFFFF000000000000000000000000000000000000000000000000000000000000000000000000000000FFFFFFFFFFFFFFFFFFFFFFFFFFFFFFFFFFFFFFFFFFFFFFFFFFFFFFFFFFFFFFFFFFFFFFFFFFFF
310
FF000000FFFFFF000000FFFFFF000000000000000000000000000000000000000000000000000000000000000000000000000000000000000000000000000000000000000000000000000000000000000000000000000000000000000000000000000000000000000000000000000000000000000000000000000000000000
310
000000FFFFFF00000000BFFF00000000000000000000000000000000000000000000000000000000000000000000000000000000000000000000000000000000000000000000000000000000000000000000000000000000000000000000000000000000000000000000000000000000000000000000000000000000000000
310
0000000000000000000000000000000000000000000000000000000000000000000000000000000000000000000000FFFFFF000000000000000000000000000000000000000000000000000000000000000000000000000000000000FFFFFFFFFFFF007299FFFFFF007299FFFFFFFFFFFFFFFFFFFFFFFFFFFFFFFFFFFFFFFF
310
FFFFFFFFFFFFFFFFFFFF000000FFFFFF000000000000000000000000000000000000000000000000000000000000000000000000000000000000000000000000000000000000000000000000000000000000000000000000000000000000000000000000000000000000000000000000000000000000000000000000000000
310
000000000000FFFFFF00000000BFFF00000000000000000000000000000000000000000000000000000000000000000000000000000000000000000000000000000000000000000000000000000000000000000000000000000000000000000000000000000000000000000000000000000000000000000000000000000000
310
0000000000000000000000000000000000000000000000000000000000000000000000000000000000000000000000FFFFFF000000000000000000000000000000000000000000000000000000000000000000000000000000000000000000000000FFFFFFFFFFFFFFFFFFFFFFFFFFFFFFFFFFFFFFFFFFFFFFFFFFFFFFFFFF
310
FFFFFFFFFFFFFFFFFFFFFFFFFF000000FFFFFF000000000000000000000000000000000000000000000000000000000000000000000000000000000000000000000000000000000000000000000000000000000000000000000000000000000000000000000000000000000000000000000000000000000000000000000000
310
000000000000000000FFFFFF00000000BFFF00000000000000000000000000000000000000000000000000000000000000000000000000000000000000000000000000000000000000000000000000000000000000000000000000000000000000000000000000000000000000000000000000000000000000000000000000
310
0000000000000000000000000000000000000000000000000000000000000000000000000000000000000000FFFFFFFFFFFF0000000000000000000000000000000000000000000000000000000000000000000000000000000000000000000000000000000000000000000000000000000000000000000000000000000000
310
0000000000000000000000000000BFFF000000FFFFFF000000000000000000000000000000000000000000000000000000000000000000000000000000000000000000000000000000000000000000000000000000000000000000000000000000000000000000000000000000000000000000000000000000000000000000
310
000000000000000000000000FFFFFF00000000BFFF00000000000000000000000000000000000000000000000000000000000000000000000000000000000000000000000000000000000000000000000000000000000000000000000000000000000000000000000000000000000000000000000000000000729900000000
310
0000000000000000000000000000000000000000000000000000000000000000000000000000000000000000FFFFFFFFFFFF0000000000000000000000000000000000000000000000000000000000000000000000000000000000000000000000000000000000000000000000000000000000000000000000000000000000
310
0000000000000000000000000000000000BFFF000000FFFFFF000000000000000000000000000000000000000000000000000000000000000000000000000000000000000000000000000000000000000000000000000000000000000000000000000000000000000000000000000000000000000000000000000000000000
310
000000000000000000000000000000FFFFFF00000000BFFF00000000000000000000000000000000000000000000000000000000000000000000000000000000000000000000000000000000000000000000000000000000000000000000000000000000000000000000000000000000000000000000000000000000729900
310
0000000000000000000000000000000000000000000000000000000000000000000000000000000000000000FFFFFFFFFFFF0000000000000000000000000000000000000000000000000000000000000000000000000000000000000000000000000000000000000000000000000000000000000000000000000000000000
310
0000000000000000000000000000000000000000BFFF000000FFFFFF000000000000000000000000000000000000000000000000000000000000000000000000000000000000000000000000000000000000000000000000000000000000000000000000000000000000000000000000000000000000000000000000000000
310
000000000000000000000000000000000000FFFFFF00000000BFFF00000000000000000000000000000000000000000000000000000000000000000000000000000000000000000000000000000000000000000000000000000000000000000000000000000000000000000000000000000000000000000000000000000000
310
7299000000000000000000000000000000000000000000000000000000000000000000000000000000000000FFFFFFFFFFFF0000000000000000000000000000000000000000000000000000000000000000000000000000000000000000000000000000000000000000000000000000000000000000000000000000000000
310
0000000000000000000000000000000000000000000000BFFF000000FFFFFF000000000000000000000000000000000000000000000000000000000000000000000000000000000000000000000000000000000000000000000000000000000000000000000000000000000000000000000000000000000000000000000000
310
000000000000000000000000000000000000000000FFFFFF00000000BFFF000000000000000000000000000000000000000000000000000000000000000000000000000000000000000000000000000000000000000000000000000000FFFFFF000000000000000000000000000000000000000000000000000000000000FF
310
FFFFFFFFFF007299FFFFFFFFFFFFFFFFFFFFFFFFFFFFFFFFFFFFFFFFFFFFFFFFFFFFFFFFFFFFFFFFFFFFFFFFFFFFFFFFFFFFFFFFFFFFFFFFFFFFFFFFFFFFFFFFFFFFFFFFFFFFFFFFFFFFFFFFFFFFFFFFFFFFFFFFFFFFFFFFFFFFFFFFFFFFFF0000000000000000000000000000000000000000000000000000000000000000
310
0000000000000000000000000000000000000000000000000000BFFF000000FFFFFF000000000000000000000000000000000000000000000000000000000000000000000000000000000000000000000000000000000000000000000000000000000000000000000000000000000000000000000000000000000000000000
310
000000000000000000000000000000000000000000000000FFFFFF00000000BFFF000000000000000000000000000000000000000000000000000000000000000000000000000000000000000000000000000000000000000000000000000000FFFFFF00000000000000000000000000000000000000000000000000000000
310
0000FFFFFFFFFFFFFFFFFFFFFFFF000000000000000000000000000000000000000000000000000000000000000000FFFFFFFFFFFF0000000000000000000000000000000000000000000000000000000000000000000000000000000000000000000000000000000000000000000000000000000000000000000000000000
310
0000000000000000000000000000000000000000000000000000000000BFFF000000FFFFFF000000000000000000000000000000000000000000000000000000000000000000000000000000000000000000000000000000000000000000000000000000000000000000000000000000000000000000000000000000000000
310
000000000000000000000000000000000000000000000000000000FFFFFF00000000BFFF000000000000000000000000000000000000000000000000000000000000000000000000000000000000000000000000000000000000000000000000000000FFFFFF00000000000000000000000000000000000000000000000000
310
0000000000FFFFFF000000FFFFFF000000FFFFFF000000000000000000000000000000000000000000000000000000000000000000FFFFFF0000000000000000000000000000000000000000000000000000000000000000000000000000000000000000000000000000000000000000000000000000000000000000000000
310
0000000000000000000000000000000000000000000000000000000000000000BFFF000000FFFFFF000000000000000000000000000000000000000000000000000000000000000000000000000000000000000000000000000000000000000000000000000000000000000000000000000000000000000000000000000000
310
000000000000000000000000000000000000000000000000000000000000FFFFFF00000000BFFF000000000000000000000000000000000000000000000000000000000000000000000000000000000000000000000000000000000000000000000000000000FFFFFF00000000000000000000000000000000000000000000
310
0000000000000000FFFFFF000000000000FFFFFFFFFFFF000000000000000000000000000000000000000000000000000000000000000000000000FFFFFF0000000000000000000000000000000000000000000000000000000000000000000000000000000000000000000000000000000000000000000000000000000000
310
0000000000000000000000000000000000000000000000000000000000000000000000BFFF000000FFFFFF000000000000000000000000000000000000000000000000000000000000000000000000000000000000000000000000000000000000000000000000000000000000000000000000000000000000000000000000
310
000000000000000000000000000000000000000000000000000000000000000000FFFFFF00000000BFFF000000000000000000000000000000000000000000000000000000000000000000000000000000000000000000000000000000000000000000000000000000FFFFFF00000000000000000000000000000000000000
310
0000000000000000000000FFFFFF000000000000FFFFFF000000FFFFFF000000000000000000000000000000000000000000000000000000000000000000FFFFFF0000000000000000000000000000000000000000000000000000000000000000000000000000000000000000000000000000000000000000000000000000
310
0000000000000000000000000000000000000000000000000000000000000000000000000000BFFF000000FFFFFF000000000000000000000000000000000000000000000000000000000000000000000000000000000000000000000000000000000000000000000000000000000000000000000000000000000000000000
310
000000000000000000000000000000000000000000000000000000000000000000000000FFFFFF00000000BFFF000000000000000000000000000000000000000000000000000000000000000000000000000000000000000000000000000000000000000000000000000000FFFFFF000000000000000000000000000000FF
310
FFFF000000000000000000000000FFFFFF000000000000000000FFFFFFFFFFFFFFFFFFFFFFFFFFFFFFFFFFFFFFFFFF000000000000000000000000000000000000000000FFFFFF0000000000000000000000000000000000000000000000000000000000000000000000000000000000000000000000000000000000000000
310
0000000000000000000000000000000000000000000000000000000000000000000000000000000000BFFF000000FFFFFF000000000000000000000000000000000000000000000000000000000000000000000000000000000000000000000000000000000000000000000000000000000000000000000000000000000000
310
000000000000000000000000000000000000000000000000000000000000000000000000000000FFFFFF00000000BFFF000000000000000000000000000000000000000000000000000000000000000000000000000000000000000000000000000000000000000000000000000000FFFFFF000000000000000000000000FF
310
FFFFFFFFFF000000000000000000000000FFFFFF000000000000000000FFFFFFFFFFFFFFFFFFFFFFFFFFFFFFFFFFFFFFFFFFFFFFFF000000000000000000000000000000000000FFFFFFFFFFFFFFFFFFFFFFFFFFFFFFFFFFFFFFFFFFFFFFFFFFFFFFFFFFFFFFFFFFFFFFFFFFFFFF0000000000000000000000000000000000
310
0000000000000000000000000000000000000000000000000000000000000000000000000000000000000000BFFF000000FFFFFF000000000000000000000000000000000000000000000000000000000000000000000000000000000000000000000000000000000000000000000000000000000000000000000000000000
310
000000000000000000000000000000000000000000000000000000000000000000000000000000000000FFFFFF00000000BFFF000000000000000000000000000000000000000000000000000000000000000000000000000000000000000000000000000000000000000000000000000000FFFFFF000000000000000000FF
310
FFFFFFFFFF000000000000000000000000000000FFFFFF000000000000000000000000FFFFFFFFFFFFFFFFFFFFFFFFFFFFFFFFFFFFFFFFFF000000000000000000000000000000000000000000FFFFFFFFFFFFFFFFFFFFFFFFFFFFFFFFFFFFFFFFFFFFFFFFFFFFFFFFFFFFFFFFFFFFFFFF0000000000000000000000000000
310
0000000000000000000000000000000000000000000000000000000000000000000000000000000000000000000000BFFF000000FFFFFF000000000000000000000000000000000000000000000000000000000000000000000000000000000000000000000000000000000000000000000000000000000000000000000000
310
000000000000000000000000000000000000000000000000000000000000000000000000000000000000000000FFFFFF00000000BFFF000000000000000000000000000000000000000000000000000000000000000000000000000000000000000000000000000000000000000000000000000000FFFFFF000000000000FF
310
FFFFFFFFFF000000000000000000000000000000000000FFFFFF0000000000000000000000000000000000000000000000000000000000000000000000000000000000000000000000000000000000000000000000000000000000000000000000000000000000000000000000000000000000000000000000000000000000
310
0000000000000000000000000000000000000000000000000000000000000000000000000000000000000000000000000000BFFF000000FFFFFF000000000000000000000000000000000000000000000000000000000000000000000000000000000000000000000000000000000000000000000000000000000000000000
310
000000000000000000000000000000000000000000000000000000000000000000000000000000000000000000000000FFFFFF00000000BFFF000000000000000000000000000000000000000000000000000000000000000000000000000000000000000000000000000000000000000000000000000000FFFFFF000000FF
310
FFFF000000000000000000000000000000000000000000000000FFFFFF0000000000000000000000000000000000000000000000000000000000000000000000000000000000000000000000000000000000000000000000000000000000000000000000000000000000000000000000000000000000000000000000000000
310
0000000000000000000000000000000000000000000000000000000000000000000000000000000000000000000000000000000000BFFF000000FFFFFF000000000000000000000000000000000000000000000000000000000000000000000000000000000000000000000000000000000000000000000000000000000000
310
000000000000000000000000000000000000000000000000000000000000000000000000000000000000000000000000000000FFFFFF00000000BFFF000000000000000000000000000000000000000000000000000000000000000000000000000000000000000000000000000000000000000000000000000000FFFFFFFF
310
FFFF000000000000000000000000000000000000000000000000000000FFFFFF0000000000000000000000000000000000000000000000000000000000000000000000000000000000000000000000000000000000000000000000000000000000000000000000000000000000000000000000000000000000000000000000
310
0000000000000000000000000000000000000000000000000000000000000000000000000000000000000000000000000000000000000000BFFF000000FFFFFF000000000000000000000000000000000000000000000000000000000000000000000000000000000000000000000000000000000000000000000000000000
310
000000000000000000000000000000000000000000000000000000000000000000000000000000000000000000000000000000000000FFFFFF00000000BFFF000000000000000000000000000000000000000000000000000000000000000000000000000000000000000000000000000000000000000000000000000000FF
310
FFFF000000000000000000000000000000000000000000000000000000000000FFFFFF0000000000000000000000000000000000000000000000000000000000000000000000000000000000000000000000000000000000000000000000000000000000000000000000000000000000000000000000000000000000000000
310
0000000000000000000000000000000000000000000000000000000000000000000000000000000000000000000000000000000000000000000000BFFF000000FFFFFF000000000000000000000000000000000000000000000000000000000000000000000000000000000000000000000000000000000000000000000000
310
000000000000000000000000000000000000000000000000000000000000000000000000000000000000000000000000000000000000000000FFFFFF00000000BFFF00000000000000000000000000000000000000000000000000000000000000000000000000000000000000000000000000000000000000000000000000
310
0000FFFFFF000000000000000000000000000000000000000000000000000000000000FFFFFF0000000000000000000000000000000000000000000000000000000000000000000000000000000000000000000000000000000000000000000000000000000000000000000000000000000000000000000000000000000000
310
0000000000000000000000000000000000000000000000000000000000000000000000000000000000000000000000000000000000000000000000000000BFFF000000FFFFFF000000000000000000000000000000000000000000000000000000000000000000000000000000000000000000000000000000000000000000
310
000000000000000000000000000000000000000000000000000000000000000000000000000000000000000000000000000000000000000000000000FFFFFF00000000BFFF00000000000000000000000000000000000000000000000000000000000000000000000000000000000000000000000000000000000000000000
310
0000000000FFFFFF000000000000000000000000000000000000000000000000000000000000FFFFFF0000000000000000000000000000000000000000000000000000000000000000000000000000000000000000000000000000000000000000000000000000000000000000000000000000000000000000000000000000
310
0000000000000000000000000000000000000000000000000000000000000000000000000000000000000000000000000000000000000000000000000000000000BFFF000000FFFFFF000000000000000000000000000000000000000000000000000000000000000000000000000000000000000000000000000000000000
310
000000000000000000000000000000000000000000000000000000000000000000000000000000000000000000000000000000000000000000000000000000FFFFFF00000000BFFF00000000000000000000000000000000000000000000000000000000000000000000000000000000000000000000000000000000000000
310
0000000000000000FFFFFF000000000000000000000000000000000000000000000000000000000000FFFFFF0000000000000000000000000000000000000000000000000000000000000000000000000000000000000000000000000000000000000000000000000000000000000000000000000000000000000000000000
310
0000000000000000000000000000000000000000000000000000000000000000000000000000000000000000000000000000000000000000000000000000000000000000BFFF000000FFFFFF000000000000000000000000000000000000000000000000000000000000000000000000000000000000000000000000000000
310
000000000000000000000000000000000000000000000000000000000000000000000000000000000000000000000000000000000000000000000000000000000000FFFFFF00000000BFFF00000000000000000000000000000000000000000000000000000000000000000000000000000000000000000000000000000000
310
0000000000000000000000FFFFFF000000000000000000000000000000000000000000000000000000000000FFFFFF0000000000000000000000000000000000000000000000000000000000000000000000000000000000000000000000000000000000000000000000000000000000000000000000000000000000000000
310
0000000000000000000000000000000000000000000000000000000000000000000000000000000000000000000000000000000000000000000000000000000000000000000000BFFF000000FFFFFF000000000000000000000000000000000000000000000000000000000000000000000000000000000000000000000000
310
000000000000000000000000000000000000000000000000000000000000000000000000000000000000000000000000000000000000000000000000000000000000000000FFFFFF00000000BFFF00000000000000000000000000000000000000000000000000000000000000000000000000000000000000000000000000
310
0000000000000000000000000000FFFFFF000000000000000000000000000000000000000000000000000000000000FFFFFFFFFFFF0000000000000000000000000000000000000000000000000000000000000000000000000000000000000000000000000000000000000000000000000000000000000000000000000000
310
0000000000000000000000000000000000000000000000000000000000000000000000000000000000000000000000000000000000000000000000000000000000000000000000000000BFFF000000FFFFFF000000000000000000000000000000000000000000000000000000000000000000000000000000000000000000
310
000000000000000000000000000000000000000000000000000000000000000000000000000000000000000000000000000000000000000000000000000000000000000000000000FFFFFF00000000BFFF00000000000000000000000000000000000000000000000000000000000000000000000000000000000000000000
310
0000000000000000000000000000000000FFFFFF000000000000000000000000000000000000000000000000000000000000FFFFFFFFFFFF0000000000000000000000000000000000000000000000000000000000000000000000000000000000000000000000000000000000000000000000000000000000000000000000
310
0000000000000000000000000000000000000000000000000000000000000000000000000000000000000000000000000000000000000000000000000000000000000000000000000000000000BFFF000000FFFFFF000000000000000000000000000000000000000000000000000000000000000000000000000000000000
310
000000000000000000000000000000000000000000000000000000000000000000000000000000000000000000000000000000000000000000000000000000000000000000000000000000FFFFFF00000000BFFF00000000000000000000000000000000000000000000000000000000000000000000000000000000000000
310
0000000000000000000000000000000000000000FFFFFF000000000000000000000000000000000000000000000000000000000000FFFFFF000000FFFFFF0000000000000000000000000000000000000000000000000000000000000000000000000000000000000000000000000000000000000000000000000000000000
310
0000000000000000000000000000000000000000000000000000000000000000000000000000000000000000000000000000000000000000000000000000000000000000000000000000000000000000BFFF000000FFFFFF000000000000000000000000000000000000000000000000000000000000000000000000000000
310
000000000000000000000000000000000000000000000000000000000000000000000000000000000000000000000000000000000000000000000000000000000000000000000000000000000000FFFFFF00000000BFFF00000000000000000000000000000000000000000000000000000000000000000000000000000000
310
0000000000000000000000000000000000000000000000FFFFFF000000000000000000000000000000000000000000000000000000000000FFFFFF000000FFFFFF0000000000000000000000000000000000000000000000000000000000000000000000000000000000000000000000000000000000000000000000000000
310
0000000000000000000000000000000000000000000000000000000000000000000000000000000000000000000000000000000000000000000000000000000000000000000000000000000000000000000000BFFF000000FFFFFF000000000000000000000000000000000000000000000000000000000000000000000000
310
000000000000000000000000000000000000000000000000000000000000000000000000000000000000000000000000000000000000000000000000000000000000000000000000000000000000000000FFFFFF00000000BFFF00000000000000000000000000000000000000000000000000000000000000000000000000
310
0000000000000000000000000000000000000000000000000000FFFFFF000000000000000000000000000000000000000000000000000000000000FFFFFF000000000000FFFFFF0000000000000000000000000000000000000000000000000000000000000000000000000000000000000000000000000000000000000000
310
0000000000000000000000000000000000000000000000000000000000000000000000000000000000000000000000000000000000000000000000000000000000000000000000000000000000000000000000000000BFFF000000FFFFFF000000000000000000000000000000000000000000000000000000000000000000
310
000000000000000000000000000000000000000000000000000000000000000000000000000000000000000000000000000000000000000000000000000000000000000000000000000000000000000000000000FFFFFF00000000BFFF00000000000000000000000000000000000000000000000000000000000000000000
310
0000000000000000000000000000000000000000000000000000000000FFFFFF000000000000000000000000000000FFFFFF000000000000000000000000FFFFFF000000000000FFFFFFFFFFFFFFFFFFFFFFFFFFFFFFFFFFFFFFFFFFFFFFFFFFFFFFFFFFFFFFFFFFFFFFFFFFFFFF0000000000000000000000000000000000
310
0000000000000000000000000000000000000000000000000000000000000000000000000000000000000000000000000000000000000000000000000000000000000000000000000000000000000000000000000000000000BFFF000000FFFFFF000000000000000000000000000000000000000000000000000000000000
310
000000000000000000000000000000000000000000000000000000000000000000000000000000000000000000000000000000000000000000000000000000000000000000000000000000000000000000000000000000FFFFFF00000000BFFF00000000000000000000000000000000000000000000000000000000000000
310
0000000000000000000000000000000000000000000000000000000000000000FFFFFF000000000000000000000000FFFFFF000000000000000000000000000000FFFFFF0000000000000000000000000000000000000000000000000000000000000000000000000000000000000000000000000000000000000000000000
310
0000000000000000000000000000000000000000000000000000000000000000000000000000000000000000000000000000000000000000000000000000000000000000000000000000000000000000000000000000000000000000BFFF000000FFFFFF000000000000000000000000000000000000000000000000000000
310
000000000000000000000000000000000000000000000000000000000000000000000000000000000000000000000000000000000000000000000000000000000000000000000000000000000000000000000000000000000000FFFFFF00000000BFFF00000000000000000000000000000000000000000000000000000000
310
0000000000000000000000000000000000000000000000000000000000000000000000FFFFFF000000000000FFFFFFFFFFFF000000000000000000000000000000000000FFFFFF0000000000000000000000000000000000000000000000000000000000000000000000000000000000000000000000000000000000000000
310
0000000000000000000000000000000000000000000000000000000000000000000000000000000000000000000000000000000000000000000000000000000000000000000000000000000000000000000000000000000000000000000000BFFF000000FFFFFF000000000000000000000000000000000000000000000000
310
000000000000000000000000000000000000000000000000000000000000000000000000000000000000000000000000000000000000000000000000000000000000000000000000000000000000000000000000000000000000000000FFFFFF00000000BFFF00000000000000000000000000000000000000000000000000
310
0000000000000000000000000000000000000000000000000000000000000000000000000000FFFFFF000000FFFFFFFFFFFF000000000000000000000000000000000000000000FFFFFF0000000000000000000000000000000000000000000000000000000000000000000000000000000000000000000000000000000000
310
0000000000000000000000000000000000000000000000000000000000000000000000000000000000000000000000000000000000000000000000000000000000000000000000000000000000000000000000000000000000000000000000000000BFFF000000FFFFFF000000000000000000000000000000000000000000
310
000000000000000000000000000000000000000000000000000000000000000000000000000000000000000000000000000000000000000000000000000000000000000000000000000000000000000000000000000000000000000000000000FFFFFF00000000BFFF00000000000000000000000000000000000000000000
310
0000000000000000000000000000000000000000000000000000000000000000000000000000000000FFFFFFFFFFFFFFFFFF000000000000000000000000000000000000000000000000FFFFFF0000000000000000000000000000000000000000000000000000000000000000000000000000000000000000000000000000
310
0000000000000000000000000000000000000000000000000000000000000000000000000000000000000000000000000000000000000000000000000000000000000000000000000000000000000000000000000000000000000000000000000000000000BFFF000000FFFFFF000000000000000000000000000000000000
310
000000000000000000000000000000000000000000000000000000000000000000000000000000000000000000000000000000000000000000000000000000000000000000000000000000000000000000000000000000000000000000000000000000FFFFFF00000000BFFF00000000000000000000000000000000000000
310
0000000000000000000000000000000000000000000000000000000000000000000000000000000000000000FFFFFFFFFFFF000000000000000000000000000000000000000000000000000000FFFFFF0000000000000000000000000000000000000000000000000000000000000000000000000000000000000000000000
310
0000000000000000000000000000000000000000000000000000000000000000000000000000000000000000000000000000000000000000000000000000000000000000000000000000000000000000000000000000000000000000000000000000000000000000BFFF000000FFFFFF000000000000000000000000000000
310
000000000000000000000000000000000000000000000000000000000000000000000000000000000000000000000000000000000000000000000000000000000000000000000000000000000000000000000000000000000000000000000000000000000000FFFFFF00000000BFFF00000000000000000000000000000000
310
0000000000000000000000000000000000000000000000000000000000000000000000000000000000000000000000FFFFFF000000000000000000000000000000000000000000000000000000000000FFFFFF0000000000000000000000000000000000000000000000000000000000000000000000000000000000000000
310
0000000000000000000000000000000000000000000000000000000000000000000000000000000000000000000000000000000000000000000000000000000000000000000000000000000000000000000000000000000000000000000000000000000000000000000000BFFF000000FFFFFF000000000000000000000000
310
000000000000000000000000000000000000000000000000000000000000000000000000000000000000000000000000000000000000000000000000000000000000000000000000000000000000000000000000000000000000000000000000000000000000000000FFFFFF00000000BFFF00000000000000000000000000
310
0000000000000000000000000000000000000000000000000000000000000000000000000000000000000000000000000000FFFFFF000000000000000000000000000000000000000000000000000000000000FFFFFF0000000000000000000000000000000000000000000000000000000000000000000000000000000000
310
0000000000000000000000000000000000000000000000000000000000000000000000000000000000000000000000000000000000000000000000000000000000000000000000000000000000000000000000000000000000000000000000000000000000000000000000000000BFFF000000FFFFFF000000000000000000
310
000000000000000000000000000000000000000000000000000000000000000000000000000000000000000000000000000000000000000000000000000000000000000000000000000000000000000000000000000000000000000000000000000000000000000000000000FFFFFF00000000BFFF00000000000000000000
310
0000000000000000000000000000000000000000000000000000000000000000000000000000000000000000000000000000000000FFFFFF007299FFFFFF000000000000000000000000000000000000000000000000FFFFFF0000000000000000000000000000000000000000000000000000000000000000000000000000
310
0000000000000000000000000000000000000000000000000000000000000000000000000000000000000000000000000000000000000000000000000000000000000000000000000000000000000000000000000000000000000000000000000000000000000000000000000000000000BFFF000000FFFFFF000000000000
310
000000000000000000000000000000000000000000000000000000000000000000000000000000000000000000000000000000000000000000000000000000000000000000000000000000000000000000000000000000000000000000000000000000000000000000000000000000FFFFFF00000000BFFF00000000000000
310
0000000000000000000000000000000000000000000000000000000000000000000000000000000000000000000000000000000000FFFFFFFFFFFF007299FFFFFF000000000000000000007299000000000000000000000000FFFFFFFFFFFF0000000000000000000000000000000000000000000000000000000000000000
310
0000000000000000000000000000000000000000000000000000000000000000000000000000000000000000000000000000000000000000000000000000000000000000000000000000000000000000000000000000000000000000000000000000000000000000000000000000000000000000BFFF000000FFFFFF000000
310
000000000000000000000000000000000000000000000000000000000000000000000000000000000000000000000000000000000000000000000000000000000000000000000000000000000000000000000000000000000000000000000000000000000000000000000000000000000000FFFFFF00000000BFFF00000000
310
0000000000000000000000000000000000000000000000000000000000000000000000000000000000000000000000000000000000000000FFFFFFFFFFFF007299FFFFFF000000000000FFFFFFFFFFFF000000000000000000000000FFFFFFFFFFFF0000000000000000000000000000000000000000000000000000000000
310
0000000000000000000000000000000000000000000000000000000000000000000000000000000000000000000000000000000000000000000000000000000000000000000000000000000000000000000000000000000000000000000000000000000000000000000000000000000000000000000000BFFF000000FFFFFF
310
000000000000000000000000000000000000000000000000000000000000000000000000000000000000000000000000000000000000000000000000000000000000000000000000000000000000000000000000000000000000000000000000000000000000000000000000000000000000000000FFFFFF00000000BFFF00
310
0000000000000000000000000000000000000000000000000000000000000000000000000000000000000000000000000000000000000000000000FFFFFFFFFFFFFFFFFFFFFFFFFFFFFFFFFFFFFFFFFFFFFFFFFFFFFFFFFFFFFFFFFFFFFFFFFFFFFFFFFFFF0000000000000000000000000000000000000000000000000000
310
0000000000000000000000000000000000000000000000000000000000000000000000000000000000000000000000000000000000000000000000000000000000000000000000000000000000000000000000000000000000000000000000000000000000000000000000000000000000000000000000000000BFFF000000
310
FFFFFF000000000000000000000000000000000000000000000000000000000000000000000000000000000000000000000000000000000000000000000000000000000000000000000000000000000000000000000000000000000000000000000000000000000000000000000000000000000000000000FFFFFF00000000
310
BFFF000000000000000000000000000000000000000000000000000000000000000000000000000000000000000000000000000000000000000000000000FFFFFFFFFFFFFFFFFFFFFFFFFFFFFFFFFFFFFFFFFFFFFFFFFFFFFFFFFFFFFFFFFF000000FFFFFFFFFFFF0000000000000000000000000000000000000000000000
310
0000000000000000000000000000000000000000000000000000000000000000000000000000000000000000000000000000000000000000000000000000000000000000000000000000000000000000000000000000000000000000000000000000000000000000000000000000000000000000000000000000000000BFFF
310
000000FFFFFF000000000000000000000000000000000000000000000000000000000000000000000000000000000000000000000000000000000000000000000000000000000000000000000000000000000000000000000000000000000000000000000000000000000000000000000000000000000000000000FFFFFF00
310
000000BFFF000000000000000000000000000000000000000000000000000000000000000000000000000000000000000000000000000000000000000000000000FFFFFFFFFFFFFFFFFFFFFFFFFFFFFFFFFFFFFFFFFFFFFFFFFFFFFFFFFFFFFFFFFFFFFFFFFFFFFFFFFFFF0000000000000000000000000000000000000000
310
00000000000000000000000000000000000000000000000000000000000000000000000000000000000000000000000000000000000000000000000000000000000000000000000000000000000000000000000000000000000000000000000000000000000000000000000000000000000000000000000000000000000000
310
00BFFF000000FFFFFF000000000000000000000000000000000000000000000000000000000000000000000000000000000000000000000000000000000000000000000000000000000000000000000000000000000000000000000000000000000000000000000000000000000000000000000000000000000000000000FF
310
FFFF00000000BFFF000000000000000000000000000000000000000000000000000000000000000000000000000000000000000000FFFFFFFFFFFFFFFFFF000000FFFFFF000000FFFFFF000000FFFFFF000000FFFFFF000000000000000000000000000000000000000000000000FFFFFF0000000000000000000000000000
310
00000000000000000000000000000000000000000000000000000000000000000000000000000000000000000000000000000000000000000000000000000000000000000000000000000000000000000000000000000000000000000000000000000000000000000000000000000000000000000000000000000000000000
310
00000000BFFF000000FFFFFF00000000000000000000000000000000000000000000000000000000000000000000000000000000000000000000000000000000000000000000000000000000000000000000000000000000000000000000000000000000000000000000000000000000000000000000000000000000000000
310
0000FFFFFF00000000BFFF000000000000000000000000000000000000000000000000000000000000000000000000FFFFFFFFFFFFFFFFFFFFFFFFFFFFFFFFFFFF000000FFFFFFFFFFFF000000000000FFFFFF000000FFFFFF000000000000000000000000000000000000000000000000FFFFFF000000FFFFFFFFFFFFFFFF
310
FFFFFFFFFFFFFFFFFFFFFFFFFFFFFFFF000000000000000000000000000000000000000000000000000000000000000000000000000000000000000000000000000000000000000000000000000000000000000000000000000000000000000000000000000000000000000000000000000000000000000000000000000000
310
00000000000000BFFF000000FFFFFF00000000000000000000000000000000000000000000000000000000000000000000000000000000000000000000000000000000000000000000000000000000000000000000000000000000000000000000000000000000000000000000000000000000000000000000000000000000
310
0000000000FFFFFF00000000BFFF000000000000000000000000000000000000000000000000000000000000000000000000FFFFFFFFFFFFFFFFFFFFFFFFFFFFFFFFFFFFFFFFFF000000FFFFFF000000000000000000FFFFFF000000FFFFFF000000000000000000000000000000000000000000000000FFFFFFFFFFFFFFFF
310
FFFFFFFFFFFFFFFFFFFFFFFFFFFFFFFFFFFFFFFFFFFFFFFFFFFFFFFF000000000000000000000000000000000000000000000000000000000000000000000000000000000000000000000000000000000000000000000000000000000000000000000000000000000000000000000000000000000000000000000000000000
310
00000000000000000000BFFF000000FFFFFF00000000000000000000000000000000000000000000000000000000000000000000000000000000000000000000000000000000000000000000000000000000000000000000000000000000000000000000000000000000000000000000000000000000000000000000000000
310
0000000000000000FFFFFF00000000BFFF000000000000000000000000000000000000000000000000000000000000000000000000000000000000000000000000000000000000000000FFFFFF000000000000000000000000FFFFFF000000FFFFFFFFFFFFFFFFFFFFFFFFFFFFFFFFFFFFFFFFFFFFFFFF000000000000FFFF
310
FFFFFFFFFFFFFFFFFFFFFFFFFFFFFFFFFFFFFFFFFFFFFFFFFFFFFFFFFFFFFF000000000000000000000000000000000000000000000000000000000000000000000000000000000000000000000000000000000000000000000000000000000000000000000000000000000000000000000000000000000000000000000000
310
00000000000000000000000000BFFF000000FFFFFF00000000000000000000000000000000000000000000000000000000000000000000000000000000000000000000000000000000000000000000000000000000000000000000000000000000000000000000000000000000000000000000000000000000000000000000
310
0000000000000000000000FFFFFF00000000BFFF000000000000000000000000000000000000000000000000000000000000000000000000000000000000FFFFFFFFFFFFFFFFFFFFFFFFFFFFFFFFFFFF000000000000000000000000000000FFFFFFFFFFFFFFFFFFFFFFFFFFFFFFFFFFFF0000000000000000000000000000
310
00000000000000000000000000000000000000000000000000000000000000000000000000000000000000000000000000000000000000000000000000000000000000000000000000000000000000000000000000000000000000000000000000000000000000000000000000000000000000000000000000000000000000
310
00000000000000000000000000000000BFFF000000FFFFFF00000000000000000000000000000000000000000000000000000000000000000000000000000000000000000000000000000000000000000000000000000000000000000000000000000000000000000000000000000000000000000000000000000000000000
310
0000000000000000000000000000FFFFFF00000000BFFF000000000000000000000000000000000000000000000000000000000000000000000000000000000000000000000000000000000000000000000000000000000000000000000000000000000000FFFFFFFFFFFFFFFFFFFFFFFFFFFFFF0000000000000000000000
310
00000000000000000000000000000000000000000000000000000000000000000000000000000000000000000000000000000000000000000000000000000000000000000000000000000000000000000000000000000000000000000000000000000000000000000000000000000000000000000000000000000000000000
310
00000000000000000000000000000000000000BFFF000000FFFFFF00000000000000000000000000000000000000000000000000000000000000000000000000000000000000000000000000000000000000000000000000000000000000000000000000000000000000000000000000000000000000000000000000000000
310
0000000000000000000000000000000000FFFFFF00000000BFFF0000000000000000000000000000000000000000000000000000000000000000000000000000000000000000000000000000000000000000000000000000000000000000000000000000000000000000000000000000000000000000000000000000000000
310
00000000000000000000000000000000000000000000000000000000000000000000000000000000000000000000000000000000000000000000000000000000000000000000000000000000000000000000000000000000000000000000000000000000000000000000000000000000000000000000000000000000000000
310
00000000000000000000000000000000000000000000BFFF000000FFFFFF00000000000000000000000000000000000000000000000000000000000000000000000000000000000000000000000000000000000000000000000000000000000000000000000000000000000000000000000000000000000000000000000000
310
0000000000000000000000000000000000000000FFFFFF00000000BFFF0000000000000000000000000000000000000000000000000000000000000000000000000000000000000000000000000000000000000000000000000000000000000000000000000000000000000000000000000000000000000000000000000000
310
00000000000000000000000000000000000000000000000000000000000000000000000000000000000000000000000000000000000000000000000000000000000000000000000000000000000000000000000000000000000000000000000000000000000000000000000000000000000000000000000000000000000000
310
00000000000000000000000000000000000000000000000000BFFF000000FFFFFF00000000000000000000000000000000000000000000000000000000000000000000000000000000000000000000000000000000000000000000000000000000000000000000000000000000000000000000000000000000000000000000
310
0000000000000000000000000000000000000000000000FFFFFF00000000BFFF0000000000000000000000000000000000000000000000000000000000000000000000000000000000000000000000000000000000000000000000000000000000000000000000000000000000000000000000000000000000000000000000
310
00000000000000000000000000000000000000000000000000000000000000000000000000000000000000000000000000000000000000000000000000000000000000000000000000000000000000000000000000000000000000000000000000000000000000000000000000000000000000000000000000000000000000
310
00000000000000000000000000000000000000000000000000000000BFFF000000FFFFFF00000000000000000000000000000000000000000000000000000000000000000000000000000000000000000000000000000000000000000000000000000000000000000000000000000000000000000000000000000000000000
310
0000000000000000000000000000000000000000000000000000FFFFFF00000000BFFF00BFFF00BFFF00BFFF00BFFF00BFFF00BFFF00BFFF00BFFF00BFFF00BFFF00BFFF00BFFF00BFFF00BFFF00BFFF00BFFF00BFFF00BFFF00BFFF00BFFF00BFFF00BFFF00BFFF00BFFF00BFFF00BFFF00BFFF00BFFF00BFFF00BFFF00BF
310
FF00BFFF00BFFF00BFFF00BFFF00BFFF00BFFF00BFFF00BFFF00BFFF00BFFF00BFFF00BFFF00BFFF00BFFF00BFFF00BFFF00BFFF00BFFF00BFFF00BFFF00BFFF00BFFF00BFFF00BFFF00BFFF00BFFF00BFFF00BFFF00BFFF00BFFF00BFFF00BFFF00BFFF00BFFF00BFFF00BFFF00BFFF00BFFF00BFFF00BFFF00BFFF00BFFF
310
00BFFF00BFFF00BFFF00BFFF00BFFF00BFFF00BFFF00BFFF00BFFF00BFFF00BFFF000000FFFFFF00000000000000000000000000000000000000000000000000000000000000000000000000000000000000000000000000000000000000000000000000000000000000000000000000000000000000000000000000000000
310
0000000000000000000000000000000000000000000000000000000000FFFFFF0000000000000000000000000000000000000000000000000000000000000000000000000000000000000000000000000000000000000000000000000000000000000000000000000000000000000000000000000000000000000000000000
310
00000000000000000000000000000000000000000000000000000000000000000000000000000000000000000000000000000000000000000000000000000000000000000000000000000000000000000000000000000000000000000000000000000000000000000000000000000000000000000000000000000000000000
310
000000000000000000000000000000000000000000000000000000000000000000000000000000FFFFFF00000000000000000000000000000000000000000000000000000000000000000000000000000000000000000000000000000000000000000000000000000000000000000000000000000000000000000000000000
310
0000000000000000000000000000000000000000000000000000000000000000FFFFFFFFFFFFFFFFFFFFFFFFFFFFFFFFFFFFFFFFFFFFFFFFFFFFFFFFFFFFFFFFFFFFFFFFFFFFFFFFFFFFFFFFFFFFFFFFFFFFFFFFFFFFFFFFFFFFFFFFFFFFFFFFFFFFFFFFFFFFFFFFFFFFFFFFFFFFFFFFFFFFFFFFFFFFFFFFFFFFFFFFFFFFFF
310
FFFFFFFFFFFFFFFFFFFFFFFFFFFFFFFFFFFFFFFFFFFFFFFFFFFFFFFFFFFFFFFFFFFFFFFFFFFFFFFFFFFFFFFFFFFFFFFFFFFFFFFFFFFFFFFFFFFFFFFFFFFFFFFFFFFFFFFFFFFFFFFFFFFFFFFFFFFFFFFFFFFFFFFFFFFFFFFFFFFFFFFFFFFFFFFFFFFFFFFFFFFFFFFFFFFFFFFFFFFFFFFFFFFFFFFFFFFFFFFFFFFFFFFFFFFFFF
310
FFFFFFFFFFFFFFFFFFFFFFFFFFFFFFFFFFFFFFFFFFFFFFFFFFFFFFFFFFFFFFFFFFFFFFFFFFFFFFFFFFFFFFFFFF00000000000000000000000000000000000000000000000000000000000000000000000000000000000000000000000000000000000000000000000000000000000000000000000000000000000000000000
310
00000000000000000000000000000000000000000000000000000000000000000000000000000000000000000000000000000000000000000000000000000000000000000000000000000000000000000000000000000000000000000000000000000000000000000000000000000000000000000000000000000000000000
310
00000000000000000000000000000000000000000000000000000000000000000000000000000000000000000000000000000000000000000000000000000000000000000000000000000000000000000000000000000000000000000000000000000000000000000000000000000000000000000000000000000000000000
310
000000000000000000000000000000000000000000000000000000000000000000000000000000000000000000000000000000000000000000000000000000000000000000000000000000000000000000000000000000000000000000000000000000000000000000
  0
ENDSEC
  0
EOF
