  0
SECTION
  2
HEADER
  9
$ACADVER
  1
AC1024
  9
$ACADMAINTVER
 70
     6
  9
$DWGCODEPAGE
  3
DOS932
  9
$LASTSAVEDBY
  1
HRC747U
  9
$INSBASE
 10
0.0
 20
0.0
 30
0.0
  9
$EXTMIN
 10
0.0
 20
0.0
 30
0.0
  9
$EXTMAX
 10
1680.0
 20
1188.0
 30
0.0
  9
$LIMMIN
 10
0.0
 20
0.0
  9
$LIMMAX
 10
420.0
 20
297.0
  9
$ORTHOMODE
 70
     0
  9
$REGENMODE
 70
     1
  9
$FILLMODE
 70
     1
  9
$QTEXTMODE
 70
     0
  9
$MIRRTEXT
 70
     1
  9
$LTSCALE
 40
10.0
  9
$ATTMODE
 70
     1
  9
$TEXTSIZE
 40
0.0
  9
$TRACEWID
 40
0.05
  9
$TEXTSTYLE
  7
STANDARD
  9
$CLAYER
  8
0
  9
$CELTYPE
  6
BYLAYER
  9
$CECOLOR
 62
   256
  9
$CELTSCALE
 40
1.0
  9
$DISPSILH
 70
     0
  9
$DIMSCALE
 40
1.0
  9
$DIMASZ
 40
0.18
  9
$DIMEXO
 40
0.0625
  9
$DIMDLI
 40
0.38
  9
$DIMRND
 40
0.0
  9
$DIMDLE
 40
0.0
  9
$DIMEXE
 40
0.18
  9
$DIMTP
 40
0.0
  9
$DIMTM
 40
0.0
  9
$DIMTXT
 40
0.18
  9
$DIMCEN
 40
0.09
  9
$DIMTSZ
 40
0.0
  9
$DIMTOL
 70
     0
  9
$DIMLIM
 70
     0
  9
$DIMTIH
 70
     1
  9
$DIMTOH
 70
     1
  9
$DIMSE1
 70
     0
  9
$DIMSE2
 70
     0
  9
$DIMTAD
 70
     0
  9
$DIMZIN
 70
     0
  9
$DIMBLK
  1

  9
$DIMASO
 70
     1
  9
$DIMSHO
 70
     1
  9
$DIMPOST
  1

  9
$DIMAPOST
  1

  9
$DIMALT
 70
     0
  9
$DIMALTD
 70
     2
  9
$DIMALTF
 40
25.4
  9
$DIMLFAC
 40
1.0
  9
$DIMTOFL
 70
     0
  9
$DIMTVP
 40
0.0
  9
$DIMTIX
 70
     0
  9
$DIMSOXD
 70
     0
  9
$DIMSAH
 70
     0
  9
$DIMBLK1
  1

  9
$DIMBLK2
  1

  9
$DIMSTYLE
  2
STANDARD
  9
$DIMCLRD
 70
     0
  9
$DIMCLRE
 70
     0
  9
$DIMCLRT
 70
     0
  9
$DIMTFAC
 40
1.0
  9
$DIMGAP
 40
0.09
  9
$DIMJUST
 70
     0
  9
$DIMSD1
 70
     0
  9
$DIMSD2
 70
     0
  9
$DIMTOLJ
 70
     1
  9
$DIMTZIN
 70
     0
  9
$DIMALTZ
 70
     0
  9
$DIMALTTZ
 70
     0
  9
$DIMUPT
 70
     0
  9
$DIMDEC
 70
     4
  9
$DIMTDEC
 70
     4
  9
$DIMALTU
 70
     2
  9
$DIMALTTD
 70
     2
  9
$DIMTXSTY
  7
STANDARD
  9
$DIMAUNIT
 70
     0
  9
$DIMADEC
 70
     0
  9
$DIMALTRND
 40
0.0
  9
$DIMAZIN
 70
     0
  9
$DIMDSEP
 70
    46
  9
$DIMATFIT
 70
     3
  9
$DIMFRAC
 70
     0
  9
$DIMLDRBLK
  1

  9
$DIMLUNIT
 70
     2
  9
$DIMLWD
 70
    -2
  9
$DIMLWE
 70
    -2
  9
$DIMTMOVE
 70
     2
  9
$DIMFXL
 40
1.0
  9
$DIMFXLON
 70
     0
  9
$DIMJOGANG
 40
0.785398163397
  9
$DIMTFILL
 70
     0
  9
$DIMTFILLCLR
 70
     0
  9
$DIMARCSYM
 70
     0
  9
$DIMLTYPE
  6

  9
$DIMLTEX1
  6

  9
$DIMLTEX2
  6

  9
$DIMTXTDIRECTION
 70
     0
  9
$LUNITS
 70
     2
  9
$LUPREC
 70
     8
  9
$SKETCHINC
 40
0.1
  9
$FILLETRAD
 40
0.0
  9
$AUNITS
 70
     0
  9
$AUPREC
 70
     0
  9
$MENU
  1
acad
  9
$ELEVATION
 40
0.0
  9
$PELEVATION
 40
0.0
  9
$THICKNESS
 40
0.0
  9
$LIMCHECK
 70
     0
  9
$CHAMFERA
 40
0.0
  9
$CHAMFERB
 40
0.0
  9
$CHAMFERC
 40
0.0
  9
$CHAMFERD
 40
0.0
  9
$SKPOLY
 70
     0
  9
$TDCREATE
 40
2455154.62412037
  9
$TDUCREATE
 40
2455154.24912037
  9
$TDUPDATE
 40
2460104.691374433
  9
$TDUUPDATE
 40
2460104.316374433
  9
$TDINDWG
 40
0.0047726736
  9
$TDUSRTIMER
 40
0.0047726736
  9
$USRTIMER
 70
     1
  9
$ANGBASE
 50
0.0
  9
$ANGDIR
 70
     0
  9
$PDMODE
 70
     0
  9
$PDSIZE
 40
0.0
  9
$PLINEWID
 40
0.0
  9
$SPLFRAME
 70
     0
  9
$SPLINETYPE
 70
     6
  9
$SPLINESEGS
 70
     8
  9
$HANDSEED
  5
19DB
  9
$SURFTAB1
 70
     6
  9
$SURFTAB2
 70
     6
  9
$SURFTYPE
 70
     6
  9
$SURFU
 70
     6
  9
$SURFV
 70
     6
  9
$UCSBASE
  2

  9
$UCSNAME
  2

  9
$UCSORG
 10
0.0
 20
0.0
 30
0.0
  9
$UCSXDIR
 10
1.0
 20
0.0
 30
0.0
  9
$UCSYDIR
 10
0.0
 20
1.0
 30
0.0
  9
$UCSORTHOREF
  2

  9
$UCSORTHOVIEW
 70
     0
  9
$UCSORGTOP
 10
0.0
 20
0.0
 30
0.0
  9
$UCSORGBOTTOM
 10
0.0
 20
0.0
 30
0.0
  9
$UCSORGLEFT
 10
0.0
 20
0.0
 30
0.0
  9
$UCSORGRIGHT
 10
0.0
 20
0.0
 30
0.0
  9
$UCSORGFRONT
 10
0.0
 20
0.0
 30
0.0
  9
$UCSORGBACK
 10
0.0
 20
0.0
 30
0.0
  9
$PUCSBASE
  2

  9
$PUCSNAME
  2

  9
$PUCSORG
 10
0.0
 20
0.0
 30
0.0
  9
$PUCSXDIR
 10
1.0
 20
0.0
 30
0.0
  9
$PUCSYDIR
 10
0.0
 20
1.0
 30
0.0
  9
$PUCSORTHOREF
  2

  9
$PUCSORTHOVIEW
 70
     0
  9
$PUCSORGTOP
 10
0.0
 20
0.0
 30
0.0
  9
$PUCSORGBOTTOM
 10
0.0
 20
0.0
 30
0.0
  9
$PUCSORGLEFT
 10
0.0
 20
0.0
 30
0.0
  9
$PUCSORGRIGHT
 10
0.0
 20
0.0
 30
0.0
  9
$PUCSORGFRONT
 10
0.0
 20
0.0
 30
0.0
  9
$PUCSORGBACK
 10
0.0
 20
0.0
 30
0.0
  9
$USERI1
 70
     0
  9
$USERI2
 70
     0
  9
$USERI3
 70
     0
  9
$USERI4
 70
     0
  9
$USERI5
 70
     0
  9
$USERR1
 40
0.0
  9
$USERR2
 40
0.0
  9
$USERR3
 40
0.0
  9
$USERR4
 40
0.0
  9
$USERR5
 40
0.0
  9
$WORLDVIEW
 70
     1
  9
$SHADEDGE
 70
     3
  9
$SHADEDIF
 70
    70
  9
$TILEMODE
 70
     1
  9
$MAXACTVP
 70
    16
  9
$PINSBASE
 10
0.0
 20
0.0
 30
0.0
  9
$PLIMCHECK
 70
     0
  9
$PEXTMIN
 10
1.000000000000E+20
 20
1.000000000000E+20
 30
1.000000000000E+20
  9
$PEXTMAX
 10
-1.000000000000E+20
 20
-1.000000000000E+20
 30
-1.000000000000E+20
  9
$PLIMMIN
 10
0.0
 20
0.0
  9
$PLIMMAX
 10
12.0
 20
9.0
  9
$UNITMODE
 70
     0
  9
$VISRETAIN
 70
     0
  9
$PLINEGEN
 70
     1
  9
$PSLTSCALE
 70
     0
  9
$TREEDEPTH
 70
  3020
  9
$CMLSTYLE
  2
STANDARD
  9
$CMLJUST
 70
     0
  9
$CMLSCALE
 40
1.0
  9
$PROXYGRAPHICS
 70
     0
  9
$MEASUREMENT
 70
     0
  9
$CELWEIGHT
370
    -1
  9
$ENDCAPS
280
     0
  9
$JOINSTYLE
280
     0
  9
$LWDISPLAY
290
     0
  9
$INSUNITS
 70
     0
  9
$HYPERLINKBASE
  1

  9
$STYLESHEET
  1

  9
$XEDIT
290
     1
  9
$CEPSNTYPE
380
     0
  9
$PSTYLEMODE
290
     1
  9
$FINGERPRINTGUID
  2
{f8f10254-f7f4-428e-8301-585654336388}
  9
$VERSIONGUID
  2
{FAEB1C32-E019-11D5-929B-00C0DF256EC4}
  9
$EXTNAMES
290
     1
  9
$PSVPSCALE
 40
0.0
  9
$OLESTARTUP
290
     0
  9
$SORTENTS
280
   127
  9
$INDEXCTL
280
     0
  9
$HIDETEXT
280
     1
  9
$XCLIPFRAME
280
     2
  9
$HALOGAP
280
     0
  9
$OBSCOLOR
 70
   257
  9
$OBSLTYPE
280
     0
  9
$INTERSECTIONDISPLAY
280
     0
  9
$INTERSECTIONCOLOR
 70
   257
  9
$DIMASSOC
280
     2
  9
$PROJECTNAME
  1

  9
$CAMERADISPLAY
290
     0
  9
$LENSLENGTH
 40
50.0
  9
$CAMERAHEIGHT
 40
0.0
  9
$STEPSPERSEC
 40
24.0
  9
$STEPSIZE
 40
2.0
  9
$3DDWFPREC
 40
2.0
  9
$PSOLWIDTH
 40
0.25
  9
$PSOLHEIGHT
 40
4.0
  9
$LOFTANG1
 40
1.570796326795
  9
$LOFTANG2
 40
1.570796326795
  9
$LOFTMAG1
 40
0.0
  9
$LOFTMAG2
 40
0.0
  9
$LOFTPARAM
 70
     7
  9
$LOFTNORMALS
280
     1
  9
$LATITUDE
 40
37.795
  9
$LONGITUDE
 40
-122.394
  9
$NORTHDIRECTION
 40
0.0
  9
$TIMEZONE
 70
 -8000
  9
$LIGHTGLYPHDISPLAY
280
     1
  9
$TILEMODELIGHTSYNCH
280
     1
  9
$CMATERIAL
347
15E5
  9
$SOLIDHIST
280
     0
  9
$SHOWHIST
280
     1
  9
$DWFFRAME
280
     2
  9
$DGNFRAME
280
     2
  9
$REALWORLDSCALE
290
     1
  9
$INTERFERECOLOR
 62
   256
  9
$CSHADOW
280
     0
  9
$SHADOWPLANELOCATION
 40
0.0
  0
ENDSEC
  0
SECTION
  2
CLASSES
  0
CLASS
  1
LWPOLYLINE
  2
AcDbPolyline
  3
ObjectDBX Classes
 90
        0
 91
        1
280
     0
281
     1
  0
CLASS
  1
IMAGE
  2
AcDbRasterImage
  3
ISM
 90
      127
 91
        5
280
     0
281
     1
  0
CLASS
  1
OLE2FRAME
  2
AcDbOle2Frame
  3
ObjectDBX Classes
 90
        0
 91
        1
280
     0
281
     1
  0
CLASS
  1
HATCH
  2
AcDbHatch
  3
ObjectDBX Classes
 90
        0
 91
        1
280
     0
281
     1
  0
CLASS
  1
DICTIONARYVAR
  2
AcDbDictionaryVar
  3
ObjectDBX Classes
 90
        0
 91
        3
280
     0
281
     0
  0
CLASS
  1
RASTERVARIABLES
  2
AcDbRasterVariables
  3
ISM
 90
        0
 91
        3
280
     0
281
     0
  0
CLASS
  1
IMAGEDEF
  2
AcDbRasterImageDef
  3
ISM
 90
        0
 91
        3
280
     0
281
     0
  0
CLASS
  1
IMAGEDEF_REACTOR
  2
AcDbRasterImageDefReactor
  3
ISM
 90
        1
 91
        3
280
     0
281
     0
  0
CLASS
  1
IDBUFFER
  2
AcDbIdBuffer
  3
ObjectDBX Classes
 90
        0
 91
        3
280
     0
281
     0
  0
CLASS
  1
SPATIAL_FILTER
  2
AcDbSpatialFilter
  3
ObjectDBX Classes
 90
        0
 91
        3
280
     0
281
     0
  0
CLASS
  1
XRECORD
  2
AcDbXrecord
  3
ObjectDBX Classes
 90
        0
 91
        1
280
     0
281
     0
  0
CLASS
  1
SORTENTSTABLE
  2
AcDbSortentsTable
  3
ObjectDBX Classes
 90
        0
 91
        3
280
     0
281
     0
  0
CLASS
  1
LAYER_INDEX
  2
AcDbLayerIndex
  3
ObjectDBX Classes
 90
        0
 91
        3
280
     0
281
     0
  0
CLASS
  1
SPATIAL_INDEX
  2
AcDbSpatialIndex
  3
AutoCAD 2000
 90
        0
 91
        3
280
     0
281
     0
  0
CLASS
  1
OBJECT_PTR
  2
CAseDLPNTableRecord
  3
ASE-LPNTableRecord
 90
        1
 91
        3
280
     0
281
     0
  0
CLASS
  1
ACDBDICTIONARYWDFLT
  2
AcDbDictionaryWithDefault
  3
ObjectDBX Classes
 90
        0
 91
        3
280
     0
281
     0
  0
CLASS
  1
SCALE
  2
AcDbScale
  3
ObjectDBX Classes
 90
     1153
 91
        3
280
     0
281
     0
  0
CLASS
  1
VISUALSTYLE
  2
AcDbVisualStyle
  3
ObjectDBX Classes
 90
     4095
 91
        3
280
     0
281
     0
  0
CLASS
  1
MATERIAL
  2
AcDbMaterial
  3
ObjectDBX Classes
 90
     1153
 91
        3
280
     0
281
     0
  0
CLASS
  1
TABLESTYLE
  2
AcDbTableStyle
  3
ObjectDBX Classes
 90
     4095
 91
        3
280
     0
281
     0
  0
CLASS
  1
MLEADERSTYLE
  2
AcDbMLeaderStyle
  3
ACDB_MLEADERSTYLE_CLASS
 90
     4095
 91
        3
280
     0
281
     0
  0
CLASS
  1
SUN
  2
AcDbSun
  3
SCENEOE
 90
     1153
 91
        3
280
     0
281
     0
  0
CLASS
  1
CELLSTYLEMAP
  2
AcDbCellStyleMap
  3
ObjectDBX Classes
 90
     1152
 91
        3
280
     0
281
     0
  0
CLASS
  1
ACAD_TABLE
  2
AcDbTable
  3
ObjectDBX Classes
 90
     1025
 91
        3
280
     0
281
     1
  0
CLASS
  1
TABLECONTENT
  2
AcDbTableContent
  3
ObjectDBX Classes
 90
     1152
 91
        4
280
     0
281
     0
  0
CLASS
  1
TABLEGEOMETRY
  2
AcDbTableGeometry
  3
ObjectDBX Classes
 90
     1152
 91
        3
280
     0
281
     0
  0
CLASS
  1
FIELDLIST
  2
AcDbFieldList
  3
ObjectDBX Classes
 90
     1152
 91
        3
280
     0
281
     0
  0
ENDSEC
  0
SECTION
  2
TABLES
  0
TABLE
  2
VPORT
  5
7
330
0
100
AcDbSymbolTable
 70
     1
  0
VPORT
  5
15
330
7
100
AcDbSymbolTableRecord
100
AcDbViewportTableRecord
  2
*ACTIVE
 70
     0
 10
0.0
 20
0.0
 11
1.0
 21
1.0
 12
840.0
 22
594.0
 13
0.0
 23
0.0
 14
1.0
 24
1.0
 15
0.0
 25
0.0
 16
0.0
 26
0.0
 36
1.0
 17
0.0
 27
0.0
 37
0.0
 40
1211.76
 41
1.998180163785
 42
50.0
 43
0.0
 44
0.0
 50
0.0
 51
0.0
 71
    16
 72
   100
 73
     1
 74
     1
 75
     0
 76
     0
 77
     0
 78
     0
281
     0
 65
     1
110
0.0
120
0.0
130
0.0
111
1.0
121
0.0
131
0.0
112
0.0
122
1.0
132
0.0
 79
     0
146
0.0
348
15D0
 60
     3
 61
     5
292
     0
282
     1
141
0.0
142
0.0
 63
   250
421
  3355443
361
15ED
  0
ENDTAB
  0
TABLE
  2
LTYPE
  5
4
330
0
100
AcDbSymbolTable
 70
     4
  0
LTYPE
  5
11
330
4
100
AcDbSymbolTableRecord
100
AcDbLinetypeTableRecord
  2
BYBLOCK
 70
     0
  3

 72
    65
 73
     0
 40
0.0
  0
LTYPE
  5
12
330
4
100
AcDbSymbolTableRecord
100
AcDbLinetypeTableRecord
  2
BYLAYER
 70
     0
  3

 72
    65
 73
     0
 40
0.0
  0
LTYPE
  5
13
330
4
100
AcDbSymbolTableRecord
100
AcDbLinetypeTableRecord
  2
CONTINUOUS
 70
     0
  3
Solid line
 72
    65
 73
     0
 40
0.0
  0
LTYPE
  5
103D
330
4
100
AcDbSymbolTableRecord
100
AcDbLinetypeTableRecord
  2
DASHED
 70
     0
  3
__ __ __ __ __ __ __ __ __ __ __ __ _
 72
    65
 73
     2
 40
0.75
 49
0.5
 74
     0
 49
-0.25
 74
     0
  0
LTYPE
  5
144A
330
4
100
AcDbSymbolTableRecord
100
AcDbLinetypeTableRecord
  2
CENTER
 70
     0
  3
____ _ ____ _ ____ _ ____ _ ____ _ __
 72
    65
 73
     4
 40
2.0
 49
1.25
 74
     0
 49
-0.25
 74
     0
 49
0.25
 74
     0
 49
-0.25
 74
     0
  0
LTYPE
  5
1642
330
4
100
AcDbSymbolTableRecord
100
AcDbLinetypeTableRecord
  2
HIDDEN
 70
     0
  3
__ __ __ __ __ __ __ __ __ __ __ __ __ __ __ __
 72
    65
 73
     2
 40
0.375
 49
0.25
 74
     0
 49
-0.125
 74
     0
  0
ENDTAB
  0
TABLE
  2
LAYER
  5
2
102
{ACAD_XDICTIONARY
360
17ED
102
}
330
0
100
AcDbSymbolTable
 70
    19
  0
LAYER
  5
14
330
2
100
AcDbSymbolTableRecord
100
AcDbLayerTableRecord
  2
0
 70
     0
 62
     7
  6
CONTINUOUS
370
    -3
390
15A5
347
15E7
  0
LAYER
  5
163D
102
{ACAD_XDICTIONARY
360
163E
102
}
330
2
100
AcDbSymbolTableRecord
100
AcDbLayerTableRecord
  2
寸法線
 70
     0
 62
     7
  6
CONTINUOUS
370
     9
390
15A5
347
15E7
  0
LAYER
  5
1641
330
2
100
AcDbSymbolTableRecord
100
AcDbLayerTableRecord
  2
仮想線
 70
     0
 62
    44
  6
HIDDEN
290
     0
370
     5
390
15A5
347
15E7
1001
AcAecLayerStandard
1000

1000

1001
AcCmTransparency
1071
        0
  0
LAYER
  5
1645
330
2
100
AcDbSymbolTableRecord
100
AcDbLayerTableRecord
  2
表題欄
 70
     0
 62
     7
  6
CONTINUOUS
370
     9
390
15A5
347
15E7
1001
AcAecLayerStandard
1000

1000

1001
AcCmTransparency
1071
        0
  0
LAYER
  5
1646
330
2
100
AcDbSymbolTableRecord
100
AcDbLayerTableRecord
  2
輪郭線
 70
     0
 62
    40
  6
CONTINUOUS
370
    15
390
15A5
347
15E7
1001
AcAecLayerStandard
1000

1000

1001
AcCmTransparency
1071
        0
  0
LAYER
  5
1647
330
2
100
AcDbSymbolTableRecord
100
AcDbLayerTableRecord
  2
文字
 70
     0
 62
     7
  6
CONTINUOUS
370
     9
390
15A5
347
15E7
1001
AcAecLayerStandard
1000

1000

1001
AcCmTransparency
1071
        0
  0
LAYER
  5
1648
330
2
100
AcDbSymbolTableRecord
100
AcDbLayerTableRecord
  2
構築線
 70
     0
 62
     1
  6
CONTINUOUS
290
     0
370
     0
390
15A5
347
15E7
1001
AcAecLayerStandard
1000

1000

1001
AcCmTransparency
1071
        0
  0
LAYER
  5
1649
330
2
100
AcDbSymbolTableRecord
100
AcDbLayerTableRecord
  2
図面枠
 70
     0
 62
     7
  6
CONTINUOUS
290
     0
370
     9
390
15A5
347
15E7
1001
AcAecLayerStandard
1000

1000

1001
AcCmTransparency
1071
        0
  0
LAYER
  5
164A
102
{ACAD_XDICTIONARY
360
164B
102
}
330
2
100
AcDbSymbolTableRecord
100
AcDbLayerTableRecord
  2
部材(積層鋼板)
 70
     0
 62
     7
  6
CONTINUOUS
370
    15
390
15A5
347
15E7
1001
AcAecLayerStandard
1000

1000

  0
LAYER
  5
164D
330
2
100
AcDbSymbolTableRecord
100
AcDbLayerTableRecord
  2
中心線
 70
     0
 62
    44
  6
CENTER
370
     5
390
15A5
347
15E7
1001
AcAecLayerStandard
1000

1000

1001
AcCmTransparency
1071
        0
  0
LAYER
  5
164F
330
2
100
AcDbSymbolTableRecord
100
AcDbLayerTableRecord
  2
ブチルﾃｰﾌﾟ
 70
     0
 62
     7
  6
CONTINUOUS
370
     9
390
15A5
347
15E7
1001
AcAecLayerStandard
1000

1000

1001
AcCmTransparency
1071
        0
  0
LAYER
  5
1650
330
2
100
AcDbSymbolTableRecord
100
AcDbLayerTableRecord
  2
躯体
 70
     0
 62
     7
  6
CONTINUOUS
370
    13
390
15A5
347
15E7
1001
AcAecLayerStandard
1000

1000

1001
AcCmTransparency
1071
        0
  0
LAYER
  5
1651
330
2
100
AcDbSymbolTableRecord
100
AcDbLayerTableRecord
  2
IBｼｰﾄ
 70
     0
 62
     7
  6
CONTINUOUS
370
    18
390
15A5
347
15E7
1001
AcAecLayerStandard
1000

1000

1001
AcCmTransparency
1071
        0
  0
LAYER
  5
1652
330
2
100
AcDbSymbolTableRecord
100
AcDbLayerTableRecord
  2
IBリキッド
 70
     0
 62
     7
  6
CONTINUOUS
370
    13
390
15A5
347
15E7
1001
AcAecLayerStandard
1000

1000

1001
AcCmTransparency
1071
        0
  0
LAYER
  5
1653
330
2
100
AcDbSymbolTableRecord
100
AcDbLayerTableRecord
  2
部材(ﾋﾞｽ類)
 70
     0
 62
     7
  6
CONTINUOUS
370
    13
390
15A5
347
15E7
1001
AcAecLayerStandard
1000

1000

1001
AcCmTransparency
1071
        0
  0
LAYER
  5
1654
330
2
100
AcDbSymbolTableRecord
100
AcDbLayerTableRecord
  2
シーリング(IBｼﾘｺｰﾝ)
 70
     0
 62
     7
  6
CONTINUOUS
370
    13
390
15A5
347
15E7
1001
AcAecLayerStandard
1000

1000

1001
AcCmTransparency
1071
        0
  0
LAYER
  5
1655
330
2
100
AcDbSymbolTableRecord
100
AcDbLayerTableRecord
  2
緩衝フォーム
 70
     0
 62
     7
  6
CONTINUOUS
370
     9
390
15A5
347
15E7
1001
AcAecLayerStandard
1000

1000

1001
AcCmTransparency
1071
        0
  0
LAYER
  5
1656
330
2
100
AcDbSymbolTableRecord
100
AcDbLayerTableRecord
  2
塗膜(N-300)
 70
     0
 62
    32
  6
CONTINUOUS
370
    13
390
15A5
347
15E7
1001
AcAecLayerStandard
1000

1000

1001
AcCmTransparency
1071
        0
  0
LAYER
  5
17FA
330
2
100
AcDbSymbolTableRecord
100
AcDbLayerTableRecord
  2
Defpoints
 70
     0
 62
     7
  6
CONTINUOUS
290
     0
370
    -3
390
15A5
347
15E7
  0
ENDTAB
  0
TABLE
  2
STYLE
  5
3
330
0
100
AcDbSymbolTable
 70
     4
  0
STYLE
  5
17
330
3
100
AcDbSymbolTableRecord
100
AcDbTextStyleTableRecord
  2
STANDARD
 70
     0
 40
0.0
 41
1.0
 50
0.0
 71
     0
 42
0.0
  3
txt
  4
BIGFONT
  0
STYLE
  5
1E
330
3
100
AcDbSymbolTableRecord
100
AcDbTextStyleTableRecord
  2
TATEGAKI
 70
     4
 40
0.0
 41
1.0
 50
0.0
 71
     0
 42
0.0
  3
txt
  4
BIGFONT
  0
STYLE
  5
165B
330
3
100
AcDbSymbolTableRecord
100
AcDbTextStyleTableRecord
  2
基本スタイル
 70
     0
 40
0.0
 41
1.0
 50
0.0
 71
     0
 42
0.0
  3
msgothic.ttc
  4

1001
ACAD
1000
MS Gothic
1071
    32817
  0
STYLE
  5
165C
330
3
100
AcDbSymbolTableRecord
100
AcDbTextStyleTableRecord
  2
ＭＳ ゴシック
 70
     0
 40
6.0
 41
1.0
 50
0.0
 71
     0
 42
0.0
  3
msgothic.ttc
  4

1001
ACAD
1000
MS Gothic
1071
    32817
  0
ENDTAB
  0
TABLE
  2
VIEW
  5
5
330
0
100
AcDbSymbolTable
 70
     0
  0
ENDTAB
  0
TABLE
  2
UCS
  5
6
330
0
100
AcDbSymbolTable
 70
     0
  0
ENDTAB
  0
TABLE
  2
APPID
  5
8
330
0
100
AcDbSymbolTable
 70
     6
  0
APPID
  5
16
330
8
100
AcDbSymbolTableRecord
100
AcDbRegAppTableRecord
  2
ACAD
 70
     0
  0
APPID
  5
1632
330
8
100
AcDbSymbolTableRecord
100
AcDbRegAppTableRecord
  2
ACAD_MLEADERVER
 70
     0
  0
APPID
  5
1643
330
8
100
AcDbSymbolTableRecord
100
AcDbRegAppTableRecord
  2
AcAecLayerStandard
 70
     0
  0
APPID
  5
1644
330
8
100
AcDbSymbolTableRecord
100
AcDbRegAppTableRecord
  2
AcCmTransparency
 70
     0
  0
APPID
  5
1659
330
8
100
AcDbSymbolTableRecord
100
AcDbRegAppTableRecord
  2
AcadAnnotative
 70
     0
  0
APPID
  5
165A
330
8
100
AcDbSymbolTableRecord
100
AcDbRegAppTableRecord
  2
HATCHBACKGROUNDCOLOR
 70
     0
  0
ENDTAB
  0
TABLE
  2
DIMSTYLE
  5
9
330
0
100
AcDbSymbolTable
 70
     1
100
AcDbDimStyleTable
  0
DIMSTYLE
105
18
330
9
100
AcDbSymbolTableRecord
100
AcDbDimStyleTableRecord
  2
STANDARD
 70
     0
178
     0
289
     0
340
17
  0
ENDTAB
  0
TABLE
  2
BLOCK_RECORD
  5
1
330
0
100
AcDbSymbolTable
 70
    36
  0
BLOCK_RECORD
  5
A
330
1
100
AcDbSymbolTableRecord
100
AcDbBlockTableRecord
  2
*MODEL_SPACE
340
15C9
 70
     0
280
     1
281
     0
  0
BLOCK_RECORD
  5
B
330
1
100
AcDbSymbolTableRecord
100
AcDbBlockTableRecord
  2
*PAPER_SPACE
340
15CA
 70
     0
280
     1
281
     0
  0
BLOCK_RECORD
  5
16A2
330
1
100
AcDbSymbolTableRecord
100
AcDbBlockTableRecord
  2
*T1
340
0
 70
     0
280
     1
281
     0
  0
BLOCK_RECORD
  5
16AC
102
{ACAD_XDICTIONARY
360
16AD
102
}
330
1
100
AcDbSymbolTableRecord
100
AcDbBlockTableRecord
  2
囲い文字1
340
0
102
{BLKREFS
331
16AB
331
17F3
331
1909
331
192E
331
1936
331
194E
331
195E
102
}
 70
     4
280
     1
281
     0
1001
AcadAnnotative
1000
AnnotativeData
1002
{
1070
     1
1070
     0
1002
}
1001
ACAD
1000
DesignCenter Data
1002
{
1070
     1
1070
     4
1002
}
  0
BLOCK_RECORD
  5
16B8
102
{ACAD_XDICTIONARY
360
16B9
102
}
330
1
100
AcDbSymbolTableRecord
100
AcDbBlockTableRecord
  2
囲い文字2
340
0
102
{BLKREFS
331
16B7
331
17F5
331
190B
331
1930
331
1938
331
1950
331
1962
102
}
 70
     4
280
     1
281
     0
1001
AcadAnnotative
1000
AnnotativeData
1002
{
1070
     1
1070
     0
1002
}
1001
ACAD
1000
DesignCenter Data
1002
{
1070
     1
1070
     4
1002
}
  0
BLOCK_RECORD
  5
16C4
102
{ACAD_XDICTIONARY
360
16C5
102
}
330
1
100
AcDbSymbolTableRecord
100
AcDbBlockTableRecord
  2
囲い文字3
340
0
102
{BLKREFS
331
16C3
331
17F7
331
190D
331
1932
331
193A
331
1952
331
1966
102
}
 70
     4
280
     1
281
     0
1001
AcadAnnotative
1000
AnnotativeData
1002
{
1070
     1
1070
     0
1002
}
1001
ACAD
1000
DesignCenter Data
1002
{
1070
     1
1070
     4
1002
}
  0
BLOCK_RECORD
  5
16D0
102
{ACAD_XDICTIONARY
360
16D1
102
}
330
1
100
AcDbSymbolTableRecord
100
AcDbBlockTableRecord
  2
囲い文字4
340
0
102
{BLKREFS
331
16CF
331
17F9
331
190F
331
1934
331
193C
331
1954
331
196A
102
}
 70
     4
280
     1
281
     0
1001
AcadAnnotative
1000
AnnotativeData
1002
{
1070
     1
1070
     0
1002
}
1001
ACAD
1000
DesignCenter Data
1002
{
1070
     1
1070
     4
1002
}
  0
BLOCK_RECORD
  5
16A9
330
1
100
AcDbSymbolTableRecord
100
AcDbBlockTableRecord
  2
*U6
340
0
102
{BLKREFS
331
16A8
102
}
 70
     0
280
     1
281
     0
  0
BLOCK_RECORD
  5
16B5
330
1
100
AcDbSymbolTableRecord
100
AcDbBlockTableRecord
  2
*U7
340
0
102
{BLKREFS
331
16B4
102
}
 70
     0
280
     1
281
     0
  0
BLOCK_RECORD
  5
16C1
330
1
100
AcDbSymbolTableRecord
100
AcDbBlockTableRecord
  2
*U8
340
0
102
{BLKREFS
331
16C0
102
}
 70
     0
280
     1
281
     0
  0
BLOCK_RECORD
  5
16CD
330
1
100
AcDbSymbolTableRecord
100
AcDbBlockTableRecord
  2
*U9
340
0
102
{BLKREFS
331
16CC
102
}
 70
     0
280
     1
281
     0
  0
BLOCK_RECORD
  5
16E5
102
{ACAD_XDICTIONARY
360
16E6
102
}
330
1
100
AcDbSymbolTableRecord
100
AcDbBlockTableRecord
  2
表題欄(定義)
340
0
102
{BLKREFS
331
0
331
1830
102
}
 70
     4
280
     1
281
     0
1001
AcadAnnotative
1000
AnnotativeData
1002
{
1070
     1
1070
     0
1002
}
1001
ACAD
1000
DesignCenter Data
1002
{
1070
     1
1070
     4
1002
}
  0
BLOCK_RECORD
  5
17F1
330
1
100
AcDbSymbolTableRecord
100
AcDbBlockTableRecord
  2
*T11
340
0
102
{BLKREFS
331
0
102
}
 70
     0
280
     1
281
     0
  0
BLOCK_RECORD
  5
17F2
330
1
100
AcDbSymbolTableRecord
100
AcDbBlockTableRecord
  2
*U12
340
0
102
{BLKREFS
331
17FF
102
}
 70
     0
280
     1
281
     0
  0
BLOCK_RECORD
  5
17F4
330
1
100
AcDbSymbolTableRecord
100
AcDbBlockTableRecord
  2
*U13
340
0
102
{BLKREFS
331
1800
102
}
 70
     0
280
     1
281
     0
  0
BLOCK_RECORD
  5
17F6
330
1
100
AcDbSymbolTableRecord
100
AcDbBlockTableRecord
  2
*U14
340
0
102
{BLKREFS
331
1801
102
}
 70
     0
280
     1
281
     0
  0
BLOCK_RECORD
  5
17F8
330
1
100
AcDbSymbolTableRecord
100
AcDbBlockTableRecord
  2
*U15
340
0
102
{BLKREFS
331
1802
102
}
 70
     0
280
     1
281
     0
  0
BLOCK_RECORD
  5
1907
330
1
100
AcDbSymbolTableRecord
100
AcDbBlockTableRecord
  2
*T16
340
0
102
{BLKREFS
331
182F
102
}
 70
     0
280
     1
281
     0
  0
BLOCK_RECORD
  5
1908
330
1
100
AcDbSymbolTableRecord
100
AcDbBlockTableRecord
  2
*U17
340
0
102
{BLKREFS
331
1914
102
}
 70
     0
280
     1
281
     0
  0
BLOCK_RECORD
  5
190A
330
1
100
AcDbSymbolTableRecord
100
AcDbBlockTableRecord
  2
*U18
340
0
102
{BLKREFS
331
1915
102
}
 70
     0
280
     1
281
     0
  0
BLOCK_RECORD
  5
190C
330
1
100
AcDbSymbolTableRecord
100
AcDbBlockTableRecord
  2
*U19
340
0
102
{BLKREFS
331
1916
102
}
 70
     0
280
     1
281
     0
  0
BLOCK_RECORD
  5
190E
330
1
100
AcDbSymbolTableRecord
100
AcDbBlockTableRecord
  2
*U20
340
0
102
{BLKREFS
331
1917
102
}
 70
     0
280
     1
281
     0
  0
BLOCK_RECORD
  5
192D
330
1
100
AcDbSymbolTableRecord
100
AcDbBlockTableRecord
  2
*U21
340
0
 70
     0
280
     1
281
     0
  0
BLOCK_RECORD
  5
192F
330
1
100
AcDbSymbolTableRecord
100
AcDbBlockTableRecord
  2
*U22
340
0
 70
     0
280
     1
281
     0
  0
BLOCK_RECORD
  5
1931
330
1
100
AcDbSymbolTableRecord
100
AcDbBlockTableRecord
  2
*U23
340
0
 70
     0
280
     1
281
     0
  0
BLOCK_RECORD
  5
1933
330
1
100
AcDbSymbolTableRecord
100
AcDbBlockTableRecord
  2
*U24
340
0
 70
     0
280
     1
281
     0
  0
BLOCK_RECORD
  5
1935
330
1
100
AcDbSymbolTableRecord
100
AcDbBlockTableRecord
  2
*U25
340
0
 70
     0
280
     1
281
     0
  0
BLOCK_RECORD
  5
1937
330
1
100
AcDbSymbolTableRecord
100
AcDbBlockTableRecord
  2
*U26
340
0
 70
     0
280
     1
281
     0
  0
BLOCK_RECORD
  5
1939
330
1
100
AcDbSymbolTableRecord
100
AcDbBlockTableRecord
  2
*U27
340
0
 70
     0
280
     1
281
     0
  0
BLOCK_RECORD
  5
193B
330
1
100
AcDbSymbolTableRecord
100
AcDbBlockTableRecord
  2
*U28
340
0
 70
     0
280
     1
281
     0
  0
BLOCK_RECORD
  5
194D
330
1
100
AcDbSymbolTableRecord
100
AcDbBlockTableRecord
  2
*U29
340
0
 70
     0
280
     1
281
     0
  0
BLOCK_RECORD
  5
194F
330
1
100
AcDbSymbolTableRecord
100
AcDbBlockTableRecord
  2
*U30
340
0
 70
     0
280
     1
281
     0
  0
BLOCK_RECORD
  5
1951
330
1
100
AcDbSymbolTableRecord
100
AcDbBlockTableRecord
  2
*U31
340
0
 70
     0
280
     1
281
     0
  0
BLOCK_RECORD
  5
1953
330
1
100
AcDbSymbolTableRecord
100
AcDbBlockTableRecord
  2
*U32
340
0
 70
     0
280
     1
281
     0
  0
BLOCK_RECORD
  5
195D
330
1
100
AcDbSymbolTableRecord
100
AcDbBlockTableRecord
  2
*U33
340
0
 70
     0
280
     1
281
     0
  0
BLOCK_RECORD
  5
1961
330
1
100
AcDbSymbolTableRecord
100
AcDbBlockTableRecord
  2
*U34
340
0
 70
     0
280
     1
281
     0
  0
BLOCK_RECORD
  5
1965
330
1
100
AcDbSymbolTableRecord
100
AcDbBlockTableRecord
  2
*U35
340
0
 70
     0
280
     1
281
     0
  0
BLOCK_RECORD
  5
1969
330
1
100
AcDbSymbolTableRecord
100
AcDbBlockTableRecord
  2
*U36
340
0
 70
     0
280
     1
281
     0
  0
ENDTAB
  0
ENDSEC
  0
SECTION
  2
BLOCKS
  0
BLOCK
  5
D
330
A
100
AcDbEntity
  8
0
100
AcDbBlockBegin
  2
*MODEL_SPACE
 70
     0
 10
0.0
 20
0.0
 30
0.0
  3
*MODEL_SPACE
  1

  0
ENDBLK
  5
E
330
A
100
AcDbEntity
  8
0
100
AcDbBlockEnd
  0
BLOCK
  5
F
330
B
100
AcDbEntity
 67
     1
  8
0
100
AcDbBlockBegin
  2
*PAPER_SPACE
 70
     0
 10
0.0
 20
0.0
 30
0.0
  3
*PAPER_SPACE
  1

  0
ENDBLK
  5
10
330
B
100
AcDbEntity
 67
     1
  8
0
100
AcDbBlockEnd
  0
BLOCK
  5
180E
330
16A2
100
AcDbEntity
  8
0
100
AcDbBlockBegin
  2
*T1
 70
     1
 10
0.0
 20
0.0
 30
0.0
  3
*T1
  1

  0
MTEXT
  5
16A4
330
16A2
100
AcDbEntity
  8
表題欄
 62
     0
100
AcDbMText
 10
18.75
 20
6.875
 30
0.0
 40
7.5
 41
33.75
 46
0.0
 71
     5
 72
     5
  1
符号
  7
ＭＳ ゴシック
 73
     1
 44
1.0
  0
MTEXT
  5
16A5
330
16A2
100
AcDbEntity
  8
表題欄
 62
     0
100
AcDbMText
 10
62.5
 20
6.875
 30
0.0
 40
7.5
 41
46.25
 46
0.0
 71
     5
 72
     5
  1
日付
  7
ＭＳ ゴシック
 73
     1
 44
1.0
  0
MTEXT
  5
16A6
330
16A2
100
AcDbEntity
  8
表題欄
 62
     0
100
AcDbMText
 10
106.25
 20
6.875
 30
0.0
 40
7.5
 41
33.75
 46
0.0
 71
     5
 72
     5
  1
訂正者
  7
ＭＳ ゴシック
 73
     1
 44
1.0
  0
MTEXT
  5
16A7
330
16A2
100
AcDbEntity
  8
表題欄
 62
     0
100
AcDbMText
 10
287.5
 20
6.875
 30
0.0
 40
7.5
 41
321.25
 46
0.0
 71
     5
 72
     5
  1
訂正概要
  7
ＭＳ ゴシック
 73
     1
 44
1.0
  0
INSERT
  5
16A8
330
16A2
100
AcDbEntity
  8
表題欄
 62
     0
100
AcDbBlockReference
  2
*U6
 10
12.976497308098
 20
15.625
 30
0.0
  0
INSERT
  5
16B4
330
16A2
100
AcDbEntity
  8
表題欄
 62
     0
100
AcDbBlockReference
  2
*U7
 10
12.976497308098
 20
29.375
 30
0.0
  0
INSERT
  5
16C0
330
16A2
100
AcDbEntity
  8
表題欄
 62
     0
100
AcDbBlockReference
  2
*U8
 10
12.976497308098
 20
43.125
 30
0.0
  0
INSERT
  5
16CC
330
16A2
100
AcDbEntity
  8
表題欄
 62
     0
100
AcDbBlockReference
  2
*U9
 10
12.976497308098
 20
56.875
 30
0.0
  0
LINE
  5
16D8
330
16A2
100
AcDbEntity
  8
表題欄
  6
ByBlock
 62
     0
370
    -2
100
AcDbLine
 10
0.0
 20
0.0
 30
0.0
 11
450.0
 21
0.0
 31
0.0
  0
LINE
  5
16D9
330
16A2
100
AcDbEntity
  8
表題欄
  6
ByBlock
 62
     0
370
    -2
100
AcDbLine
 10
0.0
 20
13.75
 30
0.0
 11
450.0
 21
13.75
 31
0.0
  0
LINE
  5
16DA
330
16A2
100
AcDbEntity
  8
表題欄
  6
ByBlock
 62
     0
370
    -2
100
AcDbLine
 10
0.0
 20
27.5
 30
0.0
 11
450.0
 21
27.5
 31
0.0
  0
LINE
  5
16DB
330
16A2
100
AcDbEntity
  8
表題欄
  6
ByBlock
 62
     0
370
    -2
100
AcDbLine
 10
0.0
 20
41.25
 30
0.0
 11
450.0
 21
41.25
 31
0.0
  0
LINE
  5
16DC
330
16A2
100
AcDbEntity
  8
表題欄
  6
ByBlock
 62
     0
370
    -2
100
AcDbLine
 10
0.0
 20
55.0
 30
0.0
 11
450.0
 21
55.0
 31
0.0
  0
LINE
  5
16DD
330
16A2
100
AcDbEntity
  8
表題欄
  6
ByBlock
 62
     0
370
    -2
100
AcDbLine
 10
0.0
 20
68.75
 30
0.0
 11
450.0
 21
68.75
 31
0.0
  0
LINE
  5
16DE
330
16A2
100
AcDbEntity
  8
表題欄
  6
ByBlock
 62
     0
370
    -2
100
AcDbLine
 10
0.0
 20
0.0
 30
0.0
 11
0.0
 21
68.75
 31
0.0
  0
LINE
  5
16DF
330
16A2
100
AcDbEntity
  8
表題欄
  6
ByBlock
 62
     0
370
    -2
100
AcDbLine
 10
37.5
 20
0.0
 30
0.0
 11
37.5
 21
68.75
 31
0.0
  0
LINE
  5
16E0
330
16A2
100
AcDbEntity
  8
表題欄
  6
ByBlock
 62
     0
370
    -2
100
AcDbLine
 10
87.5
 20
0.0
 30
0.0
 11
87.5
 21
68.75
 31
0.0
  0
LINE
  5
16E1
330
16A2
100
AcDbEntity
  8
表題欄
  6
ByBlock
 62
     0
370
    -2
100
AcDbLine
 10
125.0
 20
0.0
 30
0.0
 11
125.0
 21
68.75
 31
0.0
  0
LINE
  5
16E2
330
16A2
100
AcDbEntity
  8
表題欄
  6
ByBlock
 62
     0
370
    -2
100
AcDbLine
 10
450.0
 20
0.0
 30
0.0
 11
450.0
 21
68.75
 31
0.0
  0
ENDBLK
  5
180F
330
16A2
100
AcDbEntity
  8
0
100
AcDbBlockEnd
  0
BLOCK
  5
1812
330
16AC
100
AcDbEntity
  8
0
100
AcDbBlockBegin
  2
囲い文字1
 70
     0
 10
0.0
 20
0.0
 30
0.0
  3
囲い文字1
  1

  0
TEXT
  5
16B0
330
16AC
100
AcDbEntity
  8
文字
 62
     5
100
AcDbText
 10
-0.150726441143
 20
-12.80598100318
 30
0.0
 40
1.9
  1
1
  7
ＭＳ ゴシック
 72
     1
 11
0.467005208226
 21
-11.85598100318
 31
0.0
100
AcDbText
 73
     2
  0
LWPOLYLINE
  5
16B1
330
16AC
100
AcDbEntity
  8
文字
 62
     5
100
AcDbPolyline
 90
        3
 70
     1
 43
0.05
 10
-1.207936290659
 20
-13.006522891064
 10
0.467005208226
 20
-10.105439115294
 10
2.14194670711
 20
-13.006522891064
  0
ENDBLK
  5
1813
330
16AC
100
AcDbEntity
  8
0
100
AcDbBlockEnd
  0
BLOCK
  5
1816
330
16B8
100
AcDbEntity
  8
0
100
AcDbBlockBegin
  2
囲い文字2
 70
     0
 10
0.0
 20
0.0
 30
0.0
  3
囲い文字2
  1

  0
TEXT
  5
16BC
330
16B8
100
AcDbEntity
  8
文字
 62
     5
100
AcDbText
 10
-7.36181652199
 20
15.833311817329
 30
0.0
 40
1.9
  1
2
  7
ＭＳ ゴシック
 72
     1
 11
-6.744084872622
 21
16.783311817329
 31
0.0
100
AcDbText
 73
     2
  0
LWPOLYLINE
  5
16BD
330
16B8
100
AcDbEntity
  8
文字
 62
     5
100
AcDbPolyline
 90
        3
 70
     1
 43
0.05
 10
-8.419026371506
 20
15.632769929445
 10
-6.744084872622
 20
18.533853705216
 10
-5.069143373737
 20
15.632769929445
  0
ENDBLK
  5
1817
330
16B8
100
AcDbEntity
  8
0
100
AcDbBlockEnd
  0
BLOCK
  5
181A
330
16C4
100
AcDbEntity
  8
0
100
AcDbBlockBegin
  2
囲い文字3
 70
     0
 10
0.0
 20
0.0
 30
0.0
  3
囲い文字3
  1

  0
TEXT
  5
16C8
330
16C4
100
AcDbEntity
  8
文字
 62
     5
100
AcDbText
 10
-3.138684270054
 20
7.425323742515
 30
0.0
 40
1.9
  1
3
  7
ＭＳ ゴシック
 72
     1
 11
-2.520952620685
 21
8.375323742515
 31
0.0
100
AcDbText
 73
     2
  0
LWPOLYLINE
  5
16C9
330
16C4
100
AcDbEntity
  8
文字
 62
     5
100
AcDbPolyline
 90
        3
 70
     1
 43
0.05
 10
-4.19589411957
 20
7.224781854631
 10
-2.520952620685
 20
10.125865630402
 10
-0.846011121801
 20
7.224781854631
  0
ENDBLK
  5
181B
330
16C4
100
AcDbEntity
  8
0
100
AcDbBlockEnd
  0
BLOCK
  5
181E
330
16D0
100
AcDbEntity
  8
0
100
AcDbBlockBegin
  2
囲い文字4
 70
     0
 10
0.0
 20
0.0
 30
0.0
  3
囲い文字4
  1

  0
TEXT
  5
16D4
330
16D0
100
AcDbEntity
  8
文字
 62
     5
100
AcDbText
 10
-3.448589732188
 20
5.51332470249
 30
0.0
 40
1.9
  1
4
  7
ＭＳ ゴシック
 72
     1
 11
-2.83085808282
 21
6.46332470249
 31
0.0
100
AcDbText
 73
     2
  0
LWPOLYLINE
  5
16D5
330
16D0
100
AcDbEntity
  8
文字
 62
     5
100
AcDbPolyline
 90
        3
 70
     1
 43
0.05
 10
-4.505799581704
 20
5.312782814606
 10
-2.83085808282
 20
8.213866590377
 10
-1.155916583935
 20
5.312782814606
  0
ENDBLK
  5
181F
330
16D0
100
AcDbEntity
  8
0
100
AcDbBlockEnd
  0
BLOCK
  5
1810
330
16A9
100
AcDbEntity
  8
0
100
AcDbBlockBegin
  2
*U6
 70
     1
 10
0.0
 20
0.0
 30
0.0
  3
*U6
  1

  0
INSERT
  5
16AB
330
16A9
100
AcDbEntity
  8
構築線
 62
     0
100
AcDbBlockReference
  2
囲い文字1
 10
4.163741498082
 20
44.833324013919
 30
0.0
 41
3.446987668374
 42
3.446987668374
 43
3.446987668374
  0
ENDBLK
  5
1811
330
16A9
100
AcDbEntity
  8
0
100
AcDbBlockEnd
  0
BLOCK
  5
1814
330
16B5
100
AcDbEntity
  8
0
100
AcDbBlockBegin
  2
*U7
 70
     1
 10
0.0
 20
0.0
 30
0.0
  3
*U7
  1

  0
INSERT
  5
16B7
330
16B5
100
AcDbEntity
  8
構築線
 62
     0
100
AcDbBlockReference
  2
囲い文字2
 10
29.020280082295
 20
-53.885965169321
 30
0.0
 41
3.446987668374
 42
3.446987668374
 43
3.446987668374
  0
ENDBLK
  5
1815
330
16B5
100
AcDbEntity
  8
0
100
AcDbBlockEnd
  0
BLOCK
  5
1818
330
16C1
100
AcDbEntity
  8
0
100
AcDbBlockBegin
  2
*U8
 70
     1
 10
0.0
 20
0.0
 30
0.0
  3
*U8
  1

  0
INSERT
  5
16C3
330
16C1
100
AcDbEntity
  8
構築線
 62
     0
100
AcDbBlockReference
  2
囲い文字3
 10
14.463195287959
 20
-24.903733959604
 30
0.0
 41
3.446987668374
 42
3.446987668374
 43
3.446987668374
  0
ENDBLK
  5
1819
330
16C1
100
AcDbEntity
  8
0
100
AcDbBlockEnd
  0
BLOCK
  5
181C
330
16CD
100
AcDbEntity
  8
0
100
AcDbBlockBegin
  2
*U9
 70
     1
 10
0.0
 20
0.0
 30
0.0
  3
*U9
  1

  0
INSERT
  5
16CF
330
16CD
100
AcDbEntity
  8
構築線
 62
     0
100
AcDbBlockReference
  2
囲い文字4
 10
15.531435594298
 20
-18.313096846695
 30
0.0
 41
3.446987668374
 42
3.446987668374
 43
3.446987668374
  0
ENDBLK
  5
181D
330
16CD
100
AcDbEntity
  8
0
100
AcDbBlockEnd
  0
BLOCK
  5
1820
330
16E5
100
AcDbEntity
  8
0
100
AcDbBlockBegin
  2
表題欄(定義)
 70
     2
 10
0.0
 20
0.0
 30
0.0
  3
表題欄(定義)
  1

  0
LINE
  5
16E9
330
16E5
100
AcDbEntity
  8
表題欄
100
AcDbLine
 10
-10.971098027232
 20
-50.087425312518
 30
0.0
 11
-10.971098027232
 21
-12.587447994505
 31
0.0
  0
ATTDEF
  5
16EA
330
16E5
100
AcDbEntity
  8
表題欄
100
AcDbText
 10
26.845498819392
 20
-41.087447994505
 30
0.0
 40
1.5
  1

  7
ＭＳ ゴシック
 72
     1
 11
26.845498819392
 21
-40.337447994505
 31
0.0
100
AcDbAttributeDefinition
  3
備考
  2
REMARKS
 70
     0
 74
     2
280
     0
  0
ATTDEF
  5
16EB
330
16E5
100
AcDbEntity
  8
表題欄
100
AcDbText
 10
12.466401972768
 20
-41.087447994505
 30
0.0
 40
1.5
  1

  7
ＭＳ ゴシック
 72
     1
 11
12.466401972768
 21
-40.337447994505
 31
0.0
100
AcDbAttributeDefinition
  3
縮尺
  2
SCALE
 70
     0
 74
     2
280
     0
  0
ATTDEF
  5
16EC
330
16E5
100
AcDbEntity
  8
表題欄
100
AcDbText
 10
13.631096545734
 20
-33.587447994505
 30
0.0
 40
1.5
  1

  7
ＭＳ ゴシック
 72
     1
 11
13.631096545734
 21
-32.837447994505
 31
0.0
100
AcDbAttributeDefinition
  3
図番
  2
DRAWING　NO.
 70
     0
 74
     2
280
     0
  0
ATTDEF
  5
16ED
330
16E5
100
AcDbEntity
  8
表題欄
100
AcDbText
 10
11.68036502141
 20
-26.087447994505
 30
0.0
 40
1.5
  1

  7
ＭＳ ゴシック
 72
     1
 11
11.68036502141
 21
-25.337447994505
 31
0.0
100
AcDbAttributeDefinition
  3
部位
  2
POSITION
 70
     0
 74
     2
280
     0
  0
ATTDEF
  5
16EE
330
16E5
100
AcDbEntity
  8
表題欄
100
AcDbText
 10
9.729633497089
 20
-18.587447994505
 30
0.0
 40
1.5
  1

  7
ＭＳ ゴシック
 72
     1
 11
9.729633497089
 21
-17.837447994505
 31
0.0
100
AcDbAttributeDefinition
  3
名称
  2
NAME
 70
     0
 74
     2
280
     0
  0
ATTDEF
  5
16EF
330
16E5
100
AcDbEntity
  8
表題欄
100
AcDbText
 10
-3.158598027232
 20
-48.587447994505
 30
0.0
 40
1.5
  1

  7
ＭＳ ゴシック
 72
     1
 11
-3.158598027232
 21
-47.837447994505
 31
0.0
100
AcDbAttributeDefinition
  3
製図
  2
DRAWING
 70
     0
 74
     2
280
     0
  0
ATTDEF
  5
16F0
330
16E5
100
AcDbEntity
  8
表題欄
100
AcDbText
 10
-3.158598027232
 20
-41.087447994505
 30
0.0
 40
1.5
  1

  7
ＭＳ ゴシック
 72
     1
 11
-3.158598027232
 21
-40.337447994505
 31
0.0
100
AcDbAttributeDefinition
  3
設計
  2
DESIGNED
 70
     0
 74
     2
280
     0
  0
ATTDEF
  5
16F1
330
16E5
100
AcDbEntity
  8
表題欄
100
AcDbText
 10
-3.158598027232
 20
-33.587447994505
 30
0.0
 40
1.5
  1

  7
ＭＳ ゴシック
 72
     1
 11
-3.158598027232
 21
-32.837447994505
 31
0.0
100
AcDbAttributeDefinition
  3
検図
  2
CHECKED
 70
     0
 74
     2
280
     0
  0
TEXT
  5
16F2
330
16E5
100
AcDbEntity
  8
表題欄
100
AcDbText
 10
-10.456568854787
 20
-22.337436653514
 30
0.0
 40
1.5
  1
出 図  ISSUE
  7
ＭＳ ゴシック
 72
     1
 11
-4.604374281822
 21
-21.587436653514
 31
0.0
100
AcDbText
 73
     2
  0
ATTDEF
  5
16F3
330
16E5
100
AcDbEntity
  8
表題欄
100
AcDbText
 10
-3.158598027232
 20
-26.087447994505
 30
0.0
 40
1.5
  1

  7
ＭＳ ゴシック
 72
     1
 11
-3.158598027232
 21
-25.337447994505
 31
0.0
100
AcDbAttributeDefinition
  3
出図
  2
ISSUE
 70
     0
 74
     2
280
     0
  0
ATTDEF
  5
16F4
330
16E5
100
AcDbEntity
  8
表題欄
100
AcDbText
 10
-3.158598027232
 20
-18.587447994505
 30
0.0
 40
1.5
  1

  7
ＭＳ ゴシック
 72
     1
 11
-3.158598027232
 21
-17.837447994505
 31
0.0
100
AcDbAttributeDefinition
  3
初版作成日
  2
DATE
 70
     0
 74
     2
280
     0
  0
LINE
  5
16F5
330
16E5
100
AcDbEntity
  8
仮想線
100
AcDbLine
 10
7.778901972768
 20
-12.587447994505
 30
0.0
 11
7.778901972768
 21
-50.087447994505
 31
0.0
  0
LINE
  5
16F6
330
16E5
100
AcDbEntity
  8
仮想線
100
AcDbLine
 10
7.778901972768
 20
-17.743697994505
 30
0.0
 11
-10.971098027232
 21
-17.743697994505
 31
0.0
  0
LINE
  5
16F7
330
16E5
100
AcDbEntity
  8
仮想線
100
AcDbLine
 10
-3.158598027232
 20
-12.587447994505
 30
0.0
 11
-3.158598027232
 21
-50.087447994505
 31
0.0
  0
TEXT
  5
16F8
330
16E5
100
AcDbEntity
  8
表題欄
100
AcDbText
 10
20.901158756562
 20
-37.337436653514
 30
0.0
 40
1.5
  1
備 考   REMARKS
  7
ＭＳ ゴシック
 72
     1
 11
28.216401972768
 21
-36.587436653514
 31
0.0
100
AcDbText
 73
     2
  0
LINE
  5
16F9
330
16E5
100
AcDbEntity
  8
表題欄
100
AcDbLine
 10
20.278901972768
 20
-35.087447994505
 30
0.0
 11
20.278901972768
 21
-42.587447994505
 31
0.0
  0
TEXT
  5
16FA
330
16E5
100
AcDbEntity
  8
表題欄
100
AcDbText
 10
5.364207399803
 20
-37.337413971523
 30
0.0
 40
1.5
  1
縮 尺  SCALE
  7
ＭＳ ゴシック
 72
     1
 11
11.216401972768
 21
-36.587413971523
 31
0.0
100
AcDbText
 73
     2
  0
TEXT
  5
16FB
330
16E5
100
AcDbEntity
  8
表題欄
100
AcDbText
 10
5.313110113321
 20
-29.837413971523
 30
0.0
 40
1.5
  1
図 番  DRAWING No.
  7
ＭＳ ゴシック
 72
     1
 11
14.091401972768
 21
-29.087413971523
 31
0.0
100
AcDbText
 73
     2
  0
TEXT
  5
16FC
330
16E5
100
AcDbEntity
  8
表題欄
100
AcDbText
 10
5.276158756562
 20
-22.337436653514
 30
0.0
 40
1.5
  1
部 位  POSITION
  7
ＭＳ ゴシック
 72
     1
 11
12.591401972768
 21
-21.587436653514
 31
0.0
100
AcDbText
 73
     2
  0
TEXT
  5
16FD
330
16E5
100
AcDbEntity
  8
表題欄
100
AcDbText
 10
5.351890280883
 20
-14.837413971523
 30
0.0
 40
1.5
  1
名 称  NAME
  7
ＭＳ ゴシック
 72
     1
 11
10.716401972768
 21
-14.087413971523
 31
0.0
100
AcDbText
 73
     2
  0
LINE
  5
16FE
330
16E5
100
AcDbEntity
  8
仮想線
100
AcDbLine
 10
-10.971098027232
 20
-45.587447994505
 30
0.0
 11
4.653901972768
 21
-45.587447994505
 31
0.0
  0
TEXT
  5
16FF
330
16E5
100
AcDbEntity
  8
表題欄
100
AcDbText
 10
-10.236158362358
 20
-44.837436653514
 30
0.0
 40
1.5
  1
製 図  DRAWING
  7
ＭＳ ゴシック
 72
     1
 11
-3.408598027232
 21
-44.087436653514
 31
0.0
100
AcDbText
 73
     2
  0
LINE
  5
1700
330
16E5
100
AcDbEntity
  8
仮想線
100
AcDbLine
 10
-10.971098027232
 20
-38.087447994505
 30
0.0
 11
4.653901972768
 21
-38.087447994505
 31
0.0
  0
TEXT
  5
1701
330
16E5
100
AcDbEntity
  8
表題欄
100
AcDbText
 10
-10.348841243438
 20
-37.337436653514
 30
0.0
 40
1.5
  1
設 計  DESIGNED
  7
ＭＳ ゴシック
 72
     1
 11
-3.033598027232
 21
-36.587436653514
 31
0.0
100
AcDbText
 73
     2
  0
LINE
  5
1702
330
16E5
100
AcDbEntity
  8
仮想線
100
AcDbLine
 10
-10.971098027232
 20
-30.587447994505
 30
0.0
 11
4.653901972768
 21
-30.587447994505
 31
0.0
  0
TEXT
  5
1703
330
16E5
100
AcDbEntity
  8
表題欄
100
AcDbText
 10
-10.486158362358
 20
-29.837436653514
 30
0.0
 40
1.5
  1
検 図  CHECKED
  7
ＭＳ ゴシック
 72
     1
 11
-3.658598027232
 21
-29.087436653514
 31
0.0
100
AcDbText
 73
     2
  0
LINE
  5
1704
330
16E5
100
AcDbEntity
  8
仮想線
100
AcDbLine
 10
-10.971098027232
 20
-23.087447994505
 30
0.0
 11
4.653901972768
 21
-23.087447994505
 31
0.0
  0
LINE
  5
1705
330
16E5
100
AcDbEntity
  8
表題欄
100
AcDbLine
 10
-10.971098027232
 20
-20.087447994505
 30
0.0
 11
54.653901972768
 21
-20.087447994505
 31
0.0
  0
LINE
  5
1706
330
16E5
100
AcDbEntity
  8
仮想線
100
AcDbLine
 10
-10.971098027232
 20
-15.587447994505
 30
0.0
 11
4.653901972768
 21
-15.587447994505
 31
0.0
  0
LINE
  5
1707
330
16E5
100
AcDbEntity
  8
表題欄
100
AcDbLine
 10
-10.971098027232
 20
-42.587447994505
 30
0.0
 11
54.653901972768
 21
-42.587447994505
 31
0.0
  0
LINE
  5
1708
330
16E5
100
AcDbEntity
  8
表題欄
100
AcDbLine
 10
-10.971098027232
 20
-35.087447994505
 30
0.0
 11
54.653901972768
 21
-35.087447994505
 31
0.0
  0
LINE
  5
1709
330
16E5
100
AcDbEntity
  8
表題欄
100
AcDbLine
 10
-10.971098027232
 20
-27.587447994505
 30
0.0
 11
54.653901972768
 21
-27.587447994505
 31
0.0
  0
LINE
  5
170A
330
16E5
100
AcDbEntity
  8
表題欄
100
AcDbLine
 10
-10.971098027232
 20
-20.087447994505
 30
0.0
 11
4.653901972768
 21
-20.087447994505
 31
0.0
  0
LINE
  5
170B
330
16E5
100
AcDbEntity
  8
表題欄
100
AcDbLine
 10
4.653901972768
 20
-12.587425312518
 30
0.0
 11
4.653901972768
 21
-50.087402630532
 31
0.0
  0
LINE
  5
170C
330
16E5
100
AcDbEntity
  8
表題欄
100
AcDbLine
 10
54.653901972768
 20
-12.587425312518
 30
0.0
 11
54.653901972768
 21
-50.087402630532
 31
0.0
  0
LINE
  5
170D
330
16E5
100
AcDbEntity
  8
表題欄
100
AcDbLine
 10
-10.971098027232
 20
-50.087425312518
 30
0.0
 11
54.653901972768
 21
-50.087425312518
 31
0.0
  0
LINE
  5
170E
330
16E5
100
AcDbEntity
  8
表題欄
100
AcDbLine
 10
-10.971098027232
 20
-12.587447994505
 30
0.0
 11
-10.971098027232
 21
-50.087425312518
 31
0.0
  0
LINE
  5
170F
330
16E5
100
AcDbEntity
  8
表題欄
100
AcDbLine
 10
-10.971098027232
 20
-12.587447994505
 30
0.0
 11
54.653901972768
 21
-12.587447994505
 31
0.0
  0
TEXT
  5
1710
330
16E5
100
AcDbEntity
  8
表題欄
100
AcDbText
 10
12.197265287505
 20
-45.694515786829
 30
0.0
 40
2.5
  1
HAYAKAWA RUBER.CO.,LTD
  7
ＭＳ ゴシック
 72
     1
 11
30.078970927119
 21
-44.444515786829
 31
0.0
100
AcDbText
 73
     2
  0
TEXT
  5
1711
330
16E5
100
AcDbEntity
  8
表題欄
100
AcDbText
 10
16.892502341332
 20
-49.236756287726
 30
0.0
 40
2.5
  1
早川ゴム株式会社
  7
ＭＳ ゴシック
 72
     1
 11
29.897379170143
 21
-47.986756287726
 31
0.0
100
AcDbText
 73
     2
  0
TEXT
  5
1712
330
16E5
100
AcDbEntity
  8
表題欄
100
AcDbText
 10
-10.723841243438
 20
-14.837436653514
 30
0.0
 40
1.5
  1
初版作成日 DATE
  7
ＭＳ ゴシック
 72
     1
 11
-3.408598027232
 21
-14.087436653514
 31
0.0
100
AcDbText
 73
     2
  0
TEXT
  5
1713
330
16E5
100
AcDbEntity
  8
表題欄
100
AcDbText
 10
12.829009282394
 20
-48.774815337686
 30
0.0
 40
1.296537313423
  1
早
  7
ＭＳ ゴシック
 72
     4
 11
13.672074685644
 21
-48.192370633613
 31
0.0
100
AcDbText
  0
CIRCLE
  5
1714
330
16E5
100
AcDbEntity
  8
表題欄
100
AcDbCircle
 10
13.672074685644
 20
-48.192370633613
 30
0.0
 40
1.243443373654526
  0
CIRCLE
  5
1715
330
16E5
100
AcDbEntity
  8
表題欄
100
AcDbCircle
 10
14.251608110648
 20
-47.888691940232
 30
0.0
 40
1.899437983206664
  0
ENDBLK
  5
1821
330
16E5
100
AcDbEntity
  8
0
100
AcDbBlockEnd
  0
BLOCK
  5
1822
330
17F1
100
AcDbEntity
  8
0
100
AcDbBlockBegin
  2
*T11
 70
     1
 10
0.0
 20
0.0
 30
0.0
  3
*T11
  1

  0
MTEXT
  5
17FB
330
17F1
100
AcDbEntity
  8
表題欄
 62
     0
100
AcDbMText
 10
18.75
 20
6.875
 30
0.0
 40
7.5
 41
33.75
 46
0.0
 71
     5
 72
     5
  1
符号
  7
ＭＳ ゴシック
 73
     1
 44
1.0
  0
MTEXT
  5
17FC
330
17F1
100
AcDbEntity
  8
表題欄
 62
     0
100
AcDbMText
 10
62.5
 20
6.875
 30
0.0
 40
7.5
 41
46.25
 46
0.0
 71
     5
 72
     5
  1
日付
  7
ＭＳ ゴシック
 73
     1
 44
1.0
  0
MTEXT
  5
17FD
330
17F1
100
AcDbEntity
  8
表題欄
 62
     0
100
AcDbMText
 10
106.25
 20
6.875
 30
0.0
 40
7.5
 41
33.75
 46
0.0
 71
     5
 72
     5
  1
訂正者
  7
ＭＳ ゴシック
 73
     1
 44
1.0
  0
MTEXT
  5
17FE
330
17F1
100
AcDbEntity
  8
表題欄
 62
     0
100
AcDbMText
 10
287.5
 20
6.875
 30
0.0
 40
7.5
 41
321.25
 46
0.0
 71
     5
 72
     5
  1
訂正概要
  7
ＭＳ ゴシック
 73
     1
 44
1.0
  0
INSERT
  5
17FF
330
17F1
100
AcDbEntity
  8
表題欄
 62
     0
100
AcDbBlockReference
  2
*U21
 10
12.976497308098
 20
15.625
 30
0.0
  0
INSERT
  5
1800
330
17F1
100
AcDbEntity
  8
表題欄
 62
     0
100
AcDbBlockReference
  2
*U22
 10
12.976497308098
 20
29.375
 30
0.0
  0
INSERT
  5
1801
330
17F1
100
AcDbEntity
  8
表題欄
 62
     0
100
AcDbBlockReference
  2
*U23
 10
12.976497308098
 20
43.125
 30
0.0
  0
INSERT
  5
1802
330
17F1
100
AcDbEntity
  8
表題欄
 62
     0
100
AcDbBlockReference
  2
*U24
 10
12.976497308098
 20
56.875
 30
0.0
  0
LINE
  5
1803
330
17F1
100
AcDbEntity
  8
表題欄
  6
ByBlock
 62
     0
370
    -2
100
AcDbLine
 10
0.0
 20
0.0
 30
0.0
 11
450.0
 21
0.0
 31
0.0
  0
LINE
  5
1804
330
17F1
100
AcDbEntity
  8
表題欄
  6
ByBlock
 62
     0
370
    -2
100
AcDbLine
 10
0.0
 20
0.0
 30
0.0
 11
0.0
 21
68.75
 31
0.0
  0
LINE
  5
1805
330
17F1
100
AcDbEntity
  8
表題欄
  6
ByBlock
 62
     0
370
    -2
100
AcDbLine
 10
37.5
 20
0.0
 30
0.0
 11
37.5
 21
68.75
 31
0.0
  0
LINE
  5
1806
330
17F1
100
AcDbEntity
  8
表題欄
  6
ByBlock
 62
     0
370
    -2
100
AcDbLine
 10
87.5
 20
0.0
 30
0.0
 11
87.5
 21
68.75
 31
0.0
  0
LINE
  5
1807
330
17F1
100
AcDbEntity
  8
表題欄
  6
ByBlock
 62
     0
370
    -2
100
AcDbLine
 10
125.0
 20
0.0
 30
0.0
 11
125.0
 21
68.75
 31
0.0
  0
LINE
  5
1808
330
17F1
100
AcDbEntity
  8
表題欄
  6
ByBlock
 62
     0
370
    -2
100
AcDbLine
 10
450.0
 20
0.0
 30
0.0
 11
450.0
 21
68.75
 31
0.0
  0
LINE
  5
1809
330
17F1
100
AcDbEntity
  8
表題欄
  6
ByBlock
 62
     0
370
    -2
100
AcDbLine
 10
0.0
 20
13.75
 30
0.0
 11
450.0
 21
13.75
 31
0.0
  0
LINE
  5
180A
330
17F1
100
AcDbEntity
  8
表題欄
  6
ByBlock
 62
     0
370
    -2
100
AcDbLine
 10
0.0
 20
27.5
 30
0.0
 11
450.0
 21
27.5
 31
0.0
  0
LINE
  5
180B
330
17F1
100
AcDbEntity
  8
表題欄
  6
ByBlock
 62
     0
370
    -2
100
AcDbLine
 10
0.0
 20
41.25
 30
0.0
 11
450.0
 21
41.25
 31
0.0
  0
LINE
  5
180C
330
17F1
100
AcDbEntity
  8
表題欄
  6
ByBlock
 62
     0
370
    -2
100
AcDbLine
 10
0.0
 20
55.0
 30
0.0
 11
450.0
 21
55.0
 31
0.0
  0
LINE
  5
180D
330
17F1
100
AcDbEntity
  8
表題欄
  6
ByBlock
 62
     0
370
    -2
100
AcDbLine
 10
0.0
 20
68.75
 30
0.0
 11
450.0
 21
68.75
 31
0.0
  0
ENDBLK
  5
1823
330
17F1
100
AcDbEntity
  8
0
100
AcDbBlockEnd
  0
BLOCK
  5
1824
330
17F2
100
AcDbEntity
  8
0
100
AcDbBlockBegin
  2
*U12
 70
     1
 10
0.0
 20
0.0
 30
0.0
  3
*U12
  1

  0
INSERT
  5
17F3
330
17F2
100
AcDbEntity
  8
0
100
AcDbBlockReference
  2
囲い文字1
 10
4.163741498082
 20
44.833324013919
 30
0.0
 41
3.446987668374
 42
3.446987668374
 43
3.446987668374
  0
ENDBLK
  5
1825
330
17F2
100
AcDbEntity
  8
0
100
AcDbBlockEnd
  0
BLOCK
  5
1826
330
17F4
100
AcDbEntity
  8
0
100
AcDbBlockBegin
  2
*U13
 70
     1
 10
0.0
 20
0.0
 30
0.0
  3
*U13
  1

  0
INSERT
  5
17F5
330
17F4
100
AcDbEntity
  8
0
100
AcDbBlockReference
  2
囲い文字2
 10
29.020280082295
 20
-53.885965169321
 30
0.0
 41
3.446987668374
 42
3.446987668374
 43
3.446987668374
  0
ENDBLK
  5
1827
330
17F4
100
AcDbEntity
  8
0
100
AcDbBlockEnd
  0
BLOCK
  5
1828
330
17F6
100
AcDbEntity
  8
0
100
AcDbBlockBegin
  2
*U14
 70
     1
 10
0.0
 20
0.0
 30
0.0
  3
*U14
  1

  0
INSERT
  5
17F7
330
17F6
100
AcDbEntity
  8
0
100
AcDbBlockReference
  2
囲い文字3
 10
14.463195287959
 20
-24.903733959604
 30
0.0
 41
3.446987668374
 42
3.446987668374
 43
3.446987668374
  0
ENDBLK
  5
1829
330
17F6
100
AcDbEntity
  8
0
100
AcDbBlockEnd
  0
BLOCK
  5
182A
330
17F8
100
AcDbEntity
  8
0
100
AcDbBlockBegin
  2
*U15
 70
     1
 10
0.0
 20
0.0
 30
0.0
  3
*U15
  1

  0
INSERT
  5
17F9
330
17F8
100
AcDbEntity
  8
0
100
AcDbBlockReference
  2
囲い文字4
 10
15.531435594298
 20
-18.313096846695
 30
0.0
 41
3.446987668374
 42
3.446987668374
 43
3.446987668374
  0
ENDBLK
  5
182B
330
17F8
100
AcDbEntity
  8
0
100
AcDbBlockEnd
  0
BLOCK
  5
1923
330
1907
100
AcDbEntity
  8
0
100
AcDbBlockBegin
  2
*T16
 70
     1
 10
0.0
 20
0.0
 30
0.0
  3
*T16
  1

  0
MTEXT
  5
1910
330
1907
100
AcDbEntity
  8
表題欄
 62
     0
100
AcDbMText
 10
18.75
 20
6.875
 30
0.0
 40
7.5
 41
33.75
 46
0.0
 71
     5
 72
     5
  1
符号
  7
ＭＳ ゴシック
 73
     1
 44
1.0
  0
MTEXT
  5
1911
330
1907
100
AcDbEntity
  8
表題欄
 62
     0
100
AcDbMText
 10
62.5
 20
6.875
 30
0.0
 40
7.5
 41
46.25
 46
0.0
 71
     5
 72
     5
  1
日付
  7
ＭＳ ゴシック
 73
     1
 44
1.0
  0
MTEXT
  5
1912
330
1907
100
AcDbEntity
  8
表題欄
 62
     0
100
AcDbMText
 10
106.25
 20
6.875
 30
0.0
 40
7.5
 41
33.75
 46
0.0
 71
     5
 72
     5
  1
訂正者
  7
ＭＳ ゴシック
 73
     1
 44
1.0
  0
MTEXT
  5
1913
330
1907
100
AcDbEntity
  8
表題欄
 62
     0
100
AcDbMText
 10
287.5
 20
6.875
 30
0.0
 40
7.5
 41
321.25
 46
0.0
 71
     5
 72
     5
  1
訂正概要
  7
ＭＳ ゴシック
 73
     1
 44
1.0
  0
INSERT
  5
1914
330
1907
100
AcDbEntity
  8
表題欄
 62
     0
100
AcDbBlockReference
  2
*U33
 10
12.976497308098
 20
15.625
 30
0.0
  0
INSERT
  5
1915
330
1907
100
AcDbEntity
  8
表題欄
 62
     0
100
AcDbBlockReference
  2
*U34
 10
12.976497308098
 20
29.375
 30
0.0
  0
INSERT
  5
1916
330
1907
100
AcDbEntity
  8
表題欄
 62
     0
100
AcDbBlockReference
  2
*U35
 10
12.976497308098
 20
43.125
 30
0.0
  0
INSERT
  5
1917
330
1907
100
AcDbEntity
  8
表題欄
 62
     0
100
AcDbBlockReference
  2
*U36
 10
12.976497308098
 20
56.875
 30
0.0
  0
LINE
  5
1918
330
1907
100
AcDbEntity
  8
表題欄
  6
ByBlock
 62
     0
370
    -2
100
AcDbLine
 10
0.0
 20
0.0
 30
0.0
 11
450.0
 21
0.0
 31
0.0
  0
LINE
  5
1919
330
1907
100
AcDbEntity
  8
表題欄
  6
ByBlock
 62
     0
370
    -2
100
AcDbLine
 10
0.0
 20
0.0
 30
0.0
 11
0.0
 21
68.75
 31
0.0
  0
LINE
  5
191A
330
1907
100
AcDbEntity
  8
表題欄
  6
ByBlock
 62
     0
370
    -2
100
AcDbLine
 10
37.5
 20
0.0
 30
0.0
 11
37.5
 21
68.75
 31
0.0
  0
LINE
  5
191B
330
1907
100
AcDbEntity
  8
表題欄
  6
ByBlock
 62
     0
370
    -2
100
AcDbLine
 10
87.5
 20
0.0
 30
0.0
 11
87.5
 21
68.75
 31
0.0
  0
LINE
  5
191C
330
1907
100
AcDbEntity
  8
表題欄
  6
ByBlock
 62
     0
370
    -2
100
AcDbLine
 10
125.0
 20
0.0
 30
0.0
 11
125.0
 21
68.75
 31
0.0
  0
LINE
  5
191D
330
1907
100
AcDbEntity
  8
表題欄
  6
ByBlock
 62
     0
370
    -2
100
AcDbLine
 10
450.0
 20
0.0
 30
0.0
 11
450.0
 21
68.75
 31
0.0
  0
LINE
  5
191E
330
1907
100
AcDbEntity
  8
表題欄
  6
ByBlock
 62
     0
370
    -2
100
AcDbLine
 10
0.0
 20
13.75
 30
0.0
 11
450.0
 21
13.75
 31
0.0
  0
LINE
  5
191F
330
1907
100
AcDbEntity
  8
表題欄
  6
ByBlock
 62
     0
370
    -2
100
AcDbLine
 10
0.0
 20
27.5
 30
0.0
 11
450.0
 21
27.5
 31
0.0
  0
LINE
  5
1920
330
1907
100
AcDbEntity
  8
表題欄
  6
ByBlock
 62
     0
370
    -2
100
AcDbLine
 10
0.0
 20
41.25
 30
0.0
 11
450.0
 21
41.25
 31
0.0
  0
LINE
  5
1921
330
1907
100
AcDbEntity
  8
表題欄
  6
ByBlock
 62
     0
370
    -2
100
AcDbLine
 10
0.0
 20
55.0
 30
0.0
 11
450.0
 21
55.0
 31
0.0
  0
LINE
  5
1922
330
1907
100
AcDbEntity
  8
表題欄
  6
ByBlock
 62
     0
370
    -2
100
AcDbLine
 10
0.0
 20
68.75
 30
0.0
 11
450.0
 21
68.75
 31
0.0
  0
ENDBLK
  5
1924
330
1907
100
AcDbEntity
  8
0
100
AcDbBlockEnd
  0
BLOCK
  5
1925
330
1908
100
AcDbEntity
  8
0
100
AcDbBlockBegin
  2
*U17
 70
     1
 10
0.0
 20
0.0
 30
0.0
  3
*U17
  1

  0
INSERT
  5
1909
330
1908
100
AcDbEntity
  8
0
100
AcDbBlockReference
  2
囲い文字1
 10
4.163741498082
 20
44.833324013919
 30
0.0
 41
3.446987668374
 42
3.446987668374
 43
3.446987668374
  0
ENDBLK
  5
1926
330
1908
100
AcDbEntity
  8
0
100
AcDbBlockEnd
  0
BLOCK
  5
1927
330
190A
100
AcDbEntity
  8
0
100
AcDbBlockBegin
  2
*U18
 70
     1
 10
0.0
 20
0.0
 30
0.0
  3
*U18
  1

  0
INSERT
  5
190B
330
190A
100
AcDbEntity
  8
0
100
AcDbBlockReference
  2
囲い文字2
 10
29.020280082295
 20
-53.885965169321
 30
0.0
 41
3.446987668374
 42
3.446987668374
 43
3.446987668374
  0
ENDBLK
  5
1928
330
190A
100
AcDbEntity
  8
0
100
AcDbBlockEnd
  0
BLOCK
  5
1929
330
190C
100
AcDbEntity
  8
0
100
AcDbBlockBegin
  2
*U19
 70
     1
 10
0.0
 20
0.0
 30
0.0
  3
*U19
  1

  0
INSERT
  5
190D
330
190C
100
AcDbEntity
  8
0
100
AcDbBlockReference
  2
囲い文字3
 10
14.463195287959
 20
-24.903733959604
 30
0.0
 41
3.446987668374
 42
3.446987668374
 43
3.446987668374
  0
ENDBLK
  5
192A
330
190C
100
AcDbEntity
  8
0
100
AcDbBlockEnd
  0
BLOCK
  5
192B
330
190E
100
AcDbEntity
  8
0
100
AcDbBlockBegin
  2
*U20
 70
     1
 10
0.0
 20
0.0
 30
0.0
  3
*U20
  1

  0
INSERT
  5
190F
330
190E
100
AcDbEntity
  8
0
100
AcDbBlockReference
  2
囲い文字4
 10
15.531435594298
 20
-18.313096846695
 30
0.0
 41
3.446987668374
 42
3.446987668374
 43
3.446987668374
  0
ENDBLK
  5
192C
330
190E
100
AcDbEntity
  8
0
100
AcDbBlockEnd
  0
BLOCK
  5
193D
330
192D
100
AcDbEntity
  8
0
100
AcDbBlockBegin
  2
*U21
 70
     1
 10
0.0
 20
0.0
 30
0.0
  3
*U21
  1

  0
INSERT
  5
192E
330
192D
100
AcDbEntity
  8
0
100
AcDbBlockReference
  2
囲い文字1
 10
4.163741498082
 20
44.833324013919
 30
0.0
 41
3.446987668374
 42
3.446987668374
 43
3.446987668374
  0
ENDBLK
  5
193E
330
192D
100
AcDbEntity
  8
0
100
AcDbBlockEnd
  0
BLOCK
  5
193F
330
192F
100
AcDbEntity
  8
0
100
AcDbBlockBegin
  2
*U22
 70
     1
 10
0.0
 20
0.0
 30
0.0
  3
*U22
  1

  0
INSERT
  5
1930
330
192F
100
AcDbEntity
  8
0
100
AcDbBlockReference
  2
囲い文字2
 10
29.020280082295
 20
-53.885965169321
 30
0.0
 41
3.446987668374
 42
3.446987668374
 43
3.446987668374
  0
ENDBLK
  5
1940
330
192F
100
AcDbEntity
  8
0
100
AcDbBlockEnd
  0
BLOCK
  5
1941
330
1931
100
AcDbEntity
  8
0
100
AcDbBlockBegin
  2
*U23
 70
     1
 10
0.0
 20
0.0
 30
0.0
  3
*U23
  1

  0
INSERT
  5
1932
330
1931
100
AcDbEntity
  8
0
100
AcDbBlockReference
  2
囲い文字3
 10
14.463195287959
 20
-24.903733959604
 30
0.0
 41
3.446987668374
 42
3.446987668374
 43
3.446987668374
  0
ENDBLK
  5
1942
330
1931
100
AcDbEntity
  8
0
100
AcDbBlockEnd
  0
BLOCK
  5
1943
330
1933
100
AcDbEntity
  8
0
100
AcDbBlockBegin
  2
*U24
 70
     1
 10
0.0
 20
0.0
 30
0.0
  3
*U24
  1

  0
INSERT
  5
1934
330
1933
100
AcDbEntity
  8
0
100
AcDbBlockReference
  2
囲い文字4
 10
15.531435594298
 20
-18.313096846695
 30
0.0
 41
3.446987668374
 42
3.446987668374
 43
3.446987668374
  0
ENDBLK
  5
1944
330
1933
100
AcDbEntity
  8
0
100
AcDbBlockEnd
  0
BLOCK
  5
1945
330
1935
100
AcDbEntity
  8
0
100
AcDbBlockBegin
  2
*U25
 70
     1
 10
0.0
 20
0.0
 30
0.0
  3
*U25
  1

  0
INSERT
  5
1936
330
1935
100
AcDbEntity
  8
0
100
AcDbBlockReference
  2
囲い文字1
 10
4.163741498082
 20
44.833324013919
 30
0.0
 41
3.446987668374
 42
3.446987668374
 43
3.446987668374
  0
ENDBLK
  5
1946
330
1935
100
AcDbEntity
  8
0
100
AcDbBlockEnd
  0
BLOCK
  5
1947
330
1937
100
AcDbEntity
  8
0
100
AcDbBlockBegin
  2
*U26
 70
     1
 10
0.0
 20
0.0
 30
0.0
  3
*U26
  1

  0
INSERT
  5
1938
330
1937
100
AcDbEntity
  8
0
100
AcDbBlockReference
  2
囲い文字2
 10
29.020280082295
 20
-53.885965169321
 30
0.0
 41
3.446987668374
 42
3.446987668374
 43
3.446987668374
  0
ENDBLK
  5
1948
330
1937
100
AcDbEntity
  8
0
100
AcDbBlockEnd
  0
BLOCK
  5
1949
330
1939
100
AcDbEntity
  8
0
100
AcDbBlockBegin
  2
*U27
 70
     1
 10
0.0
 20
0.0
 30
0.0
  3
*U27
  1

  0
INSERT
  5
193A
330
1939
100
AcDbEntity
  8
0
100
AcDbBlockReference
  2
囲い文字3
 10
14.463195287959
 20
-24.903733959604
 30
0.0
 41
3.446987668374
 42
3.446987668374
 43
3.446987668374
  0
ENDBLK
  5
194A
330
1939
100
AcDbEntity
  8
0
100
AcDbBlockEnd
  0
BLOCK
  5
194B
330
193B
100
AcDbEntity
  8
0
100
AcDbBlockBegin
  2
*U28
 70
     1
 10
0.0
 20
0.0
 30
0.0
  3
*U28
  1

  0
INSERT
  5
193C
330
193B
100
AcDbEntity
  8
0
100
AcDbBlockReference
  2
囲い文字4
 10
15.531435594298
 20
-18.313096846695
 30
0.0
 41
3.446987668374
 42
3.446987668374
 43
3.446987668374
  0
ENDBLK
  5
194C
330
193B
100
AcDbEntity
  8
0
100
AcDbBlockEnd
  0
BLOCK
  5
1955
330
194D
100
AcDbEntity
  8
0
100
AcDbBlockBegin
  2
*U29
 70
     1
 10
0.0
 20
0.0
 30
0.0
  3
*U29
  1

  0
INSERT
  5
194E
330
194D
100
AcDbEntity
  8
0
100
AcDbBlockReference
  2
囲い文字1
 10
4.163741498082
 20
44.833324013919
 30
0.0
 41
3.446987668374
 42
3.446987668374
 43
3.446987668374
  0
ENDBLK
  5
1956
330
194D
100
AcDbEntity
  8
0
100
AcDbBlockEnd
  0
BLOCK
  5
1957
330
194F
100
AcDbEntity
  8
0
100
AcDbBlockBegin
  2
*U30
 70
     1
 10
0.0
 20
0.0
 30
0.0
  3
*U30
  1

  0
INSERT
  5
1950
330
194F
100
AcDbEntity
  8
0
100
AcDbBlockReference
  2
囲い文字2
 10
29.020280082295
 20
-53.885965169321
 30
0.0
 41
3.446987668374
 42
3.446987668374
 43
3.446987668374
  0
ENDBLK
  5
1958
330
194F
100
AcDbEntity
  8
0
100
AcDbBlockEnd
  0
BLOCK
  5
1959
330
1951
100
AcDbEntity
  8
0
100
AcDbBlockBegin
  2
*U31
 70
     1
 10
0.0
 20
0.0
 30
0.0
  3
*U31
  1

  0
INSERT
  5
1952
330
1951
100
AcDbEntity
  8
0
100
AcDbBlockReference
  2
囲い文字3
 10
14.463195287959
 20
-24.903733959604
 30
0.0
 41
3.446987668374
 42
3.446987668374
 43
3.446987668374
  0
ENDBLK
  5
195A
330
1951
100
AcDbEntity
  8
0
100
AcDbBlockEnd
  0
BLOCK
  5
195B
330
1953
100
AcDbEntity
  8
0
100
AcDbBlockBegin
  2
*U32
 70
     1
 10
0.0
 20
0.0
 30
0.0
  3
*U32
  1

  0
INSERT
  5
1954
330
1953
100
AcDbEntity
  8
0
100
AcDbBlockReference
  2
囲い文字4
 10
15.531435594298
 20
-18.313096846695
 30
0.0
 41
3.446987668374
 42
3.446987668374
 43
3.446987668374
  0
ENDBLK
  5
195C
330
1953
100
AcDbEntity
  8
0
100
AcDbBlockEnd
  0
BLOCK
  5
195F
330
195D
100
AcDbEntity
  8
0
100
AcDbBlockBegin
  2
*U33
 70
     1
 10
0.0
 20
0.0
 30
0.0
  3
*U33
  1

  0
INSERT
  5
195E
330
195D
100
AcDbEntity
  8
0
100
AcDbBlockReference
  2
囲い文字1
 10
4.163741498082
 20
44.833324013919
 30
0.0
 41
3.446987668374
 42
3.446987668374
 43
3.446987668374
  0
ENDBLK
  5
1960
330
195D
100
AcDbEntity
  8
0
100
AcDbBlockEnd
  0
BLOCK
  5
1963
330
1961
100
AcDbEntity
  8
0
100
AcDbBlockBegin
  2
*U34
 70
     1
 10
0.0
 20
0.0
 30
0.0
  3
*U34
  1

  0
INSERT
  5
1962
330
1961
100
AcDbEntity
  8
0
100
AcDbBlockReference
  2
囲い文字2
 10
29.020280082295
 20
-53.885965169321
 30
0.0
 41
3.446987668374
 42
3.446987668374
 43
3.446987668374
  0
ENDBLK
  5
1964
330
1961
100
AcDbEntity
  8
0
100
AcDbBlockEnd
  0
BLOCK
  5
1967
330
1965
100
AcDbEntity
  8
0
100
AcDbBlockBegin
  2
*U35
 70
     1
 10
0.0
 20
0.0
 30
0.0
  3
*U35
  1

  0
INSERT
  5
1966
330
1965
100
AcDbEntity
  8
0
100
AcDbBlockReference
  2
囲い文字3
 10
14.463195287959
 20
-24.903733959604
 30
0.0
 41
3.446987668374
 42
3.446987668374
 43
3.446987668374
  0
ENDBLK
  5
1968
330
1965
100
AcDbEntity
  8
0
100
AcDbBlockEnd
  0
BLOCK
  5
196B
330
1969
100
AcDbEntity
  8
0
100
AcDbBlockBegin
  2
*U36
 70
     1
 10
0.0
 20
0.0
 30
0.0
  3
*U36
  1

  0
INSERT
  5
196A
330
1969
100
AcDbEntity
  8
0
100
AcDbBlockReference
  2
囲い文字4
 10
15.531435594298
 20
-18.313096846695
 30
0.0
 41
3.446987668374
 42
3.446987668374
 43
3.446987668374
  0
ENDBLK
  5
196C
330
1969
100
AcDbEntity
  8
0
100
AcDbBlockEnd
  0
ENDSEC
  0
SECTION
  2
ENTITIES
  0
LWPOLYLINE
  5
182C
330
A
100
AcDbEntity
  8
輪郭線
100
AcDbPolyline
 90
        4
 70
     1
 43
0.0
 10
1640.0
 20
1148.0
 10
40.0
 20
1148.0
 10
40.0
 20
40.0
 10
1640.0
 20
40.0
  0
LWPOLYLINE
  5
182D
330
A
100
AcDbEntity
  8
図面枠
100
AcDbPolyline
 90
        4
 70
     1
 43
0.0
 10
1680.0
 20
0.0
 10
1680.0
 20
1188.0
 10
0.0
 20
1188.0
 10
0.0
 20
0.0
  0
TEXT
  5
182E
330
A
100
AcDbEntity
  8
文字
100
AcDbText
 10
1381.016085259787
 20
201.201143699771
 30
0.0
 40
12.0
  1
＊防水部材の厚みはフリースケール
  7
ＭＳ ゴシック
 72
     1
 11
1505.86290281637
 21
207.201143699771
 31
0.0
100
AcDbText
 73
     2
  0
ACAD_TABLE
  5
182F
102
{ACAD_XDICTIONARY
360
19A2
102
}
330
A
100
AcDbEntity
  8
表題欄
160
               344
310
5801000002000000CC000000260000000000000000FC8C400000000000004440000000000000000000000000000000000000000000000000000000000000F03F000000000000F03F0000000000000000000000000000000041006300440062005400610062006C006500000009000000000000000000000000000000000000
310
000000F03F0000000000000000000000000000F03F00000000000000000000000000000000000000000000000000000000000000000000000000000000740078007400000042004900470046004F004E00540000008400000006000000050000000000000000FC8C4000000000000044400000000000000000000000000086
310
95400000000000004440000000000000000000000000008695400000000000305B4000000000000000000000000000FC8C400000000000305B4000000000000000000000000000FC8C4000000000000044400000000000000000
100
AcDbBlockReference
  2
*T16
 10
927.5
 20
40.0
 30
0.0
100
AcDbTable
342
1661
343
1907
 11
1.0
 21
0.0
 31
0.0
 90
        6
 91
        5
 92
        4
 93
       24
 94
        0
 95
        0
 96
        0
 40
1.875
 41
1.875
141
13.75
141
13.75
141
13.75
141
13.75
141
13.75
142
37.5
142
50.0
142
37.5
142
325.0
171
     1
172
     0
173
     0
174
     0
175
     1
176
     1
 91
       32
178
     0
145
0.0
140
7.5
 92
        0
301
CELL_VALUE
 93
        4
 90
        4
  1
符号
 94
        0
300

302
符号
304
ACVALUE_END
171
     1
172
     0
173
     0
174
     0
175
     1
176
     1
 91
       32
178
     0
145
0.0
140
7.5
 92
        0
301
CELL_VALUE
 93
        4
 90
        4
  1
日付
 94
        0
300

302
日付
304
ACVALUE_END
171
     1
172
     0
173
     0
174
     0
175
     1
176
     1
 91
       32
178
     0
145
0.0
140
7.5
 92
        0
301
CELL_VALUE
 93
        4
 90
        4
  1
訂正者
 94
        0
300

302
訂正者
304
ACVALUE_END
171
     1
172
     0
173
     0
174
     0
175
     1
176
     1
 91
       32
178
     0
145
0.0
140
7.5
 92
        0
301
CELL_VALUE
 93
        4
 90
        4
  1
訂正概要
 94
        0
300

302
訂正概要
304
ACVALUE_END
171
     1
172
     0
173
     0
174
     0
175
     1
176
     1
 91
       32
178
     0
145
0.0
140
7.5
 92
        0
301
CELL_VALUE
 93
        4
 90
        4
  1

 94
        0
300

302

304
ACVALUE_END
171
     1
172
     0
173
     0
174
     0
175
     1
176
     1
 91
       32
178
     0
145
0.0
140
7.5
 92
        0
301
CELL_VALUE
 93
        4
 90
        4
  1

 94
        0
300

302

304
ACVALUE_END
171
     1
172
     0
173
     0
174
     0
175
     1
176
     1
 91
       32
178
     0
145
0.0
140
7.5
 92
        0
301
CELL_VALUE
 93
        4
 90
        4
  1

 94
        0
300

302

304
ACVALUE_END
171
     1
172
     0
173
     0
174
     0
175
     1
176
     1
 91
       33
178
     0
145
0.0
170
     4
140
7.5
 92
        0
301
CELL_VALUE
 93
        4
 90
        4
  1

 94
        0
300

302

304
ACVALUE_END
171
     1
172
     0
173
     0
174
     0
175
     1
176
     1
 91
       33
178
     0
145
0.0
170
     5
140
7.5
 92
        0
301
CELL_VALUE
 93
        4
 90
        4
  1

 94
        0
300

302

304
ACVALUE_END
171
     1
172
     0
173
     0
174
     0
175
     1
176
     1
 91
       33
178
     0
145
0.0
170
     5
140
7.5
 92
        0
301
CELL_VALUE
 93
        4
 90
        4
  1

 94
        0
300

302

304
ACVALUE_END
171
     1
172
     0
173
     0
174
     0
175
     1
176
     1
 91
       33
178
     0
145
0.0
170
     5
140
7.5
 92
        0
301
CELL_VALUE
 93
        4
 90
        4
  1

 94
        0
300

302

304
ACVALUE_END
171
     1
172
     0
173
     0
174
     0
175
     1
176
     1
 91
       33
178
     0
145
0.0
170
     4
140
7.5
 92
        0
301
CELL_VALUE
 93
        4
 90
        4
  1

 94
        0
300

302

304
ACVALUE_END
171
     1
172
     0
173
     0
174
     0
175
     1
176
     1
 91
       33
178
     0
145
0.0
170
     5
140
7.5
 92
        0
301
CELL_VALUE
 93
        4
 90
        4
  1

 94
        0
300

302

304
ACVALUE_END
171
     1
172
     0
173
     0
174
     0
175
     1
176
     1
 91
       33
178
     0
145
0.0
170
     5
140
7.5
 92
        0
301
CELL_VALUE
 93
        4
 90
        4
  1

 94
        0
300

302

304
ACVALUE_END
171
     1
172
     0
173
     0
174
     0
175
     1
176
     1
 91
       33
178
     0
145
0.0
170
     5
140
7.5
 92
        0
301
CELL_VALUE
 93
        4
 90
        4
  1

 94
        0
300

302

304
ACVALUE_END
171
     1
172
     0
173
     0
174
     0
175
     1
176
     1
 91
       33
178
     0
145
0.0
170
     4
140
7.5
 92
        0
301
CELL_VALUE
 93
        4
 90
        4
  1

 94
        0
300

302

304
ACVALUE_END
171
     1
172
     0
173
     0
174
     0
175
     1
176
     1
 91
       33
178
     0
145
0.0
170
     5
140
7.5
 92
        0
301
CELL_VALUE
 93
        4
 90
        4
  1

 94
        0
300

302

304
ACVALUE_END
171
     1
172
     0
173
     0
174
     0
175
     1
176
     1
 91
       33
178
     0
145
0.0
170
     5
140
7.5
 92
        0
301
CELL_VALUE
 93
        4
 90
        4
  1

 94
        0
300

302

304
ACVALUE_END
171
     1
172
     0
173
     0
174
     0
175
     1
176
     1
 91
       33
178
     0
145
0.0
170
     5
140
7.5
 92
        0
301
CELL_VALUE
 93
        4
 90
        4
  1

 94
        0
300

302

304
ACVALUE_END
171
     1
172
     0
173
     0
174
     0
175
     1
176
     1
 91
       33
178
     0
145
0.0
170
     4
140
7.5
 92
        0
301
CELL_VALUE
 93
        4
 90
        4
  1

 94
        0
300

302

304
ACVALUE_END
  0
INSERT
  5
1830
330
A
100
AcDbEntity
  8
表題欄
100
AcDbBlockReference
 66
     1
  2
表題欄(定義)
 10
1421.384392108928
 20
240.349701250074
 30
0.0
 41
4.0
 42
4.0
 43
4.0
  0
ATTRIB
  5
1831
102
{ACAD_XDICTIONARY
360
1832
102
}
330
1830
100
AcDbEntity
  8
表題欄
100
AcDbText
 10
1518.100000000006
 20
75.999909272054
 30
0.0
 40
6.0
  1

  7
ＭＳ ゴシック
100
AcDbAttribute
  2
REMARKS
 70
     0
280
     0
1001
AcadAnnotative
1000
AnnotativeData
1002
{
1070
     1
1070
     0
1002
}
  0
ATTRIB
  5
1835
102
{ACAD_XDICTIONARY
360
1836
102
}
330
1830
100
AcDbEntity
  8
表題欄
100
AcDbText
 10
1456.505610854077
 20
75.999909272054
 30
0.0
 40
6.0
  1
A3-1:4
  7
ＭＳ ゴシック
 72
     1
 11
1468.210000000006
 21
78.999909272054
 31
0.0
100
AcDbAttribute
  2
SCALE
 70
     0
 74
     2
280
     0
1001
AcadAnnotative
1000
AnnotativeData
1002
{
1070
     1
1070
     0
1002
}
  0
ATTRIB
  5
1839
102
{ACAD_XDICTIONARY
360
183A
102
}
330
1830
100
AcDbEntity
  8
表題欄
100
AcDbText
 10
1454.5
 20
108.999909272054
 30
0.0
 40
6.0
  1
LLHD-P02
  7
ＭＳ ゴシック
100
AcDbAttribute
  2
DRAWING　NO.
 70
     0
280
     0
1001
AcadAnnotative
1000
AnnotativeData
1002
{
1070
     1
1070
     0
1002
}
  0
ATTRIB
  5
183D
102
{ACAD_XDICTIONARY
360
183E
102
}
330
1830
100
AcDbEntity
  8
表題欄
100
AcDbText
 10
1454.5
 20
138.999909272054
 30
0.0
 40
6.0
  1
パラペット(2)アゴ ウレタン防水 改修
  7
ＭＳ ゴシック
100
AcDbAttribute
  2
POSITION
 70
     0
280
     0
1001
AcadAnnotative
1000
AnnotativeData
1002
{
1070
     1
1070
     0
1002
}
  0
ATTRIB
  5
1841
102
{ACAD_XDICTIONARY
360
1842
102
}
330
1830
100
AcDbEntity
  8
表題欄
100
AcDbText
 10
1454.5
 20
168.999909272054
 30
0.0
 40
6.0
  1
高耐久仕様・非断熱機械的固定 LLHD工法
  7
ＭＳ ゴシック
100
AcDbAttribute
  2
NAME
 70
     0
280
     0
1001
AcadAnnotative
1000
AnnotativeData
1002
{
1070
     1
1070
     0
1002
}
  0
ATTRIB
  5
1845
102
{ACAD_XDICTIONARY
360
1846
102
}
330
1830
100
AcDbEntity
  8
表題欄
100
AcDbText
 10
1398.996342378392
 20
45.999909272054
 30
0.0
 40
6.0
  1
小 山
  7
ＭＳ ゴシック
 72
     1
 11
1408.75
 21
48.999909272054
 31
0.0
100
AcDbAttribute
  2
DRAWING
 70
     0
 74
     2
280
     0
1001
AcadAnnotative
1000
AnnotativeData
1002
{
1070
     1
1070
     0
1002
}
  0
ATTRIB
  5
1849
330
1830
100
AcDbEntity
  8
表題欄
100
AcDbText
 10
1408.75
 20
75.999909272054
 30
0.0
 40
6.0
  1

  7
ＭＳ ゴシック
 72
     1
 11
1408.75
 21
78.999909272054
 31
0.0
100
AcDbAttribute
  2
DESIGNED
 70
     0
 74
     2
280
     0
  0
ATTRIB
  5
184A
102
{ACAD_XDICTIONARY
360
184B
102
}
330
1830
100
AcDbEntity
  8
表題欄
100
AcDbText
 10
1398.996342378392
 20
105.999909272054
 30
0.0
 40
6.0
  1
早 川
  7
ＭＳ ゴシック
 72
     1
 11
1408.75
 21
108.999909272054
 31
0.0
100
AcDbAttribute
  2
CHECKED
 70
     0
 74
     2
280
     0
1001
AcadAnnotative
1000
AnnotativeData
1002
{
1070
     1
1070
     0
1002
}
  0
ATTRIB
  5
184E
102
{ACAD_XDICTIONARY
360
184F
102
}
330
1830
100
AcDbEntity
  8
表題欄
100
AcDbText
 10
1393.144147805427
 20
135.999909272054
 30
0.0
 40
6.0
  1
20220711
  7
ＭＳ ゴシック
 72
     1
 11
1408.75
 21
138.999909272054
 31
0.0
100
AcDbAttribute
  2
ISSUE
 70
     0
 74
     2
280
     0
1001
AcadAnnotative
1000
AnnotativeData
1002
{
1070
     1
1070
     0
1002
}
  0
ATTRIB
  5
1852
102
{ACAD_XDICTIONARY
360
1853
102
}
330
1830
100
AcDbEntity
  8
表題欄
100
AcDbText
 10
1393.144147805427
 20
165.999909272054
 30
0.0
 40
6.0
  1
20220707
  7
ＭＳ ゴシック
 72
     1
 11
1408.75
 21
168.999909272054
 31
0.0
100
AcDbAttribute
  2
DATE
 70
     0
 74
     2
280
     0
1001
AcadAnnotative
1000
AnnotativeData
1002
{
1070
     1
1070
     0
1002
}
  0
SEQEND
  5
1856
330
1830
100
AcDbEntity
  8
表題欄
  0
LINE
  5
1857
330
A
100
AcDbEntity
  8
躯体
100
AcDbLine
 10
660.635181860205
 20
714.06414428859
 30
0.0
 11
660.635181860205
 21
311.064144296528
 31
0.0
  0
LINE
  5
1858
330
A
100
AcDbEntity
  8
躯体
100
AcDbLine
 10
480.635181860205
 20
881.064144296528
 30
0.0
 11
480.635181860205
 21
311.064144296528
 31
0.0
  0
LINE
  5
1859
330
A
100
AcDbEntity
  8
躯体
100
AcDbLine
 10
460.635181860205
 20
911.064144296528
 30
0.0
 11
460.635181860205
 21
881.064144296528
 31
0.0
  0
LINE
  5
185A
330
A
100
AcDbEntity
  8
躯体
100
AcDbLine
 10
480.635181860205
 20
911.064144296528
 30
0.0
 11
460.635181860205
 21
911.064144296528
 31
0.0
  0
LINE
  5
185B
330
A
100
AcDbEntity
  8
躯体
100
AcDbLine
 10
480.635181860205
 20
881.064144296528
 30
0.0
 11
460.635181860205
 21
881.064144296528
 31
0.0
  0
LINE
  5
185C
330
A
100
AcDbEntity
  8
躯体
100
AcDbLine
 10
660.635181860205
 20
311.064144296528
 30
0.0
 11
1260.635181860205
 21
311.064144296528
 31
0.0
  0
LINE
  5
185D
330
A
100
AcDbEntity
  8
躯体
100
AcDbLine
 10
750.635181860205
 20
884.06414428859
 30
0.0
 11
480.635181780861
 21
911.064144296528
 31
0.0
  0
LINE
  5
185E
330
A
100
AcDbEntity
  8
躯体
100
AcDbLine
 10
660.635181860205
 20
714.06414428859
 30
0.0
 11
685.345372438955
 21
714.06414428859
 31
0.0
  0
LINE
  5
185F
330
A
100
AcDbEntity
  8
躯体
100
AcDbLine
 10
710.345372438955
 20
714.06414428859
 30
0.0
 11
750.635181860205
 21
714.06414428859
 31
0.0
  0
LINE
  5
1860
330
A
100
AcDbEntity
  8
躯体
100
AcDbLine
 10
710.345372438955
 20
714.06414428859
 30
0.0
 11
710.345372438955
 21
734.06414428859
 31
0.0
  0
LINE
  5
1861
330
A
100
AcDbEntity
  8
躯体
100
AcDbLine
 10
690.345372438955
 20
734.06414428859
 30
0.0
 11
710.345372438955
 21
734.06414428859
 31
0.0
  0
LINE
  5
1862
330
A
100
AcDbEntity
  8
躯体
100
AcDbLine
 10
690.345372438955
 20
734.06414428859
 30
0.0
 11
685.345372438955
 21
714.06414428859
 31
0.0
  0
LINE
  5
1863
330
A
100
AcDbEntity
  8
躯体
100
AcDbLine
 10
750.635181860205
 20
884.06414428859
 30
0.0
 11
750.635181860205
 21
714.06414428859
 31
0.0
  0
LINE
  5
1864
330
A
100
AcDbEntity
  8
躯体
100
AcDbLine
 10
480.592786148052
 20
808.448108015393
 30
0.0
 11
600.635181860205
 21
700.398429647292
 31
0.0
  0
LINE
  5
1865
330
A
100
AcDbEntity
  8
躯体
100
AcDbLine
 10
480.635181860205
 20
812.268396288593
 30
0.0
 11
600.635181860205
 21
704.191285046159
 31
0.0
  0
LINE
  5
1866
330
A
100
AcDbEntity
  8
躯体
100
AcDbLine
 10
480.569127533585
 20
816.176428896171
 30
0.0
 11
600.635181860205
 21
708.149044477177
 31
0.0
  0
LINE
  5
1867
330
A
100
AcDbEntity
  8
躯体
100
AcDbLine
 10
956.348474054284
 20
311.064144296528
 30
0.0
 11
1122.997367681513
 21
161.064144296521
 31
0.0
  0
LINE
  5
1868
330
A
100
AcDbEntity
  8
躯体
100
AcDbLine
 10
960.635181860205
 20
311.064144296528
 30
0.0
 11
1127.182934599667
 21
161.064144296521
 31
0.0
  0
LINE
  5
1869
330
A
100
AcDbEntity
  8
躯体
100
AcDbLine
 10
964.91267484703
 20
311.064144296521
 30
0.0
 11
1131.628811184637
 21
161.064144296528
 31
0.0
  0
LINE
  5
186A
330
A
100
AcDbEntity
  8
躯体
100
AcDbLine
 10
480.592786148052
 20
517.243856023328
 30
0.0
 11
600.635181860205
 21
409.194177655219
 31
0.0
  0
LINE
  5
186B
330
A
100
AcDbEntity
  8
躯体
100
AcDbLine
 10
480.635181860205
 20
521.064144296528
 30
0.0
 11
600.635181860205
 21
412.987033054087
 31
0.0
  0
LINE
  5
186C
330
A
100
AcDbEntity
  8
躯体
100
AcDbLine
 10
480.569127533585
 20
524.972176904099
 30
0.0
 11
600.635181860205
 21
416.944792485097
 31
0.0
  0
LWPOLYLINE
  5
186D
330
A
100
AcDbEntity
  8
寸法線
100
AcDbPolyline
 90
        3
 70
     0
 43
0.0
 10
684.787122696966
 20
703.561782829609
 10
678.991560031493
 20
705.114668334223
 10
684.787107281336
 20
706.667611370794
  0
LINE
  5
186E
330
A
100
AcDbEntity
  8
寸法線
100
AcDbLine
 10
678.993262633179
 20
705.115124554024
 30
0.0
 11
782.907372985072
 21
705.115124554024
 31
0.0
  0
TEXT
  5
186F
330
A
100
AcDbEntity
  8
文字
100
AcDbText
 10
787.447951800808
 20
701.276636147493
 30
0.0
 40
12.0
  1
IBシリコーン
  7
基本スタイル
100
AcDbText
1001
AcadAnnotative
1000
AnnotativeData
1002
{
1070
     1
1070
     0
1002
}
  0
LWPOLYLINE
  5
1870
330
A
100
AcDbEntity
  8
部材(ﾋﾞｽ類)
100
AcDbPolyline
 90
       32
 70
     0
 43
0.0
 10
694.865058332696
 20
263.368453567455
 10
694.83188045711
 20
263.368453567455
 42
0.126825768809
 10
694.65406801951
 20
264.058188650815
 10
693.926546900853
 20
265.375440361357
 42
-0.256490137263
 10
693.920045861691
 20
265.950288955799
 10
695.506591531128
 20
268.918701531948
 42
0.253636490355
 10
695.5001612462
 20
270.057217094611
 10
694.052440879561
 20
273.070905949309
 42
-0.218900263645
 10
694.045852107098
 20
273.45896094061
 10
695.416732387181
 20
276.625087423519
 42
0.209095404736
 10
695.413250392921
 20
277.58221164249
 10
694.145517094279
 20
280.534832615318
 42
-0.199072424679
 10
694.141371515099
 20
280.865164195253
 10
694.712431857653
 20
282.293015735951
 42
0.099854070822
 10
694.82399504161
 20
282.846076842499
 10
694.82399504161
 20
283.656146877634
 42
3.867768794258
 10
694.1936154055
 20
283.656146877634
 10
694.1936154055
 20
282.846076842499
 42
-0.095438157436
 10
694.136635960283
 20
282.550280838215
 10
693.55627046177
 20
281.099760368234
 42
0.206638844849
 10
693.578628563715
 20
280.258446606807
 10
694.926605235938
 20
277.350853660842
 42
-0.21270382653
 10
694.933872307774
 20
276.864792850887
 10
693.565709324881
 20
273.666400230664
 42
0.20973763421
 10
693.573618854032
 20
272.813260910843
 10
694.952004451421
 20
269.749352366882
 42
-0.270363890763
 10
694.913518318375
 20
269.148730456582
 10
693.366847004967
 20
266.227701529308
 42
0.248644858073
 10
693.367340514589
 20
265.108939132377
 10
694.092840570185
 20
263.741684714536
 42
-0.122570027372
 10
694.18572999
 20
263.368453567455
 10
694.152552114414
 20
263.368453567455
  0
LWPOLYLINE
  5
1871
330
A
100
AcDbEntity
  8
部材(ﾋﾞｽ類)
100
AcDbPolyline
 90
       32
 70
     0
 43
0.0
 10
694.845264531948
 20
261.665768694533
 10
694.865058332696
 20
263.368453567455
 42
0.126825813089
 10
694.683110599093
 20
264.074229224352
 10
693.955503381832
 20
265.391636282598
 42
-0.256544899034
 10
693.949306561481
 20
265.93464981018
 10
695.53584987943
 20
268.903057986703
 42
0.251254532285
 10
695.534488065125
 20
270.063538883027
 10
694.082344898387
 20
273.085276790836
 42
-0.218900263645
 10
694.076226752528
 20
273.445613568474
 10
695.447178817085
 20
276.611904619014
 42
0.209095404736
 10
695.443600100654
 20
277.595615622085
 10
694.176003684872
 20
280.547922276215
 42
-0.199109332435
 10
694.172197994551
 20
280.85289622657
 10
694.752710575362
 20
282.303784103977
 42
0.095438169349
 10
694.857172917196
 20
282.846076842499
 10
694.857172917196
 20
283.636925436018
 42
3.649823686132
 10
694.160437529907
 20
283.636925436018
 10
694.160437529907
 20
282.846076842499
 42
-0.105213986763
 10
694.094330001943
 20
282.535397051877
 10
693.525168049491
 20
281.111338697316
 42
0.206444475481
 10
693.548528119703
 20
280.244491869307
 10
694.896504791926
 20
277.336898923342
 42
-0.212703826529
 10
694.903368137559
 20
276.877841491703
 10
693.535205154658
 20
273.679448871495
 42
0.209737634211
 10
693.543361856595
 20
272.799648947926
 10
694.922033011746
 20
269.735105659325
 42
-0.271504379566
 10
694.885025655305
 20
269.165820643408
 10
693.337525813273
 20
266.243226964762
 42
0.248644858073
 10
693.338033031498
 20
265.093387834582
 10
694.063533087086
 20
263.726133416742
 42
-0.122570027372
 10
694.152552114414
 20
263.368453567455
 10
694.172345915154
 20
261.665768694533
  0
LWPOLYLINE
  5
1872
330
A
100
AcDbEntity
  8
部材(ﾋﾞｽ類)
100
AcDbPolyline
 90
        4
 70
     0
 43
0.0
 10
694.18572999
 20
261.665768694533
 10
694.18572999
 20
262.642961928446
 10
694.83188045711
 20
262.642961928446
 10
694.83188045711
 20
261.665768694533
  0
LINE
  5
1873
330
A
100
AcDbEntity
  8
部材(ﾋﾞｽ類)
100
AcDbLine
 10
697.508805223544
 20
309.549020637605
 30
0.0
 11
691.508805223559
 21
309.549020637605
 31
0.0
  0
LINE
  5
1874
330
A
100
AcDbEntity
  8
部材(ﾋﾞｽ類)
100
AcDbLine
 10
690.011645620412
 20
311.064144296528
 30
0.0
 11
699.005964826691
 21
311.064144296528
 31
0.0
  0
LINE
  5
1875
330
A
100
AcDbEntity
  8
部材(ﾋﾞｽ類)
100
AcDbLine
 10
695.681909811006
 20
261.665768694533
 30
0.0
 11
692.671345760966
 21
260.614545621262
 31
0.0
  0
LINE
  5
1876
330
A
100
AcDbEntity
  8
部材(ﾋﾞｽ類)
100
AcDbLine
 10
695.395523017709
 20
261.665768694533
 30
0.0
 11
692.671345760966
 21
260.71454562126
 31
0.0
  0
LINE
  5
1877
330
A
100
AcDbEntity
  8
部材(ﾋﾞｽ類)
100
AcDbLine
 10
695.801807970187
 20
261.665768694533
 30
0.0
 11
693.592191403455
 21
260.261066097293
 31
0.0
  0
LINE
  5
1878
330
A
100
AcDbEntity
  8
部材(ﾋﾞｽ類)
100
AcDbLine
 10
695.45716301677
 20
258.789293769325
 30
0.0
 11
693.817223537437
 21
258.217532912524
 31
0.0
  0
LINE
  5
1879
330
A
100
AcDbEntity
  8
部材(ﾋﾞｽ類)
100
AcDbLine
 10
695.45716301677
 20
258.889293769324
 30
0.0
 11
693.817223537437
 21
258.31753291253
 31
0.0
  0
LINE
  5
187A
330
A
100
AcDbEntity
  8
部材(ﾋﾞｽ類)
100
AcDbLine
 10
694.982206702647
 20
258.606975122122
 30
0.0
 11
694.176732104068
 21
258.079530503514
 31
0.0
  0
LINE
  5
187B
330
A
100
AcDbEntity
  8
部材(ﾋﾞｽ類)
100
AcDbLine
 10
695.142237731925
 20
259.204219054169
 30
0.0
 11
694.050463177555
 21
258.550772552655
 31
0.0
  0
LINE
  5
187C
330
A
100
AcDbEntity
  8
部材(ﾋﾞｽ類)
100
AcDbLine
 10
693.215802476916
 20
261.665768694533
 30
0.0
 11
693.301762322626
 21
261.34496218292
 31
0.0
  0
LWPOLYLINE
  5
187D
330
A
100
AcDbEntity
  8
部材(ﾋﾞｽ類)
100
AcDbPolyline
 90
        4
 70
     0
 43
0.0
 10
691.597696825214
 20
275.454730527694
 10
691.597696825214
 20
275.20584136642
 10
691.899918504809
 20
274.441394346053
 10
691.935477586747
 20
273.232507625813
  0
LWPOLYLINE
  5
187E
330
A
100
AcDbEntity
  8
部材(ﾋﾞｽ類)
100
AcDbPolyline
 90
        4
 70
     0
 43
0.0
 10
691.988810106464
 20
269.410286251674
 10
691.971036669151
 20
270.619172970051
 10
691.597696825214
 20
271.419172970796
 10
691.597696825214
 20
271.614729611421
  0
LWPOLYLINE
  5
187F
330
A
100
AcDbEntity
  8
部材(ﾋﾞｽ類)
100
AcDbPolyline
 90
        4
 70
     0
 43
0.0
 10
691.597696825214
 20
267.792506711776
 10
691.597696825214
 20
267.614729611421
 10
692.042142626182
 20
266.779175106654
 10
692.059928270341
 20
265.570285337264
  0
LWPOLYLINE
  5
1880
330
A
100
AcDbEntity
  8
部材(ﾋﾞｽ類)
100
AcDbPolyline
 90
       58
 70
     1
 43
0.0
 10
699.534247040945
 20
281.785105013085
 10
696.886410015424
 20
278.319600530958
 10
696.886410015431
 20
282.809019417276
 42
-0.355962003442
 10
697.051428091778
 20
283.01144103548
 10
697.25973765205
 20
283.057908576688
 10
697.330843609081
 20
283.093464606216
 10
697.401949566112
 20
283.093464606216
 10
697.473067730454
 20
283.129020637607
 10
697.490841167768
 20
283.129020637607
 10
697.490841167768
 20
309.466177925126
 42
-0.19891236738
 10
697.549419811527
 20
309.607599281364
 10
699.005964826691
 20
311.064144296528
 10
699.005964826691
 20
311.665768694533
 10
690.011645620412
 20
311.665768694533
 10
690.011645620412
 20
311.064144296528
 10
691.468190635576
 20
309.607599281364
 42
-0.19891236738
 10
691.526769279335
 20
309.466177925126
 10
691.526769279335
 20
283.129020637607
 10
691.544542716649
 20
283.129020637607
 10
691.615660880991
 20
283.093464606216
 10
691.686766838022
 20
283.093464606216
 10
691.757872795053
 20
283.057908576688
 10
691.966182355325
 20
283.01144103548
 42
-0.355962003442
 10
692.131200431671
 20
282.809019417276
 10
692.131200431679
 20
278.319600530958
 10
689.483363406158
 20
281.785105013085
 42
0.982770495282
 10
688.760548653947
 20
281.252470704552
 10
691.508805223559
 20
277.054730527321
 10
691.597696825214
 20
275.454730527694
 10
692.664359422684
 20
275.454730527694
 10
692.664359422684
 20
273.232507625813
 10
691.508805223559
 20
273.232507625813
 10
691.597696825214
 20
271.614729611421
 10
692.611039110277
 20
271.614729611421
 10
692.539933153246
 20
269.410286251674
 10
691.508805223559
 20
269.410286251674
 10
691.597696825214
 20
267.792506711776
 10
692.46881498937
 20
267.792506711776
 10
692.397696825028
 20
265.570285337264
 10
691.508805223559
 20
265.570285337264
 10
691.616737869161
 20
263.429834252507
 10
692.258805223559
 20
261.665768694533
 10
696.758805223544
 20
261.665768694533
 10
697.400872577942
 20
263.429834252514
 10
697.508805223544
 20
265.570285337264
 10
696.619913622075
 20
265.570285337264
 10
696.548795457733
 20
267.792506711776
 10
697.419913621889
 20
267.792506711776
 10
697.508805223544
 20
269.410286251674
 10
696.477677293857
 20
269.410286251674
 10
696.406571336825
 20
271.614729611421
 10
697.419913621889
 20
271.614729611421
 10
697.508805223544
 20
273.232507625813
 10
696.353251024419
 20
273.232507625813
 10
696.353251024419
 20
275.454730527694
 10
697.419913621889
 20
275.454730527694
 10
697.508805223544
 20
277.054730527321
 10
700.257061793156
 20
281.252470704552
 42
0.982770495282
  0
LWPOLYLINE
  5
1881
330
A
100
AcDbEntity
  8
部材(ﾋﾞｽ類)
100
AcDbPolyline
 90
        4
 70
     0
 43
0.0
 10
697.419913621889
 20
267.792506711776
 10
697.419913621889
 20
267.614729611421
 10
696.975467820921
 20
266.779175106654
 10
696.957682176762
 20
265.570285337264
  0
LWPOLYLINE
  5
1882
330
A
100
AcDbEntity
  8
部材(ﾋﾞｽ類)
100
AcDbPolyline
 90
        4
 70
     0
 43
0.0
 10
697.028800340639
 20
269.410286251674
 10
697.046573777952
 20
270.619172970051
 10
697.419913621889
 20
271.419172970796
 10
697.419913621889
 20
271.614729611421
  0
LWPOLYLINE
  5
1883
330
A
100
AcDbEntity
  8
部材(ﾋﾞｽ類)
100
AcDbPolyline
 90
        4
 70
     0
 43
0.0
 10
697.419913621889
 20
275.454730527694
 10
697.419913621889
 20
275.20584136642
 10
697.117691942294
 20
274.441394346053
 10
697.082132860356
 20
273.232507625813
  0
LWPOLYLINE
  5
1884
330
A
100
AcDbEntity
  8
部材(ﾋﾞｽ類)
100
AcDbPolyline
 90
        7
 70
     0
 43
0.0
 10
694.857172917196
 20
282.916890390959
 10
696.353101516972
 20
282.916854217154
 10
696.353101516972
 20
277.054598357732
 10
696.619764114628
 20
277.054598357732
 10
696.619764114628
 20
277.807520073606
 42
-0.13354901382
 10
696.688627173688
 20
278.060741198628
 10
696.886410015424
 20
278.319600530951
  0
LWPOLYLINE
  5
1885
330
A
100
AcDbEntity
  8
部材(ﾋﾞｽ類)
100
AcDbPolyline
 90
        7
 70
     0
 43
0.0
 10
694.160438238527
 20
282.916890108885
 10
692.664508930131
 20
282.916854217154
 10
692.664508930131
 20
277.054598357732
 10
692.397846332475
 20
277.054598357732
 10
692.397846332475
 20
277.807520073606
 42
0.13354901382
 10
692.328983273415
 20
278.060741198628
 10
692.131200431679
 20
278.319600530951
  0
LWPOLYLINE
  5
1886
330
A
100
AcDbEntity
  8
部材(ﾋﾞｽ類)
100
AcDbPolyline
 90
       15
 70
     0
 43
0.0
 10
693.72328541521
 20
261.665768694533
 10
693.301762322626
 20
261.34496218292
 10
692.671345760966
 20
260.71454562126
 10
692.671345760966
 20
260.614545621262
 10
693.592191403455
 20
260.261066097293
 10
694.050463177555
 20
258.550772552655
 10
693.817223537437
 20
258.31753291253
 10
693.817223537437
 20
258.217532912524
 10
694.176732104068
 20
258.079530503514
 10
694.508805223551
 20
256.840216749755
 10
694.982206702647
 20
258.606975122122
 10
695.45716301677
 20
258.789293769325
 10
695.45716301677
 20
258.889293769324
 10
695.142237731925
 20
259.204219054169
 10
695.801807970187
 20
261.665768694533
  0
LINE
  5
1887
330
A
100
AcDbEntity
  8
中心線
 48
0.25
100
AcDbLine
 10
694.508805223551
 20
256.496113980473
 30
0.0
 11
694.508805223551
 21
320.394296603365
 31
0.0
  0
HATCH
  5
1888
330
A
100
AcDbEntity
  8
部材(積層鋼板)
 62
     4
100
AcDbHatch
 10
0.0
 20
0.0
 30
0.0
210
0.0
220
0.0
230
1.0
  2
ANSI31
 70
     0
 71
     0
 91
        3
 92
        7
 72
     1
 73
     1
 93
        8
 10
677.8578465537794
 20
316.3974776295217
 42
0.0
 10
694.5088052235733
 20
316.3974776295217
 42
0.0
 10
694.5088052235733
 20
319.5641442955239
 42
0.0
 10
677.8578465537794
 20
319.5641442955239
 42
-0.3639702342664197
 10
670.2419999298363
 20
325.9545983887801
 42
0.0
 10
669.0870730770912
 20
332.5045140517614
 42
0.0
 10
665.9685151932135
 20
331.9546281559305
 42
0.0
 10
667.1234420459587
 20
325.4047124929639
 42
0.3639702342665697
 97
        0
 92
        7
 72
     0
 73
     1
 93
        4
 10
694.5088052235733
 20
316.3974776295217
 10
714.5088052235733
 20
316.3974776295217
 10
714.5088052235733
 20
319.5641442955239
 10
694.5088052235733
 20
319.5641442955239
 97
        0
 92
        7
 72
     0
 73
     1
 93
        4
 10
729.5088052235733
 20
316.3974776295217
 10
729.5088052235733
 20
319.5641442955239
 10
714.5088052235733
 20
319.5641442955239
 10
714.5088052235733
 20
316.3974776295217
 97
        0
 75
     0
 76
     1
 52
0.0
 41
20.0
 77
     0
 78
     1
 53
45.0
 43
684.8100592625342
 44
225.8823113051913
 45
-1.767766952966369
 46
1.767766952966369
 79
     0
 47
0.0
 98
        3
 10
669.2100592625357
 20
327.0823113051883
 10
697.2100592625357
 20
318.2823113052
 10
718.4100592625327
 20
317.6823113051942
1001
ACAD
1010
0.0
1020
0.0
1030
0.0
1001
HATCHBACKGROUNDCOLOR
1071
-939524096
1000

1000

  0
LWPOLYLINE
  5
1889
330
A
100
AcDbEntity
  8
部材(積層鋼板)
100
AcDbPolyline
 90
        8
 70
     1
 43
0.0
 10
677.857846553779
 20
316.397477629522
 10
729.508805223573
 20
316.397477629522
 10
729.508805223573
 20
319.564144295524
 10
677.857846553779
 20
319.564144295524
 42
-0.363970234266
 10
670.241999929836
 20
325.95459838878
 10
669.087073077091
 20
332.504514051761
 10
665.968515193214
 20
331.954628155931
 10
667.123442045959
 20
325.404712492964
 42
0.363970234266
  0
LINE
  5
188A
330
A
100
AcDbEntity
  8
IBｼｰﾄ
100
AcDbLine
 10
729.508805223573
 20
320.564144295524
 30
0.0
 11
684.857846553779
 21
320.564144295524
 31
0.0
  0
ARC
  5
188B
330
A
100
AcDbEntity
  8
IBｼｰﾄ
100
AcDbCircle
 10
677.857846553779
 20
327.297477629516
 30
0.0
 40
6.733333333992315
100
AcDbArc
 50
189.999999999967
 51
247.88812032592
  0
LINE
  5
188C
330
A
100
AcDbEntity
  8
IBｼｰﾄ
100
AcDbLine
 10
671.226807682848
 20
326.128246566448
 30
0.0
 11
670.071880830103
 21
332.678162229429
 31
0.0
  0
LINE
  5
188D
330
A
100
AcDbEntity
  8
中心線
100
AcDbLine
 10
714.508805223573
 20
323.812643953817
 30
0.0
 11
714.508805223573
 21
305.812643953817
 31
0.0
  0
LINE
  5
188E
330
A
100
AcDbEntity
  8
IBｼｰﾄ
100
AcDbLine
 10
670.071880830103
 20
332.678162229429
 30
0.0
 11
665.968515193214
 21
337.568362968916
 31
0.0
  0
LINE
  5
188F
330
A
100
AcDbEntity
  8
IBｼｰﾄ
100
AcDbLine
 10
674.763275150297
 20
334.865795328362
 30
0.0
 11
670.968515193214
 21
339.38821414025
 31
0.0
  0
LINE
  5
1890
330
A
100
AcDbEntity
  8
IBｼｰﾄ
100
AcDbLine
 10
676.100568135276
 20
327.281629935125
 30
0.0
 11
674.763275150297
 21
334.865795328362
 31
0.0
  0
LINE
  5
1891
330
A
100
AcDbEntity
  8
IBｼｰﾄ
100
AcDbLine
 10
730.848551185729
 20
325.564144295524
 30
0.0
 11
684.857846553779
 21
325.564144295524
 31
0.0
  0
LINE
  5
1892
330
A
100
AcDbEntity
  8
IBｼｰﾄ
100
AcDbLine
 10
729.508805223573
 20
320.564144295524
 30
0.0
 11
736.725683587283
 21
316.397477629522
 31
0.0
  0
LINE
  5
1893
330
A
100
AcDbEntity
  8
IBｼｰﾄ
100
AcDbLine
 10
730.848551185729
 20
325.564144295524
 30
0.0
 11
738.065429549439
 21
321.397477629522
 31
0.0
  0
LINE
  5
1894
330
A
100
AcDbEntity
  8
IBｼｰﾄ
100
AcDbLine
 10
684.857846553779
 20
320.564144295524
 30
0.0
 11
684.857846553779
 21
325.564144295524
 31
0.0
  0
LINE
  5
1895
330
A
100
AcDbEntity
  8
IBリキッド
100
AcDbLine
 10
730.848551185729
 20
326.564144295524
 30
0.0
 11
723.848551185729
 21
326.564144295524
 31
0.0
  0
LINE
  5
1896
330
A
100
AcDbEntity
  8
IBｼｰﾄ
100
AcDbLine
 10
675.323309723026
 20
321.059376889694
 30
0.0
 11
684.857846553779
 21
326.564144295524
 31
0.0
  0
LINE
  5
1897
330
A
100
AcDbEntity
  8
IBｼｰﾄ
100
AcDbLine
 10
676.100568135276
 20
327.281629935125
 30
0.0
 11
683.518100591624
 21
331.564144295524
 31
0.0
  0
LINE
  5
1898
330
A
100
AcDbEntity
  8
IBリキッド
100
AcDbLine
 10
723.848551185729
 20
326.564144295524
 30
0.0
 11
723.848551185729
 21
331.564144295524
 31
0.0
  0
LINE
  5
1899
330
A
100
AcDbEntity
  8
IBｼｰﾄ
100
AcDbLine
 10
722.848551185729
 20
326.564144295524
 30
0.0
 11
722.848551185729
 21
331.564144295524
 31
0.0
  0
LINE
  5
189A
330
A
100
AcDbEntity
  8
IBｼｰﾄ
100
AcDbLine
 10
722.848551185729
 20
331.564144295524
 30
0.0
 11
683.518100591624
 21
331.564144295524
 31
0.0
  0
LINE
  5
189B
330
A
100
AcDbEntity
  8
IBｼｰﾄ
100
AcDbLine
 10
722.848551185729
 20
326.564144295524
 30
0.0
 11
684.857846553779
 21
326.564144295524
 31
0.0
  0
ARC
  5
189C
330
A
100
AcDbEntity
  8
IBリキッド
100
AcDbCircle
 10
723.848551185729
 20
324.164144295522
 30
0.0
 40
7.400000000000472
100
AcDbArc
 50
18.924644416062
 51
90.0
  0
LINE
  5
189D
330
A
100
AcDbEntity
  8
寸法線
100
AcDbLine
 10
755.550066848264
 20
436.535522072896
 30
0.0
 11
767.550066848264
 21
436.535522072896
 31
0.0
  0
TEXT
  5
189E
330
A
100
AcDbEntity
  8
文字
100
AcDbText
 10
772.090645664
 20
432.697033666373
 30
0.0
 40
12.0
  1
IB積層鋼鈑♯16
  7
基本スタイル
100
AcDbText
1001
AcadAnnotative
1000
AnnotativeData
1002
{
1070
     1
1070
     0
1002
}
  0
LWPOLYLINE
  5
189F
330
A
100
AcDbEntity
  8
寸法線
100
AcDbPolyline
 90
        3
 70
     0
 43
0.0
 10
692.260004136922
 20
323.806806040731
 10
688.017384508021
 20
319.564144295524
 10
689.570270012635
 20
325.359706960997
  0
LINE
  5
18A0
330
A
100
AcDbEntity
  8
寸法線
100
AcDbLine
 10
688.017384508021
 20
319.564144295524
 30
0.0
 11
755.550066848264
 21
436.535522072896
 31
0.0
  0
LWPOLYLINE
  5
18A1
330
A
100
AcDbEntity
  8
寸法線
100
AcDbPolyline
 90
        3
 70
     0
 43
0.0
 10
732.392333448151
 20
334.428433727655
 10
728.14971381925
 20
330.185771982447
 10
729.702599323864
 20
335.98133464792
  0
LINE
  5
18A2
330
A
100
AcDbEntity
  8
寸法線
100
AcDbLine
 10
774.10722519808
 20
409.787429119635
 30
0.0
 11
786.10722519808
 21
409.787429119635
 31
0.0
  0
TEXT
  5
18A3
330
A
100
AcDbEntity
  8
文字
100
AcDbText
 10
790.647804013817
 20
405.948940713119
 30
0.0
 40
12.0
  1
IBリキッド
  7
基本スタイル
100
AcDbText
1001
AcadAnnotative
1000
AnnotativeData
1002
{
1070
     1
1070
     0
1002
}
  0
LINE
  5
18A4
330
A
100
AcDbEntity
  8
寸法線
100
AcDbLine
 10
728.14971381925
 20
330.185771982447
 30
0.0
 11
774.10722519808
 21
409.787429119635
 31
0.0
  0
LINE
  5
18A5
330
A
100
AcDbEntity
  8
部材(ﾋﾞｽ類)
100
AcDbLine
 10
690.008805223551
 20
319.564144295524
 30
0.0
 11
699.008805223551
 21
319.564144295524
 31
0.0
  0
LINE
  5
18A6
330
A
100
AcDbEntity
  8
部材(ﾋﾞｽ類)
100
AcDbLine
 10
696.17880522355
 20
316.734144295529
 30
0.0
 11
692.838805223553
 21
316.734144295529
 31
0.0
  0
LWPOLYLINE
  5
18A7
330
A
100
AcDbEntity
  8
部材(ﾋﾞｽ類)
100
AcDbPolyline
 90
       10
 70
     0
 43
0.0
 10
692.838805223553
 20
311.665768694533
 10
692.838805223553
 20
316.319930733152
 42
0.19891236738
 10
692.545912004738
 20
317.027037514337
 10
690.008805223551
 20
319.564144295524
 10
690.008805223551
 20
319.864144295527
 10
699.008805223551
 20
319.864144295527
 10
699.008805223551
 20
319.564144295524
 10
696.471698442365
 20
317.027037514337
 42
0.19891236738
 10
696.17880522355
 20
316.319930733152
 10
696.17880522355
 20
311.665768694533
  0
LINE
  5
18A8
330
A
100
AcDbEntity
  8
IBｼｰﾄ
100
AcDbLine
 10
665.968515193214
 20
337.568362968916
 30
0.0
 11
665.968515193214
 21
628.619587258669
 31
0.0
  0
LINE
  5
18A9
330
A
100
AcDbEntity
  8
IBｼｰﾄ
100
AcDbLine
 10
670.968515193214
 20
339.38821414025
 30
0.0
 11
670.968515193214
 21
627.27984129652
 31
0.0
  0
HATCH
  5
18AA
330
A
100
AcDbEntity
  8
部材(積層鋼板)
 62
     4
100
AcDbHatch
 10
0.0
 20
0.0
 30
0.0
210
0.0
220
0.0
230
1.0
  2
ANSI31
 70
     0
 71
     0
 91
        2
 92
        7
 72
     1
 73
     1
 93
       10
 10
669.9685151902158
 20
695.7351830907792
 42
0.0
 10
669.9685151902158
 20
692.568516424777
 42
0.0
 10
669.4685151902158
 20
692.568516424777
 42
0.414213562373095
 10
666.9685151902158
 20
690.068516424777
 42
0.0
 10
666.9685151902158
 20
662.5685164247479
 42
0.0
 10
670.135181856218
 20
662.5685164247479
 42
0.0
 10
670.135181856218
 20
688.9018497587749
 42
-0.414213562373095
 10
670.635181856218
 20
689.4018497587749
 42
0.0
 10
673.8018485242283
 20
689.4018497587749
 42
0.9999999999999999
 10
673.8018485242283
 20
695.7351830907792
 42
0.0
 97
        0
 92
        7
 72
     0
 73
     1
 93
        4
 10
666.9685151902158
 20
637.568516424777
 10
670.135181856218
 20
637.568516424777
 10
670.135181856218
 20
662.5685164247479
 10
666.9685151902158
 20
662.5685164247479
 97
        0
 75
     0
 76
     1
 52
270.0
 41
20.0
 77
     0
 78
     1
 53
135.0
 43
638.7224505215636
 44
1342.015231253063
 45
-1.767766952966369
 46
-1.767766952966369
 79
     0
 47
0.0
 98
        2
 10
668.0511246488386
 20
689.5351830907821
 10
667.8511246488415
 20
653.9351830907763
1001
ACAD
1010
0.0
1020
0.0
1030
0.0
1001
HATCHBACKGROUNDCOLOR
1071
-939524096
1000

1000

  0
LWPOLYLINE
  5
18AB
330
A
100
AcDbEntity
  8
部材(積層鋼板)
100
AcDbPolyline
 90
       11
 70
     0
 43
0.0
 10
669.968515190216
 20
692.568516424777
 10
669.968515190216
 20
695.735183090779
 10
673.801848524228
 20
695.735183090779
 42
-1.0
 10
673.801848524228
 20
689.401849758775
 10
670.635181856218
 20
689.401849758775
 42
0.414213562373
 10
670.135181856218
 20
688.901849758775
 10
670.135181856218
 20
637.568516424777
 10
666.968515190216
 20
637.568516424777
 10
666.968515190216
 20
690.068516424777
 42
-0.414213562373
 10
669.468515190216
 20
692.568516424777
 10
673.801848524228
 20
692.568516424777
  0
LWPOLYLINE
  5
18AC
330
A
100
AcDbEntity
  8
ブチルﾃｰﾌﾟ
100
AcDbPolyline
 90
        4
 70
     1
 43
0.0
 10
661.635181860205
 20
685.068516424777
 10
661.635181860205
 20
645.068516424777
 10
665.968515190216
 20
645.068516424777
 10
665.968515190216
 20
685.068516424777
  0
HATCH
  5
18AD
102
{ACAD_XDICTIONARY
360
18AE
102
}
330
A
100
AcDbEntity
  8
ブチルﾃｰﾌﾟ
 62
     4
100
AcDbHatch
 10
0.0
 20
0.0
 30
0.0
210
0.0
220
0.0
230
1.0
  2
ANSI31
 70
     0
 71
     0
 91
        1
 92
        7
 72
     0
 73
     1
 93
        4
 10
661.6351818602052
 20
685.068516424777
 10
661.6351818602052
 20
645.068516424777
 10
665.9685151902158
 20
645.068516424777
 10
665.9685151902158
 20
685.068516424777
 97
        0
 75
     0
 76
     1
 52
270.0
 41
10.0
 77
     0
 78
     1
 53
135.0
 43
542.0151019262776
 44
1458.76898854263
 45
-0.8838834764831844
 46
-0.8838834764831844
 79
     0
 47
0.0
 98
        1
 10
663.0008963757064
 20
670.064343257698
1001
ACAD
1010
0.0
1020
0.0
1030
0.0
1001
AcadAnnotative
1000
AnnotativeData
1002
{
1070
     1
1070
     0
1002
}
1001
HATCHBACKGROUNDCOLOR
1071
-939524096
1000

1000

  0
LINE
  5
18B1
330
A
100
AcDbEntity
  8
IBｼｰﾄ
100
AcDbLine
 10
676.135181856218
 20
636.228770462614
 30
0.0
 11
676.135181856218
 21
675.901849758775
 31
0.0
  0
LINE
  5
18B2
330
A
100
AcDbEntity
  8
IBリキッド
100
AcDbLine
 10
671.135181856218
 20
676.901849758775
 30
0.0
 11
676.135181856218
 21
676.901849758775
 31
0.0
  0
ARC
  5
18B3
330
A
100
AcDbEntity
  8
IBリキッド
100
AcDbCircle
 10
668.735181856224
 20
676.901849758775
 30
0.0
 40
7.400000000000468
100
AcDbArc
 50
0.0
 51
71.075355583991
  0
LINE
  5
18B4
330
A
100
AcDbEntity
  8
IBｼｰﾄ
100
AcDbLine
 10
671.135181856218
 20
637.568516424777
 30
0.0
 11
671.135181856218
 21
675.901849758775
 31
0.0
  0
LINE
  5
18B5
330
A
100
AcDbEntity
  8
IBリキッド
100
AcDbLine
 10
671.135181856218
 20
676.901849758775
 30
0.0
 11
671.135181856218
 21
683.901849758775
 31
0.0
  0
HATCH
  5
18B6
330
A
100
AcDbEntity
  8
シーリング(IBｼﾘｺｰﾝ)
100
AcDbHatch
 10
0.0
 20
0.0
 30
0.0
210
0.0
220
0.0
230
1.0
  2
DOTS1
 70
     0
 71
     1
 91
        1
 92
        7
 72
     1
 73
     1
 93
        9
 10
677.0989049436101
 20
695.1161682991296
 42
-0.2486032179558678
 10
685.3453724389469
 20
713.0641442885832
 42
0.0
 10
661.6351818602052
 20
713.0641442885899
 42
0.0
 10
661.6351818602052
 20
686.068516424777
 42
0.0
 10
665.9685151902158
 20
686.068516424777
 42
0.0
 10
665.9685151902158
 20
690.068516424777
 42
-0.3728246932726772
 10
668.9685151902156
 20
693.5326180399148
 42
0.0
 10
668.9685151902158
 20
696.7351830907792
 42
0.0
 10
673.8018485242283
 20
696.7351830907792
 42
-0.2322775415941525
 97
        9
330
18B7
330
18B9
330
18B8
330
18BF
330
18BE
330
18BA
330
18BB
330
18BC
330
18BD
 75
     0
 76
     1
 52
135.0
 41
30.0
 77
     0
 78
     1
 53
315.0
 43
638.7224505215636
 44
1342.015231253063
 45
1.988737822087165
 46
0.6629126073623879
 79
     2
 49
0.0
 49
-1.875
 47
0.0
 98
        1
 10
668.4511246488473
 20
705.7351830907792
1001
ACAD
1010
0.0
1020
0.0
1030
0.0
1001
HATCHBACKGROUNDCOLOR
1071
-939524096
1000

1000

  0
ARC
  5
18B7
102
{ACAD_REACTORS
330
18B6
102
}
330
A
100
AcDbEntity
  8
シーリング(IBｼﾘｺｰﾝ)
100
AcDbCircle
 10
698.155474588297
 20
696.309880448578
 30
0.0
 40
21.09037870445383
100
AcDbArc
 50
127.401079524457
 51
183.24466617485
  0
LINE
  5
18B8
102
{ACAD_REACTORS
330
18B6
102
}
330
A
100
AcDbEntity
  8
シーリング(IBｼﾘｺｰﾝ)
100
AcDbLine
 10
661.635181860205
 20
686.068516424777
 30
0.0
 11
661.635181860205
 21
713.06414428859
 31
0.0
  0
LINE
  5
18B9
102
{ACAD_REACTORS
330
18B6
102
}
330
A
100
AcDbEntity
  8
シーリング(IBｼﾘｺｰﾝ)
100
AcDbLine
 10
685.345372438947
 20
713.06414428859
 30
0.0
 11
661.635181860205
 21
713.06414428859
 31
0.0
  0
ARC
  5
18BA
102
{ACAD_REACTORS
330
18B6
102
}
330
A
100
AcDbEntity
  8
シーリング(IBｼﾘｺｰﾝ)
100
AcDbCircle
 10
669.468515190216
 20
690.068516424777
 30
0.0
 40
3.500000000000018
100
AcDbArc
 50
98.213210701742
 51
180.0
  0
LINE
  5
18BB
102
{ACAD_REACTORS
330
18B6
102
}
330
A
100
AcDbEntity
  8
シーリング(IBｼﾘｺｰﾝ)
100
AcDbLine
 10
668.968515190216
 20
693.532618039913
 30
0.0
 11
668.968515190216
 21
696.735183090779
 31
0.0
  0
LINE
  5
18BC
102
{ACAD_REACTORS
330
18B6
102
}
330
A
100
AcDbEntity
  8
シーリング(IBｼﾘｺｰﾝ)
100
AcDbLine
 10
668.968515190216
 20
696.735183090779
 30
0.0
 11
673.801848524228
 21
696.735183090779
 31
0.0
  0
ARC
  5
18BD
102
{ACAD_REACTORS
330
18B6
102
}
330
A
100
AcDbEntity
  8
シーリング(IBｼﾘｺｰﾝ)
100
AcDbCircle
 10
673.801848524228
 20
692.568516424777
 30
0.0
 40
4.166666666002127
100
AcDbArc
 50
37.693440275081
 51
90.0
  0
LINE
  5
18BE
102
{ACAD_REACTORS
330
18B6
102
}
330
A
100
AcDbEntity
  8
シーリング(IBｼﾘｺｰﾝ)
100
AcDbLine
 10
665.968515190216
 20
686.068516424777
 30
0.0
 11
665.968515190216
 21
690.068516424777
 31
0.0
  0
LINE
  5
18BF
102
{ACAD_REACTORS
330
18B6
102
}
330
A
100
AcDbEntity
  8
シーリング(IBｼﾘｺｰﾝ)
100
AcDbLine
 10
661.635181860205
 20
686.068516424777
 30
0.0
 11
665.968515190216
 21
686.068516424777
 31
0.0
  0
LWPOLYLINE
  5
18C0
330
A
100
AcDbEntity
  8
部材(ﾋﾞｽ類)
100
AcDbPolyline
 90
       32
 70
     0
 43
0.0
 10
627.939491129415
 20
662.923406993737
 10
627.939491129415
 20
662.890229118151
 42
-0.126825768809
 10
628.629226212775
 20
662.712416680552
 10
629.946477923317
 20
661.984895561895
 42
0.256490137263
 10
630.521326517766
 20
661.978394522732
 10
633.489739093908
 20
663.564940192169
 42
-0.253636490355
 10
634.628254656571
 20
663.558509907241
 10
637.641943511269
 20
662.110789540602
 42
0.218900263645
 10
638.02999850257
 20
662.104200768139
 10
641.196124985487
 20
663.475081048222
 42
-0.209095404736
 10
642.153249204443
 20
663.471599053963
 10
645.105870177278
 20
662.20386575532
 42
0.199072424679
 10
645.43620175722
 20
662.199720176141
 10
646.864053297912
 20
662.770780518695
 42
-0.099854070822
 10
647.417114404459
 20
662.882343702651
 10
648.227184439595
 20
662.882343702651
 42
-3.867768794258
 10
648.227184439595
 20
662.251964066541
 10
647.417114404459
 20
662.251964066541
 42
0.095438157436
 10
647.121318400175
 20
662.194984621325
 10
645.670797930194
 20
661.614619122811
 42
-0.206638844849
 10
644.829484168768
 20
661.636977224756
 10
641.921891222803
 20
662.984953896979
 42
0.21270382653
 10
641.435830412847
 20
662.992220968816
 10
638.237437792624
 20
661.624057985922
 42
-0.20973763421
 10
637.384298472803
 20
661.631967515073
 10
634.320389928842
 20
663.010353112462
 42
0.270363890763
 10
633.719768018542
 20
662.971866979417
 10
630.798739091268
 20
661.425195666008
 42
-0.248644858073
 10
629.679976694337
 20
661.42568917563
 10
628.312722276496
 20
662.151189231226
 42
0.122570027372
 10
627.939491129415
 20
662.244078651041
 10
627.939491129415
 20
662.210900775455
  0
LWPOLYLINE
  5
18C1
330
A
100
AcDbEntity
  8
部材(ﾋﾞｽ類)
100
AcDbPolyline
 90
       32
 70
     0
 43
0.0
 10
626.236806256486
 20
662.90361319299
 10
627.939491129415
 20
662.923406993737
 42
-0.126825813089
 10
628.645266786312
 20
662.741459260134
 10
629.962673844559
 20
662.013852042874
 42
0.256544899034
 10
630.505687372141
 20
662.007655222522
 10
633.47409554867
 20
663.594198540472
 42
-0.251254532285
 10
634.634576444987
 20
663.592836726166
 10
637.656314352796
 20
662.140693559428
 42
0.218900263645
 10
638.016651130434
 20
662.134575413569
 10
641.182942180974
 20
663.505527478126
 42
-0.209095404736
 10
642.166653184038
 20
663.501948761696
 10
645.118959838168
 20
662.234352345913
 42
0.199109332435
 10
645.42393378853
 20
662.230546655592
 10
646.874821665937
 20
662.811059236403
 42
-0.095438169349
 10
647.417114404459
 20
662.915521578238
 10
648.207962997978
 20
662.915521578238
 42
-3.649823686132
 10
648.207962997978
 20
662.218786190948
 10
647.417114404459
 20
662.218786190948
 42
0.105213986763
 10
647.106434613837
 20
662.152678662984
 10
645.682376259276
 20
661.583516710532
 42
-0.206444475481
 10
644.815529431267
 20
661.606876780745
 10
641.907936485302
 20
662.954853452968
 42
0.212703826529
 10
641.448879053663
 20
662.9617167986
 10
638.250486433455
 20
661.593553815699
 42
-0.209737634211
 10
637.370686509887
 20
661.601710517636
 10
634.306143221293
 20
662.980381672787
 42
0.271504379566
 10
633.736858205368
 20
662.943374316346
 10
630.814264526729
 20
661.395874474314
 42
-0.248644858073
 10
629.664425396542
 20
661.396381692539
 10
628.297170978702
 20
662.121881748128
 42
0.122570027372
 10
627.939491129415
 20
662.210900775455
 10
626.236806256486
 20
662.230694576196
  0
LWPOLYLINE
  5
18C2
330
A
100
AcDbEntity
  8
部材(ﾋﾞｽ類)
100
AcDbPolyline
 90
        4
 70
     0
 43
0.0
 10
626.236806256486
 20
662.244078651041
 10
627.213999490406
 20
662.244078651041
 10
627.213999490406
 20
662.890229118151
 10
626.236806256486
 20
662.890229118151
  0
LINE
  5
18C3
330
A
100
AcDbEntity
  8
部材(ﾋﾞｽ類)
100
AcDbLine
 10
659.120058199558
 20
665.567153884585
 30
0.0
 11
659.120058199558
 21
659.5671538846
 31
0.0
  0
LINE
  5
18C4
330
A
100
AcDbEntity
  8
部材(ﾋﾞｽ類)
100
AcDbLine
 10
660.635181858488
 20
658.069994281454
 30
0.0
 11
660.635181858488
 21
667.064313487732
 31
0.0
  0
LINE
  5
18C5
330
A
100
AcDbEntity
  8
部材(ﾋﾞｽ類)
100
AcDbLine
 10
670.135181856218
 20
658.04831129477
 30
0.0
 11
670.135181856218
 21
667.04831129477
 31
0.0
  0
LINE
  5
18C6
330
A
100
AcDbEntity
  8
部材(ﾋﾞｽ類)
100
AcDbLine
 10
667.305181856231
 20
664.218311294768
 30
0.0
 11
667.305181856231
 21
660.878311294771
 31
0.0
  0
LINE
  5
18C7
330
A
100
AcDbEntity
  8
部材(ﾋﾞｽ類)
100
AcDbLine
 10
626.236806256486
 20
663.740258472048
 30
0.0
 11
625.185583183214
 21
660.729694422007
 31
0.0
  0
LINE
  5
18C8
330
A
100
AcDbEntity
  8
部材(ﾋﾞｽ類)
100
AcDbLine
 10
626.236806256486
 20
663.45387167875
 30
0.0
 11
625.28558318322
 21
660.729694422007
 31
0.0
  0
LINE
  5
18C9
330
A
100
AcDbEntity
  8
部材(ﾋﾞｽ類)
100
AcDbLine
 10
626.236806256486
 20
663.860156631228
 30
0.0
 11
624.832103659246
 21
661.650540064496
 31
0.0
  0
LINE
  5
18CA
330
A
100
AcDbEntity
  8
部材(ﾋﾞｽ類)
100
AcDbLine
 10
623.360331331285
 20
663.515511677811
 30
0.0
 11
622.788570474477
 21
661.875572198478
 31
0.0
  0
LINE
  5
18CB
330
A
100
AcDbEntity
  8
部材(ﾋﾞｽ類)
100
AcDbLine
 10
623.460331331291
 20
663.515511677811
 30
0.0
 11
622.888570474483
 21
661.875572198478
 31
0.0
  0
LINE
  5
18CC
330
A
100
AcDbEntity
  8
部材(ﾋﾞｽ類)
100
AcDbLine
 10
623.178012684082
 20
663.040555363688
 30
0.0
 11
622.650568065474
 21
662.235080765109
 31
0.0
  0
LINE
  5
18CD
330
A
100
AcDbEntity
  8
部材(ﾋﾞｽ類)
100
AcDbLine
 10
623.775256616129
 20
663.200586392966
 30
0.0
 11
623.121810114615
 21
662.108811838596
 31
0.0
  0
LINE
  5
18CE
330
A
100
AcDbEntity
  8
部材(ﾋﾞｽ類)
100
AcDbLine
 10
626.236806256486
 20
661.274151137957
 30
0.0
 11
625.915999744881
 21
661.360110983667
 31
0.0
  0
LWPOLYLINE
  5
18CF
330
A
100
AcDbEntity
  8
部材(ﾋﾞｽ類)
100
AcDbPolyline
 90
        4
 70
     0
 43
0.0
 10
640.025768089654
 20
659.656045486256
 10
639.77687892838
 20
659.656045486256
 10
639.012431908013
 20
659.95826716585
 10
637.803545187773
 20
659.993826247788
  0
LWPOLYLINE
  5
18D0
330
A
100
AcDbEntity
  8
部材(ﾋﾞｽ類)
100
AcDbPolyline
 90
        4
 70
     0
 43
0.0
 10
633.981323813634
 20
660.047158767506
 10
635.190210532011
 20
660.029385330192
 10
635.990210532756
 20
659.656045486256
 10
636.185767173381
 20
659.656045486256
  0
LWPOLYLINE
  5
18D1
330
A
100
AcDbEntity
  8
部材(ﾋﾞｽ類)
100
AcDbPolyline
 90
        4
 70
     0
 43
0.0
 10
632.363544273736
 20
659.656045486256
 10
632.185767173381
 20
659.656045486256
 10
631.350212668614
 20
660.100491287223
 10
630.141322899224
 20
660.118276931382
  0
LWPOLYLINE
  5
18D2
330
A
100
AcDbEntity
  8
部材(ﾋﾞｽ類)
100
AcDbPolyline
 90
       58
 70
     1
 43
0.0
 10
646.356142575045
 20
667.592595701986
 10
642.890638092918
 20
664.944758676465
 10
647.380056979244
 20
664.944758676473
 42
0.355962003442
 10
647.582478597433
 20
665.109776752819
 10
647.628946138655
 20
665.318086313091
 10
647.664502168183
 20
665.389192270122
 10
647.664502168183
 20
665.460298227154
 10
647.700058199574
 20
665.531416391495
 10
647.700058199574
 20
665.549189828809
 10
659.037215487093
 20
665.549189828809
 42
0.19891236738
 10
659.178636843331
 20
665.607768472568
 10
660.635181858488
 20
667.064313487732
 10
661.236806256486
 20
667.064313487732
 10
661.236806256486
 20
658.069994281454
 10
660.635181858488
 20
658.069994281454
 10
659.178636843331
 20
659.526539296618
 42
0.19891236738
 10
659.037215487093
 20
659.585117940376
 10
647.700058199574
 20
659.585117940376
 10
647.700058199574
 20
659.60289137769
 10
647.664502168183
 20
659.674009542032
 10
647.664502168183
 20
659.745115499063
 10
647.628946138655
 20
659.816221456094
 10
647.582478597433
 20
660.024531016366
 42
0.355962003442
 10
647.380056979244
 20
660.189549092713
 10
642.890638092918
 20
660.18954909272
 10
646.356142575045
 20
657.541712067199
 42
-0.982770495282
 10
645.823508266512
 20
656.818897314988
 10
641.625768089281
 20
659.5671538846
 10
640.025768089654
 20
659.656045486256
 10
640.025768089654
 20
660.722708083726
 10
637.803545187773
 20
660.722708083726
 10
637.803545187773
 20
659.5671538846
 10
636.185767173381
 20
659.656045486256
 10
636.185767173381
 20
660.669387771319
 10
633.981323813634
 20
660.598281814287
 10
633.981323813634
 20
659.5671538846
 10
632.363544273736
 20
659.656045486256
 10
632.363544273736
 20
660.527163650411
 10
630.141322899224
 20
660.456045486069
 10
630.141322899224
 20
659.5671538846
 10
628.00087181446
 20
659.675086530202
 10
626.236806256486
 20
660.3171538846
 10
626.236806256486
 20
664.817153884585
 10
628.000871814475
 20
665.459221238983
 10
630.141322899224
 20
665.567153884585
 10
630.141322899224
 20
664.678262283116
 10
632.363544273736
 20
664.607144118774
 10
632.363544273736
 20
665.47826228293
 10
633.981323813634
 20
665.567153884585
 10
633.981323813634
 20
664.536025954898
 10
636.185767173381
 20
664.464919997867
 10
636.185767173381
 20
665.47826228293
 10
637.803545187773
 20
665.567153884585
 10
637.803545187773
 20
664.41159968546
 10
640.025768089654
 20
664.41159968546
 10
640.025768089654
 20
665.47826228293
 10
641.625768089281
 20
665.567153884585
 10
645.823508266512
 20
668.315410454197
 42
-0.982770495282
  0
LWPOLYLINE
  5
18D3
330
A
100
AcDbEntity
  8
部材(ﾋﾞｽ類)
100
AcDbPolyline
 90
        4
 70
     0
 43
0.0
 10
632.363544273736
 20
665.47826228293
 10
632.185767173381
 20
665.47826228293
 10
631.350212668614
 20
665.033816481962
 10
630.141322899224
 20
665.016030837804
  0
LWPOLYLINE
  5
18D4
330
A
100
AcDbEntity
  8
部材(ﾋﾞｽ類)
100
AcDbPolyline
 90
        4
 70
     0
 43
0.0
 10
633.981323813634
 20
665.08714900168
 10
635.190210532011
 20
665.104922438994
 10
635.990210532756
 20
665.47826228293
 10
636.185767173381
 20
665.47826228293
  0
LWPOLYLINE
  5
18D5
330
A
100
AcDbEntity
  8
部材(ﾋﾞｽ類)
100
AcDbPolyline
 90
        4
 70
     0
 43
0.0
 10
640.025768089654
 20
665.47826228293
 10
639.77687892838
 20
665.47826228293
 10
639.012431908013
 20
665.176040603335
 10
637.803545187773
 20
665.140481521397
  0
LWPOLYLINE
  5
18D6
330
A
100
AcDbEntity
  8
部材(ﾋﾞｽ類)
100
AcDbPolyline
 90
        7
 70
     0
 43
0.0
 10
647.48792795292
 20
662.915521578238
 10
647.487891779114
 20
664.411450178013
 10
641.625635919692
 20
664.411450178013
 10
641.625635919692
 20
664.678112775669
 10
642.378557635566
 20
664.678112775669
 42
0.13354901382
 10
642.631778760588
 20
664.746975834729
 10
642.890638092904
 20
664.944758676465
  0
LWPOLYLINE
  5
18D7
330
A
100
AcDbEntity
  8
部材(ﾋﾞｽ類)
100
AcDbPolyline
 90
        7
 70
     0
 43
0.0
 10
647.487927670845
 20
662.218786899568
 10
647.487891779114
 20
660.722857591172
 10
641.625635919692
 20
660.722857591172
 10
641.625635919692
 20
660.456194993516
 10
642.378557635566
 20
660.456194993516
 42
-0.13354901382
 10
642.631778760588
 20
660.387331934457
 10
642.890638092904
 20
660.18954909272
  0
LWPOLYLINE
  5
18D8
330
A
100
AcDbEntity
  8
部材(ﾋﾞｽ類)
100
AcDbPolyline
 90
       10
 70
     0
 43
0.0
 10
661.236806256486
 20
660.878311294771
 10
666.890968293847
 20
660.878311294771
 42
-0.19891236738
 10
667.598075075039
 20
660.585418075963
 10
670.135181856218
 20
658.04831129477
 10
670.435181856221
 20
658.04831129477
 10
670.435181856221
 20
667.04831129477
 10
670.135181856218
 20
667.04831129477
 10
667.598075075039
 20
664.51120451359
 42
-0.19891236738
 10
666.890968293847
 20
664.218311294768
 10
661.236806256486
 20
664.218311294768
  0
LWPOLYLINE
  5
18D9
330
A
100
AcDbEntity
  8
部材(ﾋﾞｽ類)
100
AcDbPolyline
 90
       15
 70
     0
 43
0.0
 10
626.236806256486
 20
661.781634076251
 10
625.915999744881
 20
661.360110983667
 10
625.28558318322
 20
660.729694422007
 10
625.185583183214
 20
660.729694422007
 10
624.832103659246
 20
661.650540064496
 10
623.121810114615
 20
662.108811838596
 10
622.888570474483
 20
661.875572198478
 10
622.788570474477
 20
661.875572198478
 10
622.650568065474
 20
662.235080765109
 10
621.411254311715
 20
662.567153884593
 10
623.178012684082
 20
663.040555363688
 10
623.360331331285
 20
663.515511677811
 10
623.460331331291
 20
663.515511677811
 10
623.775256616129
 20
663.200586392966
 10
626.236806256486
 20
663.860156631228
  0
LINE
  5
18DA
330
A
100
AcDbEntity
  8
中心線
 48
0.25
100
AcDbLine
 10
620.06715154244
 20
662.567153884593
 30
0.0
 11
668.965334165325
 21
662.567153884593
 31
0.0
  0
LINE
  5
18DB
330
A
100
AcDbEntity
  8
IBｼｰﾄ
100
AcDbLine
 10
671.135181856218
 20
637.568516424777
 30
0.0
 11
665.968515193214
 21
628.619587258669
 31
0.0
  0
LINE
  5
18DC
330
A
100
AcDbEntity
  8
IBｼｰﾄ
100
AcDbLine
 10
676.135181856218
 20
636.228770462614
 30
0.0
 11
670.968515193214
 21
627.27984129652
 31
0.0
  0
LINE
  5
18DD
330
A
100
AcDbEntity
  8
寸法線
100
AcDbLine
 10
665.968515190216
 20
677.567384391965
 30
0.0
 11
720.80642542868
 21
582.584248927174
 31
0.0
  0
LINE
  5
18DE
330
A
100
AcDbEntity
  8
寸法線
100
AcDbLine
 10
720.80642542868
 20
582.584248927174
 30
0.0
 11
732.80642542868
 21
582.584248927174
 31
0.0
  0
TEXT
  5
18DF
330
A
100
AcDbEntity
  8
文字
100
AcDbText
 10
737.347004244417
 20
578.745760520658
 30
0.0
 40
12.0
  1
IB積層鋼板♯42
  7
基本スタイル
100
AcDbText
1001
AcadAnnotative
1000
AnnotativeData
1002
{
1070
     1
1070
     0
1002
}
  0
LWPOLYLINE
  5
18E0
330
A
100
AcDbEntity
  8
寸法線
100
AcDbPolyline
 90
        3
 70
     0
 43
0.0
 10
670.211134819117
 20
673.324722646757
 10
665.968515190216
 20
677.567384391965
 10
667.52140069483
 20
671.771821726492
  0
LINE
  5
18E1
330
A
100
AcDbEntity
  8
寸法線
100
AcDbLine
 10
705.409512686158
 20
609.252789766957
 30
0.0
 11
717.409512686158
 21
609.252789766957
 31
0.0
  0
TEXT
  5
18E2
330
A
100
AcDbEntity
  8
文字
100
AcDbText
 10
721.950091501894
 20
605.414301360433
 30
0.0
 40
12.0
  1
サンタックシーラーTM-104
  7
基本スタイル
100
AcDbText
1001
AcadAnnotative
1000
AnnotativeData
1002
{
1070
     1
1070
     0
1002
}
  0
LINE
  5
18E3
330
A
100
AcDbEntity
  8
IBｼｰﾄ
100
AcDbLine
 10
671.135181856218
 20
675.901849758775
 30
0.0
 11
676.135181856218
 21
675.901849758775
 31
0.0
  0
LWPOLYLINE
  5
18E4
330
A
100
AcDbEntity
  8
寸法線
100
AcDbPolyline
 90
        3
 70
     0
 43
0.0
 10
680.552372208615
 20
679.650126887682
 10
674.756809543142
 20
681.203012392296
 10
680.552356792985
 20
682.755955428867
  0
LINE
  5
18E5
330
A
100
AcDbEntity
  8
寸法線
100
AcDbLine
 10
674.758512144828
 20
681.203468612097
 30
0.0
 11
778.672622496721
 21
681.203468612097
 31
0.0
  0
TEXT
  5
18E6
330
A
100
AcDbEntity
  8
文字
100
AcDbText
 10
783.213201312457
 20
677.364980205573
 30
0.0
 40
12.0
  1
IBリキッド
  7
基本スタイル
100
AcDbText
1001
AcadAnnotative
1000
AnnotativeData
1002
{
1070
     1
1070
     0
1002
}
  0
LINE
  5
18E7
330
A
100
AcDbEntity
  8
緩衝フォーム
100
AcDbLine
 10
661.635181860205
 20
644.068516424777
 30
0.0
 11
661.635181860205
 21
312.064144296528
 31
0.0
  0
LINE
  5
18E8
330
A
100
AcDbEntity
  8
緩衝フォーム
100
AcDbLine
 10
664.968515193214
 20
644.068516424777
 30
0.0
 11
664.968515193214
 21
315.397477629522
 31
0.0
  0
LINE
  5
18E9
330
A
100
AcDbEntity
  8
緩衝フォーム
100
AcDbLine
 10
664.968515193214
 20
644.068516424777
 30
0.0
 11
661.635181860205
 21
644.068516424777
 31
0.0
  0
LINE
  5
18EA
330
A
100
AcDbEntity
  8
IBｼｰﾄ
100
AcDbLine
 10
736.725683587283
 20
316.397477629522
 30
0.0
 11
1260.635181860205
 21
316.397477629522
 31
0.0
  0
LINE
  5
18EB
330
A
100
AcDbEntity
  8
IBｼｰﾄ
100
AcDbLine
 10
738.065429549439
 20
321.397477629522
 30
0.0
 11
1260.635181860205
 21
321.397477629522
 31
0.0
  0
LINE
  5
18EC
330
A
100
AcDbEntity
  8
寸法線
100
AcDbLine
 10
1028.801873081604
 20
315.397477629522
 30
0.0
 11
1098.740153969011
 21
436.5355220739
 31
0.0
  0
LINE
  5
18ED
330
A
100
AcDbEntity
  8
寸法線
100
AcDbLine
 10
1098.740153969011
 20
436.5355220739
 30
0.0
 11
1110.740153969011
 21
436.5355220739
 31
0.0
  0
TEXT
  5
18EE
330
A
100
AcDbEntity
  8
文字
100
AcDbText
 10
1115.280732784748
 20
432.697033667369
 30
0.0
 40
12.0
  1
サンタックIB-LLシート 1.5㎜
  7
基本スタイル
100
AcDbText
1001
AcadAnnotative
1000
AnnotativeData
1002
{
1070
     1
1070
     0
1002
}
  0
LWPOLYLINE
  5
18EF
330
A
100
AcDbEntity
  8
寸法線
100
AcDbPolyline
 90
        3
 70
     0
 43
0.0
 10
1033.044492710505
 20
319.640139374736
 10
1028.801873081604
 20
315.397477629522
 10
1030.354758586218
 20
321.193040295002
  0
LINE
  5
18F0
330
A
100
AcDbEntity
  8
寸法線
100
AcDbLine
 10
1083.343241226488
 20
409.86698123411
 30
0.0
 11
1095.343241226488
 21
409.86698123411
 31
0.0
  0
TEXT
  5
18F1
330
A
100
AcDbEntity
  8
文字
100
AcDbText
 10
1099.883820042225
 20
406.028492827594
 30
0.0
 40
12.0
  1
緩衝フォーム 1.0㎜
  7
基本スタイル
100
AcDbText
1001
AcadAnnotative
1000
AnnotativeData
1002
{
1070
     1
1070
     0
1002
}
  0
LINE
  5
18F2
330
A
100
AcDbEntity
  8
緩衝フォーム
100
AcDbLine
 10
661.635181860205
 20
312.064144296528
 30
0.0
 11
1260.635181860205
 21
312.064144296528
 31
0.0
  0
LINE
  5
18F3
330
A
100
AcDbEntity
  8
緩衝フォーム
100
AcDbLine
 10
664.968515193214
 20
315.397477629522
 30
0.0
 11
1260.635181860205
 21
315.397477629522
 31
0.0
  0
LINE
  5
18F4
330
A
100
AcDbEntity
  8
寸法線
100
AcDbLine
 10
664.968515193214
 20
599.263038207988
 30
0.0
 11
719.509883338098
 21
504.793534603392
 31
0.0
  0
LINE
  5
18F5
330
A
100
AcDbEntity
  8
寸法線
100
AcDbLine
 10
719.509883338098
 20
504.793534603392
 30
0.0
 11
731.509883338098
 21
504.793534603392
 31
0.0
  0
TEXT
  5
18F6
330
A
100
AcDbEntity
  8
文字
100
AcDbText
 10
736.050462153835
 20
500.955046196876
 30
0.0
 40
12.0
  1
サンタックIB-LLシート 1.5㎜
  7
基本スタイル
100
AcDbText
1001
AcadAnnotative
1000
AnnotativeData
1002
{
1070
     1
1070
     0
1002
}
  0
LWPOLYLINE
  5
18F7
330
A
100
AcDbEntity
  8
寸法線
100
AcDbPolyline
 90
        3
 70
     0
 43
0.0
 10
669.211134822115
 20
595.02037646278
 10
664.968515193214
 20
599.263038207988
 10
666.521400697828
 20
593.467475542508
  0
LINE
  5
18F8
330
A
100
AcDbEntity
  8
寸法線
100
AcDbLine
 10
704.112970595575
 20
531.462075443182
 30
0.0
 11
716.112970595575
 21
531.462075443182
 31
0.0
  0
TEXT
  5
18F9
330
A
100
AcDbEntity
  8
文字
100
AcDbText
 10
720.653549411312
 20
527.623587036658
 30
0.0
 40
12.0
  1
緩衝フォーム 1.0㎜
  7
基本スタイル
100
AcDbText
1001
AcadAnnotative
1000
AnnotativeData
1002
{
1070
     1
1070
     0
1002
}
  0
LINE
  5
18FA
330
A
100
AcDbEntity
  8
寸法線
100
AcDbLine
 10
660.747108596632
 20
896.067914301282
 30
0.0
 11
718.54723390883
 21
996.181815588498
 31
0.0
  0
LINE
  5
18FB
330
A
100
AcDbEntity
  8
寸法線
100
AcDbLine
 10
718.54723390883
 20
996.181815588498
 30
0.0
 11
730.54723390883
 21
996.181815588498
 31
0.0
  0
TEXT
  5
18FC
330
A
100
AcDbEntity
  8
文字
100
AcDbText
 10
735.087812724567
 20
992.343327181981
 30
0.0
 40
12.0
  1
ウレタン塗膜防水(別途)
  7
基本スタイル
100
AcDbText
1001
AcadAnnotative
1000
AnnotativeData
1002
{
1070
     1
1070
     0
1002
}
  0
LWPOLYLINE
  5
18FD
330
A
100
AcDbEntity
  8
寸法線
100
AcDbPolyline
 90
        3
 70
     0
 43
0.0
 10
664.989728225519
 20
900.310576046497
 10
660.747108596617
 20
896.067914301289
 10
662.299994101231
 20
901.86347696677
  0
HATCH
  5
18FE
330
A
100
AcDbEntity
  8
塗膜(N-300)
100
AcDbHatch
 10
0.0
 20
0.0
 30
0.0
210
0.0
220
0.0
230
1.0
  2
ANSI31
 70
     0
 71
     1
 91
        1
 92
        7
 72
     0
 73
     1
 93
        8
 10
480.6850574019772
 20
912.064144296528
 10
751.6351818602125
 20
884.969131850703
 10
751.6351818602125
 20
714.0641442885972
 10
753.6351818602125
 20
714.0641442885972
 10
753.6351818602125
 20
886.7791069749292
 10
480.7848086442391
 20
914.064144296528
 10
460.6351818602052
 20
914.064144296528
 10
460.6351818602052
 20
912.064144296528
 97
        8
330
18FF
330
1903
330
1905
330
1904
330
1902
330
1901
330
1906
330
1900
 75
     0
 76
     1
 52
180.0
 41
20.0
 77
     0
 78
     1
 53
45.0
 43
37601.41173284577
 44
10192.03113643666
 45
-1.767766952966369
 46
1.767766952966369
 79
     0
 47
0.0
 98
        1
 10
753.2124560594384
 20
874.0311364366644
1001
ACAD
1010
0.0
1020
0.0
1030
0.0
  0
LINE
  5
18FF
102
{ACAD_REACTORS
330
18FE
102
}
330
A
100
AcDbEntity
  8
塗膜(N-300)
100
AcDbLine
 10
751.635181860212
 20
884.969131850703
 30
0.0
 11
480.685057401977
 21
912.064144296528
 31
0.0
  0
LINE
  5
1900
102
{ACAD_REACTORS
330
18FE
102
}
330
A
100
AcDbEntity
  8
塗膜(N-300)
100
AcDbLine
 10
480.685057401977
 20
912.064144296528
 30
0.0
 11
460.635181860205
 21
912.064144296528
 31
0.0
  0
LINE
  5
1901
102
{ACAD_REACTORS
330
18FE
102
}
330
A
100
AcDbEntity
  8
塗膜(N-300)
100
AcDbLine
 10
480.784808644239
 20
914.064144296528
 30
0.0
 11
460.635181860205
 21
914.064144296528
 31
0.0
  0
LINE
  5
1902
102
{ACAD_REACTORS
330
18FE
102
}
330
A
100
AcDbEntity
  8
塗膜(N-300)
100
AcDbLine
 10
753.635181860212
 20
886.779106974929
 30
0.0
 11
480.784808644239
 21
914.064144296528
 31
0.0
  0
LINE
  5
1903
102
{ACAD_REACTORS
330
18FE
102
}
330
A
100
AcDbEntity
  8
塗膜(N-300)
100
AcDbLine
 10
751.635181860212
 20
884.969131850703
 30
0.0
 11
751.635181860212
 21
714.064144288597
 31
0.0
  0
LINE
  5
1904
102
{ACAD_REACTORS
330
18FE
102
}
330
A
100
AcDbEntity
  8
塗膜(N-300)
100
AcDbLine
 10
753.635181860212
 20
886.779106974929
 30
0.0
 11
753.635181860212
 21
714.064144288597
 31
0.0
  0
LINE
  5
1905
102
{ACAD_REACTORS
330
18FE
102
}
330
A
100
AcDbEntity
  8
塗膜(N-300)
100
AcDbLine
 10
753.635181860212
 20
714.064144288597
 30
0.0
 11
751.635181860212
 21
714.064144288597
 31
0.0
  0
LINE
  5
1906
102
{ACAD_REACTORS
330
18FE
102
}
330
A
100
AcDbEntity
  8
塗膜(N-300)
100
AcDbLine
 10
460.635181860205
 20
912.064144296528
 30
0.0
 11
460.635181860205
 21
914.064144296528
 31
0.0
  0
VIEWPORT
  5
1D
330
B
100
AcDbEntity
 67
     1
  8
0
100
AcDbViewport
 10
210.0
 20
148.5
 30
0.0
 40
420.0
 41
297.0
 68
     1
 69
     1
 12
4.5
 22
3.259162
 13
0.0
 23
0.0
 14
1.0
 24
1.0
 15
0.0
 25
0.0
 16
0.0
 26
0.0
 36
1.0
 17
0.0
 27
0.0
 37
0.0
 42
50.0
 43
0.0
 44
0.0
 45
9.311892
 50
0.0
 51
0.0
 72
   100
 90
   557216
  1

281
     0
 71
     1
 74
     0
110
0.0
120
0.0
130
0.0
111
1.0
121
0.0
131
0.0
112
0.0
122
1.0
132
0.0
 79
     0
146
0.0
170
     0
 61
     5
348
15D0
292
     0
282
     1
141
0.0
142
0.0
 63
   250
421
  3355443
  0
ENDSEC
  0
SECTION
  2
OBJECTS
  0
DICTIONARY
  5
19
330
0
100
AcDbDictionary
281
     1
  3
ACAD_COLOR
350
165E
  3
ACAD_DETAILVIEWSTYLE
350
1639
  3
ACAD_FIELDLIST
350
19A1
  3
ACAD_GROUP
350
1A
  3
ACAD_IMAGE_VARS
350
163B
  3
ACAD_LAYOUT
350
15C8
  3
ACAD_MATERIAL
350
15E4
  3
ACAD_MLEADERSTYLE
350
15EA
  3
ACAD_MLINESTYLE
350
1B
  3
ACAD_PLOTSETTINGS
350
15A3
  3
ACAD_PLOTSTYLENAME
350
15A4
  3
ACAD_SCALELIST
350
15A6
  3
ACAD_SECTIONVIEWSTYLE
350
163A
  3
ACAD_TABLESTYLE
350
15E8
  3
ACAD_VISUALSTYLE
350
15CB
  3
ACDB_RECOMPOSE_DATA
350
19DA
  3
AcDbVariableDictionary
350
15F4
  0
SUN
  5
15ED
330
15
100
AcDbSun
 90
        1
290
     0
 63
     7
421
 16777215
 40
1.0
291
     1
 91
  2455826
 92
 54000000
292
     0
 70
     2
 71
   256
280
     1
  0
DICTIONARY
  5
17ED
330
2
100
AcDbDictionary
280
     1
281
     1
  3
ACAD_LAYERSTATES
360
17EE
  0
DICTIONARY
  5
163E
330
163D
100
AcDbDictionary
280
     1
281
     1
  3
ADSK_XREC_LAYER_RECONCILED
360
163F
  0
DICTIONARY
  5
164B
330
164A
100
AcDbDictionary
280
     1
281
     1
  3
ADSK_XREC_LAYER_RECONCILED
360
164C
  0
DICTIONARY
  5
16AD
330
16AC
100
AcDbDictionary
280
     1
281
     1
  3
ACAD_SORTENTS
360
16AE
  0
DICTIONARY
  5
16B9
330
16B8
100
AcDbDictionary
280
     1
281
     1
  3
ACAD_SORTENTS
360
16BA
  0
DICTIONARY
  5
16C5
330
16C4
100
AcDbDictionary
280
     1
281
     1
  3
ACAD_SORTENTS
360
16C6
  0
DICTIONARY
  5
16D1
330
16D0
100
AcDbDictionary
280
     1
281
     1
  3
ACAD_SORTENTS
360
16D2
  0
DICTIONARY
  5
16E6
330
16E5
100
AcDbDictionary
280
     1
281
     1
  3
ACAD_SORTENTS
360
16E7
  0
DICTIONARY
  5
19A2
330
182F
100
AcDbDictionary
280
     1
281
     1
  3
ACAD_XREC_ROUNDTRIP
360
19A3
  0
DICTIONARY
  5
1832
330
1831
100
AcDbDictionary
280
     1
281
     1
  3
AcDbContextDataManager
360
1833
  0
DICTIONARY
  5
1836
330
1835
100
AcDbDictionary
280
     1
281
     1
  3
AcDbContextDataManager
360
1837
  0
DICTIONARY
  5
183A
330
1839
100
AcDbDictionary
280
     1
281
     1
  3
AcDbContextDataManager
360
183B
  0
DICTIONARY
  5
183E
330
183D
100
AcDbDictionary
280
     1
281
     1
  3
AcDbContextDataManager
360
183F
  0
DICTIONARY
  5
1842
330
1841
100
AcDbDictionary
280
     1
281
     1
  3
AcDbContextDataManager
360
1843
  0
DICTIONARY
  5
1846
330
1845
100
AcDbDictionary
280
     1
281
     1
  3
AcDbContextDataManager
360
1847
  0
DICTIONARY
  5
184B
330
184A
100
AcDbDictionary
280
     1
281
     1
  3
AcDbContextDataManager
360
184C
  0
DICTIONARY
  5
184F
330
184E
100
AcDbDictionary
280
     1
281
     1
  3
AcDbContextDataManager
360
1850
  0
DICTIONARY
  5
1853
330
1852
100
AcDbDictionary
280
     1
281
     1
  3
AcDbContextDataManager
360
1854
  0
DICTIONARY
  5
18AE
330
18AD
100
AcDbDictionary
280
     1
281
     1
  3
AcDbContextDataManager
360
18AF
  0
DICTIONARY
  5
165E
102
{ACAD_REACTORS
330
19
102
}
330
19
100
AcDbDictionary
281
     1
  0
DICTIONARY
  5
1639
102
{ACAD_REACTORS
330
19
102
}
330
19
100
AcDbDictionary
281
     1
  0
FIELDLIST
  5
19A1
102
{ACAD_REACTORS
330
19
102
}
330
19
100
AcDbIdSet
 90
        0
100
AcDbFieldList
  0
DICTIONARY
  5
1A
102
{ACAD_REACTORS
330
19
102
}
330
19
100
AcDbDictionary
281
     1
  0
RASTERVARIABLES
  5
163B
102
{ACAD_REACTORS
330
19
102
}
330
19
100
AcDbRasterVariables
 90
        0
 70
     1
 71
     1
 72
     0
  0
DICTIONARY
  5
15C8
102
{ACAD_REACTORS
330
19
102
}
330
19
100
AcDbDictionary
281
     1
  3
Model
350
15C9
  3
レイアウト1
350
15CA
  0
DICTIONARY
  5
15E4
102
{ACAD_REACTORS
330
19
102
}
330
19
100
AcDbDictionary
281
     1
  3
ByBlock
350
15E6
  3
ByLayer
350
15E5
  3
Global
350
15E7
  0
DICTIONARY
  5
15EA
102
{ACAD_REACTORS
330
19
102
}
330
19
100
AcDbDictionary
281
     1
  3
Standard
350
15EB
  0
DICTIONARY
  5
1B
102
{ACAD_REACTORS
330
19
102
}
330
19
100
AcDbDictionary
281
     1
  3
STANDARD
350
1C
  0
DICTIONARY
  5
15A3
102
{ACAD_REACTORS
330
19
102
}
330
19
100
AcDbDictionary
281
     1
  0
ACDBDICTIONARYWDFLT
  5
15A4
102
{ACAD_REACTORS
330
19
102
}
330
19
100
AcDbDictionary
281
     1
  3
Normal
350
15A5
100
AcDbDictionaryWithDefault
340
15A5
  0
DICTIONARY
  5
15A6
102
{ACAD_REACTORS
330
19
102
}
330
19
100
AcDbDictionary
281
     1
  3
A0
350
15A7
  3
A1
350
15A8
  3
A2
350
15A9
  3
A3
350
15AA
  3
A4
350
15AB
  3
A5
350
15AC
  3
A6
350
15AD
  3
A7
350
15AE
  3
A8
350
15AF
  3
A9
350
15B0
  3
B0
350
15B1
  3
B1
350
15B2
  3
B2
350
15B3
  3
B3
350
15B4
  3
B4
350
15B5
  3
B5
350
15B6
  3
B6
350
15B7
  3
B7
350
15B8
  3
B8
350
15B9
  3
B9
350
15BA
  3
C0
350
15BB
  3
C1
350
15BC
  3
C2
350
15BD
  3
C3
350
15BE
  3
C4
350
15BF
  3
C5
350
15C0
  3
C6
350
15C1
  3
C7
350
15C2
  3
C8
350
15C3
  3
C9
350
15C4
  3
D0
350
15C5
  3
D1
350
15C6
  3
D2
350
15C7
  0
DICTIONARY
  5
163A
102
{ACAD_REACTORS
330
19
102
}
330
19
100
AcDbDictionary
281
     1
  0
DICTIONARY
  5
15E8
102
{ACAD_REACTORS
330
19
102
}
330
19
100
AcDbDictionary
281
     1
  3
HISTORY_TABLE
350
1661
  3
Standard
350
15E9
  0
DICTIONARY
  5
15CB
102
{ACAD_REACTORS
330
19
102
}
330
19
100
AcDbDictionary
281
     1
  3
2dWireframe
350
15D0
  3
Basic
350
15D3
  3
Brighten
350
15D7
  3
ColorChange
350
15DB
  3
Conceptual
350
15D5
  3
Dim
350
15D6
  3
EdgeColorOff
350
15DE
  3
Facepattern
350
15DA
  3
Flat
350
15CC
  3
FlatWithEdges
350
15CD
  3
Gouraud
350
15CE
  3
GouraudWithEdges
350
15CF
  3
Hidden
350
15D2
  3
JitterOff
350
15DC
  3
Linepattern
350
15D9
  3
Modeling
350
15EC
  3
OverhangOff
350
15DD
  3
Realistic
350
15D4
  3
Shaded
350
15E3
  3
Shaded with edges
350
15E2
  3
Shades of Gray
350
15DF
  3
Sketchy
350
15E0
  3
Thicken
350
15D8
  3
Wireframe
350
15D1
  3
X-Ray
350
15E1
  0
XRECORD
  5
19DA
102
{ACAD_REACTORS
330
19
102
}
330
19
100
AcDbXrecord
280
     1
 90
        1
330
15E9
330
1661
330
182F
  0
DICTIONARY
  5
15F4
102
{ACAD_REACTORS
330
19
102
}
330
19
100
AcDbDictionary
281
     1
  3
CANNOSCALE
350
15F5
  3
CMLEADERSTYLE
350
1637
  3
CTABLESTYLE
350
1636
  3
MSLTSCALE
350
1638
  3
XCLIPFRAME
350
15F6
  0
DICTIONARY
  5
17EE
102
{ACAD_REACTORS
330
17ED
102
}
330
17ED
100
AcDbDictionary
281
     1
  0
XRECORD
  5
163F
102
{ACAD_REACTORS
330
163E
102
}
330
163E
100
AcDbXrecord
280
     1
290
     1
  0
XRECORD
  5
164C
102
{ACAD_REACTORS
330
164B
102
}
330
164B
100
AcDbXrecord
280
     1
290
     1
  0
SORTENTSTABLE
  5
16AE
102
{ACAD_REACTORS
330
16AD
102
}
330
16AD
100
AcDbSortentsTable
330
16AC
331
16B0
  5
16B1
331
16B1
  5
16B0
  0
SORTENTSTABLE
  5
16BA
102
{ACAD_REACTORS
330
16B9
102
}
330
16B9
100
AcDbSortentsTable
330
16B8
331
16BC
  5
16BD
331
16BD
  5
16BC
  0
SORTENTSTABLE
  5
16C6
102
{ACAD_REACTORS
330
16C5
102
}
330
16C5
100
AcDbSortentsTable
330
16C4
331
16C8
  5
16C9
331
16C9
  5
16C8
  0
SORTENTSTABLE
  5
16D2
102
{ACAD_REACTORS
330
16D1
102
}
330
16D1
100
AcDbSortentsTable
330
16D0
331
16D4
  5
16D5
331
16D5
  5
16D4
  0
SORTENTSTABLE
  5
16E7
102
{ACAD_REACTORS
330
16E6
102
}
330
16E6
100
AcDbSortentsTable
330
16E5
331
16E9
  5
1715
331
16EA
  5
1714
331
16EB
  5
1713
331
16EC
  5
1712
331
16ED
  5
1711
331
16EE
  5
1710
331
16EF
  5
170F
331
16F0
  5
170E
331
16F1
  5
170D
331
16F2
  5
170C
331
16F3
  5
170B
331
16F4
  5
170A
331
16F5
  5
1709
331
16F6
  5
1708
331
16F7
  5
1707
331
16F8
  5
1706
331
16F9
  5
1705
331
16FA
  5
1704
331
16FB
  5
1703
331
16FC
  5
1702
331
16FD
  5
1701
331
16FE
  5
1700
331
1700
  5
16FE
331
1701
  5
16FD
331
1702
  5
16FC
331
1703
  5
16FB
331
1704
  5
16FA
331
1705
  5
16F9
331
1706
  5
16F8
331
1707
  5
16F7
331
1708
  5
16F6
331
1709
  5
16F5
331
170A
  5
16F4
331
170B
  5
16F3
331
170C
  5
16F2
331
170D
  5
16F1
331
170E
  5
16F0
331
170F
  5
16EF
331
1710
  5
16EE
331
1711
  5
16ED
331
1712
  5
16EC
331
1713
  5
16EB
331
1714
  5
16EA
331
1715
  5
16E9
  0
XRECORD
  5
19A3
102
{ACAD_REACTORS
330
19A2
102
}
330
19A2
100
AcDbXrecord
280
     1
102
ACAD_ROUNDTRIP_2008_TABLE_ENTITY
360
199F
 70
     2
 90
        1
 10
0.0
 20
0.0
 30
0.0
 90
        0
 90
        4
361
19A0
  0
DICTIONARY
  5
1833
102
{ACAD_REACTORS
330
1832
102
}
330
1832
100
AcDbDictionary
281
     1
  3
ACDB_ANNOTATIONSCALES
350
1834
  0
DICTIONARY
  5
1837
102
{ACAD_REACTORS
330
1836
102
}
330
1836
100
AcDbDictionary
281
     1
  3
ACDB_ANNOTATIONSCALES
350
1838
  0
DICTIONARY
  5
183B
102
{ACAD_REACTORS
330
183A
102
}
330
183A
100
AcDbDictionary
281
     1
  3
ACDB_ANNOTATIONSCALES
350
183C
  0
DICTIONARY
  5
183F
102
{ACAD_REACTORS
330
183E
102
}
330
183E
100
AcDbDictionary
281
     1
  3
ACDB_ANNOTATIONSCALES
350
1840
  0
DICTIONARY
  5
1843
102
{ACAD_REACTORS
330
1842
102
}
330
1842
100
AcDbDictionary
281
     1
  3
ACDB_ANNOTATIONSCALES
350
1844
  0
DICTIONARY
  5
1847
102
{ACAD_REACTORS
330
1846
102
}
330
1846
100
AcDbDictionary
281
     1
  3
ACDB_ANNOTATIONSCALES
350
1848
  0
DICTIONARY
  5
184C
102
{ACAD_REACTORS
330
184B
102
}
330
184B
100
AcDbDictionary
281
     1
  3
ACDB_ANNOTATIONSCALES
350
184D
  0
DICTIONARY
  5
1850
102
{ACAD_REACTORS
330
184F
102
}
330
184F
100
AcDbDictionary
281
     1
  3
ACDB_ANNOTATIONSCALES
350
1851
  0
DICTIONARY
  5
1854
102
{ACAD_REACTORS
330
1853
102
}
330
1853
100
AcDbDictionary
281
     1
  3
ACDB_ANNOTATIONSCALES
350
1855
  0
DICTIONARY
  5
18AF
102
{ACAD_REACTORS
330
18AE
102
}
330
18AE
100
AcDbDictionary
281
     1
  3
ACDB_ANNOTATIONSCALES
350
18B0
  0
LAYOUT
  5
15C9
102
{ACAD_REACTORS
330
15C8
102
}
330
15C8
100
AcDbPlotSettings
  1

  2
none_device
  4
Letter_(8.50_x_11.00_Inches)
  6

 40
6.35
 41
6.35
 42
6.35000508
 43
6.35000508
 44
215.9
 45
279.4
 46
0.0
 47
0.0
 48
0.0
 49
0.0
140
0.0
141
0.0
142
1.0
143
28.28571482449
 70
  1712
 72
     0
 73
     0
 74
     0
  7

 75
     0
 76
     0
 77
     2
 78
   300
147
0.03535353468
148
-958.8054484
149
0.0
100
AcDbLayout
  1
Model
 70
     1
 71
     0
 10
0.0
 20
0.0
 11
420.0
 21
297.0
 12
0.0
 22
0.0
 32
0.0
 14
0.0
 24
0.0
 34
0.0
 15
1680.0
 25
1188.0
 35
0.0
146
0.0
 13
0.0
 23
0.0
 33
0.0
 16
1.0
 26
0.0
 36
0.0
 17
0.0
 27
1.0
 37
0.0
 76
     0
330
A
331
15
  0
LAYOUT
  5
15CA
102
{ACAD_REACTORS
330
15C8
102
}
330
15C8
100
AcDbPlotSettings
  1

  2
none_device
  4

  6

 40
0.0
 41
0.0
 42
0.0
 43
0.0
 44
0.0
 45
0.0
 46
0.0
 47
0.0
 48
0.0
 49
0.0
140
0.0
141
0.0
142
1.0
143
1.0
 70
   688
 72
     0
 73
     0
 74
     5
  7

 75
    16
 76
     0
 77
     2
 78
   300
147
1.0
148
0.0
149
0.0
100
AcDbLayout
  1
レイアウト1
 70
     0
 71
     1
 10
0.0
 20
0.0
 11
12.0
 21
9.0
 12
0.0
 22
0.0
 32
0.0
 14
1.000000000000E+20
 24
1.000000000000E+20
 34
1.000000000000E+20
 15
-1.000000000000E+20
 25
-1.000000000000E+20
 35
-1.000000000000E+20
146
0.0
 13
0.0
 23
0.0
 33
0.0
 16
1.0
 26
0.0
 36
0.0
 17
0.0
 27
1.0
 37
0.0
 76
     0
330
B
331
1D
  0
MATERIAL
  5
15E6
102
{ACAD_REACTORS
330
15E4
102
}
330
15E4
100
AcDbMaterial
  1
ByBlock
 72
     1
 94
      127
  0
MATERIAL
  5
15E5
102
{ACAD_REACTORS
330
15E4
102
}
330
15E4
100
AcDbMaterial
  1
ByLayer
 72
     1
 94
      127
  0
MATERIAL
  5
15E7
102
{ACAD_REACTORS
330
15E4
102
}
330
15E4
100
AcDbMaterial
  1
Global
 72
     1
 94
      127
  0
MLEADERSTYLE
  5
15EB
102
{ACAD_REACTORS
330
15EA
102
}
330
15EA
100
AcDbMLeaderStyle
179
     2
170
     2
171
     1
172
     0
 90
        2
 40
0.0
 41
0.0
173
     1
 91
-1056964608
340
11
 92
       -2
290
     1
 42
0.09
291
     1
 43
0.36
  3
Standard
341
0
 44
0.18
300

342
17
174
     1
178
     6
175
     1
176
     0
 93
-1056964608
 45
0.18
292
     0
297
     0
 46
0.18
343
0
 94
-1056964608
 47
1.0
 49
1.0
140
1.0
293
     1
141
0.0
294
     1
177
     0
142
1.0
295
     0
296
     0
143
0.125
271
     0
272
     9
273
     9
  0
MLINESTYLE
  5
1C
102
{ACAD_REACTORS
330
1B
102
}
330
1B
100
AcDbMlineStyle
  2
STANDARD
 70
     0
  3

 62
     0
 51
90.0
 52
90.0
 71
     2
 49
0.5
 62
   256
  6
BYLAYER
 49
-0.5
 62
   256
  6
BYLAYER
  0
ACDBPLACEHOLDER
  5
15A5
102
{ACAD_REACTORS
330
15A4
102
}
330
15A4
  0
SCALE
  5
15A7
102
{ACAD_REACTORS
330
15A6
102
}
330
15A6
100
AcDbScale
 70
     0
300
1:1
140
1.0
141
1.0
290
     1
  0
SCALE
  5
15A8
102
{ACAD_REACTORS
330
15A6
102
}
330
15A6
100
AcDbScale
 70
     0
300
1:2
140
1.0
141
2.0
290
     0
  0
SCALE
  5
15A9
102
{ACAD_REACTORS
330
15A6
102
}
330
15A6
100
AcDbScale
 70
     0
300
1:4
140
1.0
141
4.0
290
     0
  0
SCALE
  5
15AA
102
{ACAD_REACTORS
330
15A6
102
}
330
15A6
100
AcDbScale
 70
     0
300
1:5
140
1.0
141
5.0
290
     0
  0
SCALE
  5
15AB
102
{ACAD_REACTORS
330
15A6
102
}
330
15A6
100
AcDbScale
 70
     0
300
1:8
140
1.0
141
8.0
290
     0
  0
SCALE
  5
15AC
102
{ACAD_REACTORS
330
15A6
102
}
330
15A6
100
AcDbScale
 70
     0
300
1:10
140
1.0
141
10.0
290
     0
  0
SCALE
  5
15AD
102
{ACAD_REACTORS
330
15A6
102
}
330
15A6
100
AcDbScale
 70
     0
300
1:16
140
1.0
141
16.0
290
     0
  0
SCALE
  5
15AE
102
{ACAD_REACTORS
330
15A6
102
}
330
15A6
100
AcDbScale
 70
     0
300
1:20
140
1.0
141
20.0
290
     0
  0
SCALE
  5
15AF
102
{ACAD_REACTORS
330
15A6
102
}
330
15A6
100
AcDbScale
 70
     0
300
1:30
140
1.0
141
30.0
290
     0
  0
SCALE
  5
15B0
102
{ACAD_REACTORS
330
15A6
102
}
330
15A6
100
AcDbScale
 70
     0
300
1:40
140
1.0
141
40.0
290
     0
  0
SCALE
  5
15B1
102
{ACAD_REACTORS
330
15A6
102
}
330
15A6
100
AcDbScale
 70
     0
300
1:50
140
1.0
141
50.0
290
     0
  0
SCALE
  5
15B2
102
{ACAD_REACTORS
330
15A6
102
}
330
15A6
100
AcDbScale
 70
     0
300
1:100
140
1.0
141
100.0
290
     0
  0
SCALE
  5
15B3
102
{ACAD_REACTORS
330
15A6
102
}
330
15A6
100
AcDbScale
 70
     0
300
2:1
140
2.0
141
1.0
290
     0
  0
SCALE
  5
15B4
102
{ACAD_REACTORS
330
15A6
102
}
330
15A6
100
AcDbScale
 70
     0
300
4:1
140
4.0
141
1.0
290
     0
  0
SCALE
  5
15B5
102
{ACAD_REACTORS
330
15A6
102
}
330
15A6
100
AcDbScale
 70
     0
300
8:1
140
8.0
141
1.0
290
     0
  0
SCALE
  5
15B6
102
{ACAD_REACTORS
330
15A6
102
}
330
15A6
100
AcDbScale
 70
     0
300
10:1
140
10.0
141
1.0
290
     0
  0
SCALE
  5
15B7
102
{ACAD_REACTORS
330
15A6
102
}
330
15A6
100
AcDbScale
 70
     0
300
100:1
140
100.0
141
1.0
290
     0
  0
SCALE
  5
15B8
102
{ACAD_REACTORS
330
15A6
102
}
330
15A6
100
AcDbScale
 70
     0
300
1/128" = 1'-0"
140
0.0078125
141
12.0
290
     0
  0
SCALE
  5
15B9
102
{ACAD_REACTORS
330
15A6
102
}
330
15A6
100
AcDbScale
 70
     0
300
1/64" = 1'-0"
140
0.015625
141
12.0
290
     0
  0
SCALE
  5
15BA
102
{ACAD_REACTORS
330
15A6
102
}
330
15A6
100
AcDbScale
 70
     0
300
1/32" = 1'-0"
140
0.03125
141
12.0
290
     0
  0
SCALE
  5
15BB
102
{ACAD_REACTORS
330
15A6
102
}
330
15A6
100
AcDbScale
 70
     0
300
1/16" = 1'-0"
140
0.0625
141
12.0
290
     0
  0
SCALE
  5
15BC
102
{ACAD_REACTORS
330
15A6
102
}
330
15A6
100
AcDbScale
 70
     0
300
3/32" = 1'-0"
140
0.09375
141
12.0
290
     0
  0
SCALE
  5
15BD
102
{ACAD_REACTORS
330
15A6
102
}
330
15A6
100
AcDbScale
 70
     0
300
1/8" = 1'-0"
140
0.125
141
12.0
290
     0
  0
SCALE
  5
15BE
102
{ACAD_REACTORS
330
15A6
102
}
330
15A6
100
AcDbScale
 70
     0
300
3/16" = 1'-0"
140
0.1875
141
12.0
290
     0
  0
SCALE
  5
15BF
102
{ACAD_REACTORS
330
15A6
102
}
330
15A6
100
AcDbScale
 70
     0
300
1/4" = 1'-0"
140
0.25
141
12.0
290
     0
  0
SCALE
  5
15C0
102
{ACAD_REACTORS
330
15A6
102
}
330
15A6
100
AcDbScale
 70
     0
300
3/8" = 1'-0"
140
0.375
141
12.0
290
     0
  0
SCALE
  5
15C1
102
{ACAD_REACTORS
330
15A6
102
}
330
15A6
100
AcDbScale
 70
     0
300
1/2" = 1'-0"
140
0.5
141
12.0
290
     0
  0
SCALE
  5
15C2
102
{ACAD_REACTORS
330
15A6
102
}
330
15A6
100
AcDbScale
 70
     0
300
3/4" = 1'-0"
140
0.75
141
12.0
290
     0
  0
SCALE
  5
15C3
102
{ACAD_REACTORS
330
15A6
102
}
330
15A6
100
AcDbScale
 70
     0
300
1" = 1'-0"
140
1.0
141
12.0
290
     0
  0
SCALE
  5
15C4
102
{ACAD_REACTORS
330
15A6
102
}
330
15A6
100
AcDbScale
 70
     0
300
1-1/2" = 1'-0"
140
1.5
141
12.0
290
     0
  0
SCALE
  5
15C5
102
{ACAD_REACTORS
330
15A6
102
}
330
15A6
100
AcDbScale
 70
     0
300
3" = 1'-0"
140
3.0
141
12.0
290
     0
  0
SCALE
  5
15C6
102
{ACAD_REACTORS
330
15A6
102
}
330
15A6
100
AcDbScale
 70
     0
300
6" = 1'-0"
140
6.0
141
12.0
290
     0
  0
SCALE
  5
15C7
102
{ACAD_REACTORS
330
15A6
102
}
330
15A6
100
AcDbScale
 70
     0
300
1'-0" = 1'-0"
140
12.0
141
12.0
290
     0
  0
TABLESTYLE
  5
1661
102
{ACAD_REACTORS
330
15E8
330
182F
102
}
102
{ACAD_XDICTIONARY
360
19D8
102
}
330
15E8
100
AcDbTableStyle
  3

 70
     1
 71
     0
 40
0.06
 41
0.06
280
     0
281
     0
  7
ＭＳ ゴシック
140
6.0
170
     2
 62
     0
 63
   257
283
     0
 90
        4
 91
        0
  1

274
    -2
284
     1
 64
     0
275
    -2
285
     1
 65
     0
276
    -2
286
     1
 66
     0
277
    -2
287
     1
 67
     0
278
    -2
288
     1
 68
     0
279
    -2
289
     1
 69
     0
  7
ＭＳ ゴシック
140
1.0
170
     5
 62
     0
 63
   257
283
     0
 90
        4
 91
        0
  1

274
    -2
284
     1
 64
     0
275
    -2
285
     1
 65
     0
276
    -2
286
     1
 66
     0
277
    -2
287
     1
 67
     0
278
    -2
288
     1
 68
     0
279
    -2
289
     1
 69
     0
  7
ＭＳ ゴシック
140
6.0
170
     5
 62
     0
 63
   257
283
     0
 90
        4
 91
        0
  1

274
    -2
284
     1
 64
     0
275
    -2
285
     1
 65
     0
276
    -2
286
     1
 66
     0
277
    -2
287
     1
 67
     0
278
    -2
288
     1
 68
     0
279
    -2
289
     1
 69
     0
  0
TABLESTYLE
  5
15E9
102
{ACAD_REACTORS
330
15E8
102
}
102
{ACAD_XDICTIONARY
360
19D6
102
}
330
15E8
100
AcDbTableStyle
  3
Standard
 70
     0
 71
     0
 40
0.06
 41
0.06
280
     0
281
     0
  7
STANDARD
140
0.18
170
     2
 62
     0
 63
   257
283
     0
 90
        4
 91
        0
  1

274
    -2
284
     1
 64
     0
275
    -2
285
     1
 65
     0
276
    -2
286
     1
 66
     0
277
    -2
287
     1
 67
     0
278
    -2
288
     1
 68
     0
279
    -2
289
     1
 69
     0
  7
STANDARD
140
0.25
170
     5
 62
     0
 63
   257
283
     0
 90
        4
 91
        0
  1

274
    -2
284
     1
 64
     0
275
    -2
285
     1
 65
     0
276
    -2
286
     1
 66
     0
277
    -2
287
     1
 67
     0
278
    -2
288
     1
 68
     0
279
    -2
289
     1
 69
     0
  7
STANDARD
140
0.18
170
     5
 62
     0
 63
   257
283
     0
 90
        4
 91
        0
  1

274
    -2
284
     1
 64
     0
275
    -2
285
     1
 65
     0
276
    -2
286
     1
 66
     0
277
    -2
287
     1
 67
     0
278
    -2
288
     1
 68
     0
279
    -2
289
     1
 69
     0
  0
VISUALSTYLE
  5
15D0
102
{ACAD_REACTORS
330
15CB
102
}
102
{ACAD_XDICTIONARY
360
19AC
102
}
330
15CB
100
AcDbVisualStyle
  2
2dWireframe
 70
     4
177
     2
291
     0
 71
     0
176
     1
 72
     2
176
     1
 73
     0
176
     1
 90
        0
176
     1
 40
0.6
176
     1
 41
30.0
176
     1
 62
     5
 63
     7
421
 16777215
176
     1
 74
     1
176
     1
 91
        4
176
     1
 64
     7
176
     1
 65
   257
176
     1
 75
     1
176
     1
175
     1
176
     1
 42
1.0
176
     1
 92
        0
176
     1
 66
   257
176
     1
 43
1.0
176
     1
 76
     1
176
     1
 77
     6
176
     1
 78
     2
176
     1
 67
     7
176
     1
 79
     5
176
     1
170
     0
176
     1
171
     0
176
     1
290
     0
176
     1
 93
        1
176
     1
 44
0.0
176
     1
173
     0
176
     1
  0
VISUALSTYLE
  5
15D3
102
{ACAD_REACTORS
330
15CB
102
}
102
{ACAD_XDICTIONARY
360
19B2
102
}
330
15CB
100
AcDbVisualStyle
  2
Basic
 70
     7
177
     2
291
     1
 71
     1
176
     1
 72
     0
176
     1
 73
     1
176
     1
 90
        0
176
     1
 40
0.6
176
     1
 41
30.0
176
     1
 62
     5
 63
     7
421
 16777215
176
     1
 74
     0
176
     1
 91
        4
176
     1
 64
     7
176
     1
 65
   257
176
     1
 75
     1
176
     1
175
     1
176
     1
 42
1.0
176
     1
 92
        8
176
     1
 66
     7
176
     1
 43
1.0
176
     1
 76
     1
176
     1
 77
     6
176
     1
 78
     2
176
     1
 67
     7
176
     1
 79
     5
176
     1
170
     0
176
     1
171
     0
176
     1
290
     0
176
     1
 93
        1
176
     1
 44
0.0
176
     1
173
     0
176
     1
  0
VISUALSTYLE
  5
15D7
102
{ACAD_REACTORS
330
15CB
102
}
102
{ACAD_XDICTIONARY
360
19BA
102
}
330
15CB
100
AcDbVisualStyle
  2
Brighten
 70
    12
177
     2
291
     1
 71
     2
176
     1
 72
     2
176
     1
 73
     0
176
     1
 90
        0
176
     1
 40
0.6
176
     1
 41
30.0
176
     1
 62
     5
 63
     7
421
 16777215
176
     1
 74
     1
176
     1
 91
        4
176
     1
 64
     7
176
     1
 65
   257
176
     1
 75
     1
176
     1
175
     1
176
     1
 42
1.0
176
     1
 92
        8
176
     1
 66
     7
176
     1
 43
1.0
176
     1
 76
     1
176
     1
 77
     6
176
     1
 78
     2
176
     1
 67
     7
176
     1
 79
     5
176
     1
170
     0
176
     1
171
     0
176
     1
290
     0
176
     1
 93
        1
176
     1
 44
50.0
176
     1
173
     0
176
     1
  0
VISUALSTYLE
  5
15DB
102
{ACAD_REACTORS
330
15CB
102
}
102
{ACAD_XDICTIONARY
360
19C2
102
}
330
15CB
100
AcDbVisualStyle
  2
ColorChange
 70
    16
177
     2
291
     1
 71
     2
176
     1
 72
     2
176
     1
 73
     3
176
     1
 90
        0
176
     1
 40
0.6
176
     1
 41
30.0
176
     1
 62
     5
 63
     8
421
  8421504
176
     1
 74
     1
176
     1
 91
        4
176
     1
 64
     7
176
     1
 65
   257
176
     1
 75
     1
176
     1
175
     1
176
     1
 42
1.0
176
     1
 92
        8
176
     1
 66
     8
424
  8421504
176
     1
 43
1.0
176
     1
 76
     1
176
     1
 77
     6
176
     1
 78
     2
176
     1
 67
     7
176
     1
 79
     5
176
     1
170
     0
176
     1
171
     0
176
     1
290
     0
176
     1
 93
        1
176
     1
 44
0.0
176
     1
173
     0
176
     1
  0
VISUALSTYLE
  5
15D5
102
{ACAD_REACTORS
330
15CB
102
}
102
{ACAD_XDICTIONARY
360
19B6
102
}
330
15CB
100
AcDbVisualStyle
  2
Conceptual
 70
     9
177
     2
291
     0
 71
     3
176
     1
 72
     2
176
     1
 73
     0
176
     1
 90
        0
176
     1
 40
0.6
176
     1
 41
30.0
176
     1
 62
     5
 63
     7
421
 16777215
176
     1
 74
     2
176
     1
 91
        2
176
     1
 64
     7
176
     1
 65
   257
176
     1
 75
     1
176
     1
175
     1
176
     1
 42
179.0
176
     1
 92
        8
176
     1
 66
     7
176
     1
 43
1.0
176
     1
 76
     1
176
     1
 77
     6
176
     1
 78
     2
176
     1
 67
     7
176
     1
 79
     3
176
     1
170
     0
176
     1
171
     0
176
     1
290
     0
176
     1
 93
        1
176
     1
 44
0.0
176
     1
173
     0
176
     1
  0
VISUALSTYLE
  5
15D6
102
{ACAD_REACTORS
330
15CB
102
}
102
{ACAD_XDICTIONARY
360
19B8
102
}
330
15CB
100
AcDbVisualStyle
  2
Dim
 70
    11
177
     2
291
     1
 71
     2
176
     1
 72
     2
176
     1
 73
     0
176
     1
 90
        0
176
     1
 40
0.6
176
     1
 41
30.0
176
     1
 62
     5
 63
     7
421
 16777215
176
     1
 74
     1
176
     1
 91
        4
176
     1
 64
     7
176
     1
 65
   257
176
     1
 75
     1
176
     1
175
     1
176
     1
 42
1.0
176
     1
 92
        8
176
     1
 66
     7
176
     1
 43
1.0
176
     1
 76
     1
176
     1
 77
     6
176
     1
 78
     2
176
     1
 67
     7
176
     1
 79
     5
176
     1
170
     0
176
     1
171
     0
176
     1
290
     0
176
     1
 93
        1
176
     1
 44
-50.0
176
     1
173
     0
176
     1
  0
VISUALSTYLE
  5
15DE
102
{ACAD_REACTORS
330
15CB
102
}
102
{ACAD_XDICTIONARY
360
19C8
102
}
330
15CB
100
AcDbVisualStyle
  2
EdgeColorOff
 70
    22
177
     2
291
     1
 71
     2
176
     0
 72
     2
176
     0
 73
     0
176
     0
 90
        0
176
     0
 40
0.6
176
     0
 41
30.0
176
     0
 62
     5
 63
     7
421
 16777215
176
     0
 74
     1
176
     0
 91
        4
176
     0
 64
     7
176
     0
 65
   257
176
     0
 75
     1
176
     0
175
     1
176
     0
 42
1.0
176
     0
 92
        8
176
     2
 66
     7
176
     0
 43
1.0
176
     0
 76
     1
176
     0
 77
     6
176
     0
 78
     2
176
     0
 67
     7
176
     0
 79
     5
176
     0
170
     0
176
     0
171
     0
176
     0
290
     0
176
     0
 93
        1
176
     0
 44
0.0
176
     0
173
     0
176
     0
  0
VISUALSTYLE
  5
15DA
102
{ACAD_REACTORS
330
15CB
102
}
102
{ACAD_XDICTIONARY
360
19C0
102
}
330
15CB
100
AcDbVisualStyle
  2
Facepattern
 70
    15
177
     2
291
     1
 71
     2
176
     1
 72
     2
176
     1
 73
     0
176
     1
 90
        0
176
     1
 40
0.6
176
     1
 41
30.0
176
     1
 62
     5
 63
     7
421
 16777215
176
     1
 74
     1
176
     1
 91
        4
176
     1
 64
     7
176
     1
 65
   257
176
     1
 75
     1
176
     1
175
     1
176
     1
 42
1.0
176
     1
 92
        8
176
     1
 66
     7
176
     1
 43
1.0
176
     1
 76
     1
176
     1
 77
     6
176
     1
 78
     2
176
     1
 67
     7
176
     1
 79
     5
176
     1
170
     0
176
     1
171
     0
176
     1
290
     0
176
     1
 93
        1
176
     1
 44
0.0
176
     1
173
     0
176
     1
  0
VISUALSTYLE
  5
15CC
102
{ACAD_REACTORS
330
15CB
102
}
102
{ACAD_XDICTIONARY
360
19A4
102
}
330
15CB
100
AcDbVisualStyle
  2
Flat
 70
     0
177
     2
291
     1
 71
     2
176
     1
 72
     1
176
     1
 73
     1
176
     1
 90
        2
176
     1
 40
0.6
176
     1
 41
30.0
176
     1
 62
     5
 63
     7
421
 16777215
176
     1
 74
     0
176
     1
 91
        0
176
     1
 64
     7
176
     1
 65
   257
176
     1
 75
     1
176
     1
175
     1
176
     1
 42
1.0
176
     1
 92
        8
176
     1
 66
     7
176
     1
 43
1.0
176
     1
 76
     1
176
     1
 77
     6
176
     1
 78
     2
176
     1
 67
     7
176
     1
 79
     5
176
     1
170
     0
176
     1
171
     0
176
     1
290
     0
176
     1
 93
       13
176
     1
 44
0.0
176
     1
173
     0
176
     1
  0
VISUALSTYLE
  5
15CD
102
{ACAD_REACTORS
330
15CB
102
}
102
{ACAD_XDICTIONARY
360
19A6
102
}
330
15CB
100
AcDbVisualStyle
  2
FlatWithEdges
 70
     1
177
     2
291
     1
 71
     2
176
     1
 72
     1
176
     1
 73
     1
176
     1
 90
        2
176
     1
 40
0.6
176
     1
 41
30.0
176
     1
 62
     5
 63
     7
421
 16777215
176
     1
 74
     1
176
     1
 91
        0
176
     1
 64
     7
176
     1
 65
   257
176
     1
 75
     1
176
     1
175
     1
176
     1
 42
1.0
176
     1
 92
        0
176
     1
 66
   257
176
     1
 43
1.0
176
     1
 76
     1
176
     1
 77
     6
176
     1
 78
     2
176
     1
 67
     7
176
     1
 79
     5
176
     1
170
     0
176
     1
171
     0
176
     1
290
     0
176
     1
 93
       13
176
     1
 44
0.0
176
     1
173
     0
176
     1
  0
VISUALSTYLE
  5
15CE
102
{ACAD_REACTORS
330
15CB
102
}
102
{ACAD_XDICTIONARY
360
19A8
102
}
330
15CB
100
AcDbVisualStyle
  2
Gouraud
 70
     2
177
     2
291
     1
 71
     2
176
     1
 72
     2
176
     1
 73
     1
176
     1
 90
        2
176
     1
 40
0.6
176
     1
 41
30.0
176
     1
 62
     5
 63
     7
421
 16777215
176
     1
 74
     0
176
     1
 91
        0
176
     1
 64
     7
176
     1
 65
   257
176
     1
 75
     1
176
     1
175
     1
176
     1
 42
1.0
176
     1
 92
        0
176
     1
 66
     7
176
     1
 43
1.0
176
     1
 76
     1
176
     1
 77
     6
176
     1
 78
     2
176
     1
 67
     7
176
     1
 79
     5
176
     1
170
     0
176
     1
171
     0
176
     1
290
     0
176
     1
 93
       13
176
     1
 44
0.0
176
     1
173
     0
176
     1
  0
VISUALSTYLE
  5
15CF
102
{ACAD_REACTORS
330
15CB
102
}
102
{ACAD_XDICTIONARY
360
19AA
102
}
330
15CB
100
AcDbVisualStyle
  2
GouraudWithEdges
 70
     3
177
     2
291
     1
 71
     2
176
     1
 72
     2
176
     1
 73
     1
176
     1
 90
        2
176
     1
 40
0.6
176
     1
 41
30.0
176
     1
 62
     5
 63
     7
421
 16777215
176
     1
 74
     1
176
     1
 91
        0
176
     1
 64
     7
176
     1
 65
   257
176
     1
 75
     1
176
     1
175
     1
176
     1
 42
1.0
176
     1
 92
        0
176
     1
 66
   257
176
     1
 43
1.0
176
     1
 76
     1
176
     1
 77
     6
176
     1
 78
     2
176
     1
 67
     7
176
     1
 79
     5
176
     1
170
     0
176
     1
171
     0
176
     1
290
     0
176
     1
 93
       13
176
     1
 44
0.0
176
     1
173
     0
176
     1
  0
VISUALSTYLE
  5
15D2
102
{ACAD_REACTORS
330
15CB
102
}
102
{ACAD_XDICTIONARY
360
19B0
102
}
330
15CB
100
AcDbVisualStyle
  2
Hidden
 70
     6
177
     2
291
     0
 71
     1
176
     1
 72
     2
176
     1
 73
     2
176
     1
 90
        0
176
     1
 40
0.6
176
     1
 41
30.0
176
     1
 62
     5
 63
     7
421
 16777215
176
     1
 74
     2
176
     1
 91
        2
176
     1
 64
     7
176
     1
 65
   257
176
     1
 75
     2
176
     1
175
     1
176
     1
 42
40.0
176
     1
 92
        0
176
     1
 66
   257
176
     1
 43
1.0
176
     1
 76
     1
176
     1
 77
     6
176
     1
 78
     2
176
     1
 67
     7
176
     1
 79
     3
176
     1
170
     0
176
     1
171
     0
176
     1
290
     0
176
     1
 93
        1
176
     1
 44
0.0
176
     1
173
     0
176
     1
  0
VISUALSTYLE
  5
15DC
102
{ACAD_REACTORS
330
15CB
102
}
102
{ACAD_XDICTIONARY
360
19C4
102
}
330
15CB
100
AcDbVisualStyle
  2
JitterOff
 70
    20
177
     2
291
     1
 71
     2
176
     0
 72
     2
176
     0
 73
     0
176
     0
 90
        0
176
     0
 40
0.6
176
     0
 41
30.0
176
     0
 62
     5
 63
     7
421
 16777215
176
     0
 74
     1
176
     0
 91
        4
176
     0
 64
     7
176
     0
 65
   257
176
     0
 75
     1
176
     0
175
     1
176
     0
 42
1.0
176
     0
 92
       10
176
     2
 66
     7
176
     0
 43
1.0
176
     0
 76
     1
176
     0
 77
     6
176
     0
 78
     2
176
     0
 67
     7
176
     0
 79
     5
176
     0
170
     0
176
     0
171
     0
176
     0
290
     0
176
     0
 93
        1
176
     0
 44
0.0
176
     0
173
     0
176
     0
  0
VISUALSTYLE
  5
15D9
102
{ACAD_REACTORS
330
15CB
102
}
102
{ACAD_XDICTIONARY
360
19BE
102
}
330
15CB
100
AcDbVisualStyle
  2
Linepattern
 70
    14
177
     2
291
     1
 71
     2
176
     1
 72
     2
176
     1
 73
     0
176
     1
 90
        0
176
     1
 40
0.6
176
     1
 41
30.0
176
     1
 62
     5
 63
     7
421
 16777215
176
     1
 74
     1
176
     1
 91
        4
176
     1
 64
     7
176
     1
 65
   257
176
     1
 75
     7
176
     1
175
     7
176
     1
 42
1.0
176
     1
 92
        8
176
     1
 66
     7
176
     1
 43
1.0
176
     1
 76
     1
176
     1
 77
     6
176
     1
 78
     2
176
     1
 67
     7
176
     1
 79
     5
176
     1
170
     0
176
     1
171
     0
176
     1
290
     0
176
     1
 93
        1
176
     1
 44
0.0
176
     1
173
     0
176
     1
  0
VISUALSTYLE
  5
15EC
102
{ACAD_REACTORS
330
15CB
102
}
102
{ACAD_XDICTIONARY
360
19D4
102
}
330
15CB
100
AcDbVisualStyle
  2
Modeling
 70
    10
177
     2
291
     0
 71
     2
176
     1
 72
     3
176
     1
 73
     0
176
     1
 90
        2
176
     1
 40
0.6
176
     1
 41
30.0
176
     1
 62
     5
 63
     7
421
 16777215
176
     1
 74
     2
176
     1
 91
        0
176
     1
 64
     7
176
     1
 65
   257
176
     1
 75
     1
176
     1
175
     1
176
     1
 42
180.0
176
     1
 92
        8
176
     1
 66
     8
424
  7895160
176
     1
 43
1.0
176
     1
 76
     1
176
     1
 77
     6
176
     1
 78
     2
176
     1
 67
     7
176
     1
 79
     5
176
     1
170
     0
176
     1
171
     0
176
     1
290
     0
176
     1
 93
       13
176
     1
 44
0.0
176
     1
173
     0
176
     1
  0
VISUALSTYLE
  5
15DD
102
{ACAD_REACTORS
330
15CB
102
}
102
{ACAD_XDICTIONARY
360
19C6
102
}
330
15CB
100
AcDbVisualStyle
  2
OverhangOff
 70
    21
177
     2
291
     1
 71
     2
176
     0
 72
     2
176
     0
 73
     0
176
     0
 90
        0
176
     0
 40
0.6
176
     0
 41
30.0
176
     0
 62
     5
 63
     7
421
 16777215
176
     0
 74
     1
176
     0
 91
        4
176
     0
 64
     7
176
     0
 65
   257
176
     0
 75
     1
176
     0
175
     1
176
     0
 42
1.0
176
     0
 92
        9
176
     2
 66
     7
176
     0
 43
1.0
176
     0
 76
     1
176
     0
 77
     6
176
     0
 78
     2
176
     0
 67
     7
176
     0
 79
     5
176
     0
170
     0
176
     0
171
     0
176
     0
290
     0
176
     0
 93
        1
176
     0
 44
0.0
176
     0
173
     0
176
     0
  0
VISUALSTYLE
  5
15D4
102
{ACAD_REACTORS
330
15CB
102
}
102
{ACAD_XDICTIONARY
360
19B4
102
}
330
15CB
100
AcDbVisualStyle
  2
Realistic
 70
     8
177
     2
291
     0
 71
     2
176
     1
 72
     3
176
     1
 73
     0
176
     1
 90
        2
176
     1
 40
0.6
176
     1
 41
30.0
176
     1
 62
     5
 63
     7
421
 16777215
176
     1
 74
     0
176
     1
 91
        0
176
     1
 64
     7
176
     1
 65
   257
176
     1
 75
     1
176
     1
175
     1
176
     1
 42
1.0
176
     1
 92
        8
176
     1
 66
   257
176
     1
 43
1.0
176
     1
 76
     1
176
     1
 77
     6
176
     1
 78
     2
176
     1
 67
     7
176
     1
 79
     3
176
     1
170
     0
176
     1
171
     0
176
     1
290
     0
176
     1
 93
       13
176
     1
 44
0.0
176
     1
173
     0
176
     1
  0
VISUALSTYLE
  5
15E3
102
{ACAD_REACTORS
330
15CB
102
}
102
{ACAD_XDICTIONARY
360
19D2
102
}
330
15CB
100
AcDbVisualStyle
  2
Shaded
 70
    27
177
     2
291
     0
 71
     2
176
     1
 72
     2
176
     1
 73
     1
176
     1
 90
        2
176
     1
 40
0.6
176
     1
 41
30.0
176
     1
 62
     5
 63
     7
421
 16777215
176
     1
 74
     0
176
     1
 91
        4
176
     1
 64
     7
176
     1
 65
   257
176
     1
 75
     1
176
     1
175
     1
176
     1
 42
1.0
176
     1
 92
        8
176
     1
 66
   257
176
     1
 43
1.0
176
     1
 76
     1
176
     1
 77
     6
176
     1
 78
     2
176
     1
 67
     8
425
  7895160
176
     1
 79
     3
176
     1
170
     0
176
     1
171
     0
176
     1
290
     0
176
     1
 93
        5
176
     1
 44
0.0
176
     1
173
     0
176
     1
  0
VISUALSTYLE
  5
15E2
102
{ACAD_REACTORS
330
15CB
102
}
102
{ACAD_XDICTIONARY
360
19D0
102
}
330
15CB
100
AcDbVisualStyle
  2
Shaded with edges
 70
    26
177
     2
291
     0
 71
     2
176
     1
 72
     2
176
     1
 73
     1
176
     1
 90
        2
176
     1
 40
0.6
176
     1
 41
30.0
176
     1
 62
     5
 63
     7
421
 16777215
176
     1
 74
     1
176
     1
 91
       10
176
     1
 64
     7
176
     1
 65
   257
176
     1
 75
     2
176
     1
175
     1
176
     1
 42
1.0
176
     1
 92
        8
176
     1
 66
   257
176
     1
 43
1.0
176
     1
 76
     1
176
     1
 77
     6
176
     1
 78
     2
176
     1
 67
     7
176
     1
 79
     3
176
     1
170
     0
176
     1
171
     0
176
     1
290
     0
176
     1
 93
        5
176
     1
 44
0.0
176
     1
173
     0
176
     1
  0
VISUALSTYLE
  5
15DF
102
{ACAD_REACTORS
330
15CB
102
}
102
{ACAD_XDICTIONARY
360
19CA
102
}
330
15CB
100
AcDbVisualStyle
  2
Shades of Gray
 70
    23
177
     2
291
     0
 71
     2
176
     1
 72
     2
176
     1
 73
     3
176
     1
 90
        0
176
     1
 40
0.6
176
     1
 41
30.0
176
     1
 62
     5
 63
     7
421
 16777215
176
     1
 74
     2
176
     1
 91
        2
176
     1
 64
     7
176
     1
 65
     7
176
     1
 75
     1
176
     1
175
     1
176
     1
 42
40.0
176
     1
 92
        8
176
     1
 66
     7
176
     1
 43
1.0
176
     1
 76
     1
176
     1
 77
     6
176
     1
 78
     2
176
     1
 67
     7
176
     1
 79
     3
176
     1
170
     0
176
     1
171
     0
176
     1
290
     0
176
     1
 93
        1
176
     1
 44
0.0
176
     1
173
     0
176
     1
  0
VISUALSTYLE
  5
15E0
102
{ACAD_REACTORS
330
15CB
102
}
102
{ACAD_XDICTIONARY
360
19CC
102
}
330
15CB
100
AcDbVisualStyle
  2
Sketchy
 70
    24
177
     2
291
     0
 71
     1
176
     1
 72
     2
176
     1
 73
     2
176
     1
 90
        0
176
     1
 40
0.6
176
     1
 41
30.0
176
     1
 62
     5
 63
     7
421
 16777215
176
     1
 74
     2
176
     1
 91
        2
176
     1
 64
     7
176
     1
 65
     7
176
     1
 75
     1
176
     1
175
     1
176
     1
 42
40.0
176
     1
 92
       11
176
     1
 66
     7
176
     1
 43
1.0
176
     1
 76
     1
176
     1
 77
     6
176
     1
 78
     2
176
     1
 67
     7
176
     1
 79
     6
176
     1
170
     0
176
     1
171
     0
176
     1
290
     0
176
     1
 93
        1
176
     1
 44
0.0
176
     1
173
     0
176
     1
  0
VISUALSTYLE
  5
15D8
102
{ACAD_REACTORS
330
15CB
102
}
102
{ACAD_XDICTIONARY
360
19BC
102
}
330
15CB
100
AcDbVisualStyle
  2
Thicken
 70
    13
177
     2
291
     1
 71
     2
176
     1
 72
     2
176
     1
 73
     0
176
     1
 90
        0
176
     1
 40
0.6
176
     1
 41
30.0
176
     1
 62
     5
 63
     7
421
 16777215
176
     1
 74
     1
176
     1
 91
        4
176
     1
 64
     7
176
     1
 65
   257
176
     1
 75
     1
176
     1
175
     1
176
     1
 42
1.0
176
     1
 92
       12
176
     1
 66
     7
176
     1
 43
1.0
176
     1
 76
     1
176
     1
 77
     6
176
     1
 78
     2
176
     1
 67
     7
176
     1
 79
     5
176
     1
170
     0
176
     1
171
     0
176
     1
290
     0
176
     1
 93
        1
176
     1
 44
0.0
176
     1
173
     0
176
     1
  0
VISUALSTYLE
  5
15D1
102
{ACAD_REACTORS
330
15CB
102
}
102
{ACAD_XDICTIONARY
360
19AE
102
}
330
15CB
100
AcDbVisualStyle
  2
Wireframe
 70
     5
177
     2
291
     0
 71
     0
176
     1
 72
     2
176
     1
 73
     0
176
     1
 90
        0
176
     1
 40
0.6
176
     1
 41
30.0
176
     1
 62
     5
 63
     7
421
 16777215
176
     1
 74
     1
176
     1
 91
        4
176
     1
 64
     7
176
     1
 65
   257
176
     1
 75
     1
176
     1
175
     1
176
     1
 42
1.0
176
     1
 92
        0
176
     1
 66
   257
176
     1
 43
1.0
176
     1
 76
     1
176
     1
 77
     6
176
     1
 78
     2
176
     1
 67
     7
176
     1
 79
     3
176
     1
170
     0
176
     1
171
     0
176
     1
290
     0
176
     1
 93
        1
176
     1
 44
0.0
176
     1
173
     0
176
     1
  0
VISUALSTYLE
  5
15E1
102
{ACAD_REACTORS
330
15CB
102
}
102
{ACAD_XDICTIONARY
360
19CE
102
}
330
15CB
100
AcDbVisualStyle
  2
X-Ray
 70
    25
177
     2
291
     0
 71
     2
176
     1
 72
     2
176
     1
 73
     1
176
     1
 90
        1
176
     1
 40
0.5
176
     1
 41
30.0
176
     1
 62
     5
 63
     7
421
 16777215
176
     1
 74
     1
176
     1
 91
        0
176
     1
 64
     7
176
     1
 65
   257
176
     1
 75
     1
176
     1
175
     1
176
     1
 42
1.0
176
     1
 92
        8
176
     1
 66
     7
176
     1
 43
1.0
176
     1
 76
     1
176
     1
 77
     6
176
     1
 78
     2
176
     1
 67
     7
176
     1
 79
     3
176
     1
170
     0
176
     1
171
     0
176
     1
290
     0
176
     1
 93
       13
176
     1
 44
0.0
176
     1
173
     0
176
     1
  0
DICTIONARYVAR
  5
15F5
102
{ACAD_REACTORS
330
15F4
102
}
330
15F4
100
DictionaryVariables
280
     0
  1
1:1
  0
DICTIONARYVAR
  5
1637
102
{ACAD_REACTORS
330
15F4
102
}
330
15F4
100
DictionaryVariables
280
     0
  1
Standard
  0
DICTIONARYVAR
  5
1636
102
{ACAD_REACTORS
330
15F4
102
}
330
15F4
100
DictionaryVariables
280
     0
  1
Standard
  0
DICTIONARYVAR
  5
1638
102
{ACAD_REACTORS
330
15F4
102
}
330
15F4
100
DictionaryVariables
280
     0
  1
0
  0
DICTIONARYVAR
  5
15F6
102
{ACAD_REACTORS
330
15F4
102
}
330
15F4
100
DictionaryVariables
280
     0
  1
2
  0
TABLECONTENT
  5
199F
330
19A3
100
AcDbLinkedData
  1

300

100
AcDbLinkedTableData
 90
        4
300
COLUMN
  1
LINKEDTABLEDATACOLUMN_BEGIN
300

 91
        0
301
CUSTOMDATA
  1
DATAMAP_BEGIN
 90
        0
309
DATAMAP_END
309
LINKEDTABLEDATACOLUMN_END
  1
FORMATTEDTABLEDATACOLUMN_BEGIN
300
COLUMNTABLEFORMAT
  1
TABLEFORMAT_BEGIN
 90
        3
170
     1
 91
      128
 92
        0
 62
   257
 93
        1
300
CONTENTFORMAT
  1
CONTENTFORMAT_BEGIN
 90
      128
 91
        0
 92
      512
 93
        0
300

 40
0.0
140
1.0
 94
        1
 62
     0
340
0
144
0.225
309
CONTENTFORMAT_END
171
     0
 94
        0
309
TABLEFORMAT_END
309
FORMATTEDTABLEDATACOLUMN_END
  1
TABLECOLUMN_BEGIN
 90
        0
 40
37.5
309
TABLECOLUMN_END
300
COLUMN
  1
LINKEDTABLEDATACOLUMN_BEGIN
300

 91
        0
301
CUSTOMDATA
  1
DATAMAP_BEGIN
 90
        0
309
DATAMAP_END
309
LINKEDTABLEDATACOLUMN_END
  1
FORMATTEDTABLEDATACOLUMN_BEGIN
300
COLUMNTABLEFORMAT
  1
TABLEFORMAT_BEGIN
 90
        3
170
     1
 91
      128
 92
        0
 62
   257
 93
        1
300
CONTENTFORMAT
  1
CONTENTFORMAT_BEGIN
 90
      128
 91
        0
 92
      512
 93
        0
300

 40
0.0
140
1.0
 94
        1
 62
     0
340
0
144
0.225
309
CONTENTFORMAT_END
171
     0
 94
        0
309
TABLEFORMAT_END
309
FORMATTEDTABLEDATACOLUMN_END
  1
TABLECOLUMN_BEGIN
 90
        0
 40
50.0
309
TABLECOLUMN_END
300
COLUMN
  1
LINKEDTABLEDATACOLUMN_BEGIN
300

 91
        0
301
CUSTOMDATA
  1
DATAMAP_BEGIN
 90
        0
309
DATAMAP_END
309
LINKEDTABLEDATACOLUMN_END
  1
FORMATTEDTABLEDATACOLUMN_BEGIN
300
COLUMNTABLEFORMAT
  1
TABLEFORMAT_BEGIN
 90
        3
170
     1
 91
      128
 92
        0
 62
   257
 93
        1
300
CONTENTFORMAT
  1
CONTENTFORMAT_BEGIN
 90
      128
 91
        0
 92
      512
 93
        0
300

 40
0.0
140
1.0
 94
        1
 62
     0
340
0
144
0.225
309
CONTENTFORMAT_END
171
     0
 94
        0
309
TABLEFORMAT_END
309
FORMATTEDTABLEDATACOLUMN_END
  1
TABLECOLUMN_BEGIN
 90
        0
 40
37.5
309
TABLECOLUMN_END
300
COLUMN
  1
LINKEDTABLEDATACOLUMN_BEGIN
300

 91
        0
301
CUSTOMDATA
  1
DATAMAP_BEGIN
 90
        0
309
DATAMAP_END
309
LINKEDTABLEDATACOLUMN_END
  1
FORMATTEDTABLEDATACOLUMN_BEGIN
300
COLUMNTABLEFORMAT
  1
TABLEFORMAT_BEGIN
 90
        3
170
     1
 91
      128
 92
        0
 62
   257
 93
        1
300
CONTENTFORMAT
  1
CONTENTFORMAT_BEGIN
 90
      128
 91
        0
 92
      512
 93
        0
300

 40
0.0
140
1.0
 94
        1
 62
     0
340
0
144
0.225
309
CONTENTFORMAT_END
171
     0
 94
        0
309
TABLEFORMAT_END
309
FORMATTEDTABLEDATACOLUMN_END
  1
TABLECOLUMN_BEGIN
 90
        0
 40
325.0
309
TABLECOLUMN_END
 91
        5
301
ROW
  1
LINKEDTABLEDATAROW_BEGIN
 90
        4
300
CELL
  1
LINKEDTABLEDATACELL_BEGIN
 90
        0
300

 91
        0
301
CUSTOMDATA
  1
DATAMAP_BEGIN
 90
        0
309
DATAMAP_END
 92
        0
 95
        1
302
CONTENT
  1
CELLCONTENT_BEGIN
 90
        1
300
VALUE
 93
        4
 90
        4
  1
符号
 94
        0
300

302
符号
304
ACVALUE_END
 91
        0
309
CELLCONTENT_END
  1
FORMATTEDCELLCONTENT_BEGIN
170
     1
300
CONTENTFORMAT
  1
CONTENTFORMAT_BEGIN
 90
      129
 91
        0
 92
        4
 93
        0
300

 40
0.0
140
1.0
 94
        1
 62
     0
340
0
144
7.5
309
CONTENTFORMAT_END
309
FORMATTEDCELLCONTENT_END
309
LINKEDTABLEDATACELL_END
  1
FORMATTEDTABLEDATACELL_BEGIN
300
CELLTABLEFORMAT
  1
TABLEFORMAT_BEGIN
 90
        1
170
     1
 91
   408576
 92
        0
 62
   257
 93
        1
300
CONTENTFORMAT
  1
CONTENTFORMAT_BEGIN
 90
        0
 91
        0
 92
      512
 93
        0
300

 40
0.0
140
1.0
 94
        1
 62
     0
340
0
144
0.18
309
CONTENTFORMAT_END
171
     1
301
MARGIN
  1
CELLMARGIN_BEGIN
 40
1.875
 40
1.875
 40
1.875
 40
1.875
 40
1.875
 40
1.875
309
CELLMARGIN_END
 94
        0
309
TABLEFORMAT_END
309
FORMATTEDTABLEDATACELL_END
  1
TABLECELL_BEGIN
 90
        2
 91
        0
309
TABLECELL_END
300
CELL
  1
LINKEDTABLEDATACELL_BEGIN
 90
        0
300

 91
        0
301
CUSTOMDATA
  1
DATAMAP_BEGIN
 90
        0
309
DATAMAP_END
 92
        0
 95
        1
302
CONTENT
  1
CELLCONTENT_BEGIN
 90
        1
300
VALUE
 93
        4
 90
        4
  1
日付
 94
        0
300

302
日付
304
ACVALUE_END
 91
        0
309
CELLCONTENT_END
  1
FORMATTEDCELLCONTENT_BEGIN
170
     1
300
CONTENTFORMAT
  1
CONTENTFORMAT_BEGIN
 90
      129
 91
        0
 92
        4
 93
        0
300

 40
0.0
140
1.0
 94
        1
 62
     0
340
0
144
7.5
309
CONTENTFORMAT_END
309
FORMATTEDCELLCONTENT_END
309
LINKEDTABLEDATACELL_END
  1
FORMATTEDTABLEDATACELL_BEGIN
300
CELLTABLEFORMAT
  1
TABLEFORMAT_BEGIN
 90
        1
170
     1
 91
   408576
 92
        0
 62
   257
 93
        1
300
CONTENTFORMAT
  1
CONTENTFORMAT_BEGIN
 90
        0
 91
        0
 92
      512
 93
        0
300

 40
0.0
140
1.0
 94
        1
 62
     0
340
0
144
0.18
309
CONTENTFORMAT_END
171
     1
301
MARGIN
  1
CELLMARGIN_BEGIN
 40
1.875
 40
1.875
 40
1.875
 40
1.875
 40
1.875
 40
1.875
309
CELLMARGIN_END
 94
        0
309
TABLEFORMAT_END
309
FORMATTEDTABLEDATACELL_END
  1
TABLECELL_BEGIN
 90
        2
 91
        0
309
TABLECELL_END
300
CELL
  1
LINKEDTABLEDATACELL_BEGIN
 90
        0
300

 91
        0
301
CUSTOMDATA
  1
DATAMAP_BEGIN
 90
        0
309
DATAMAP_END
 92
        0
 95
        1
302
CONTENT
  1
CELLCONTENT_BEGIN
 90
        1
300
VALUE
 93
        4
 90
        4
  1
訂正者
 94
        0
300

302
訂正者
304
ACVALUE_END
 91
        0
309
CELLCONTENT_END
  1
FORMATTEDCELLCONTENT_BEGIN
170
     1
300
CONTENTFORMAT
  1
CONTENTFORMAT_BEGIN
 90
      129
 91
        0
 92
        4
 93
        0
300

 40
0.0
140
1.0
 94
        1
 62
     0
340
0
144
7.5
309
CONTENTFORMAT_END
309
FORMATTEDCELLCONTENT_END
309
LINKEDTABLEDATACELL_END
  1
FORMATTEDTABLEDATACELL_BEGIN
300
CELLTABLEFORMAT
  1
TABLEFORMAT_BEGIN
 90
        1
170
     1
 91
   408576
 92
        0
 62
   257
 93
        1
300
CONTENTFORMAT
  1
CONTENTFORMAT_BEGIN
 90
        0
 91
        0
 92
      512
 93
        0
300

 40
0.0
140
1.0
 94
        1
 62
     0
340
0
144
0.18
309
CONTENTFORMAT_END
171
     1
301
MARGIN
  1
CELLMARGIN_BEGIN
 40
1.875
 40
1.875
 40
1.875
 40
1.875
 40
1.875
 40
1.875
309
CELLMARGIN_END
 94
        0
309
TABLEFORMAT_END
309
FORMATTEDTABLEDATACELL_END
  1
TABLECELL_BEGIN
 90
        2
 91
        0
309
TABLECELL_END
300
CELL
  1
LINKEDTABLEDATACELL_BEGIN
 90
        0
300

 91
        0
301
CUSTOMDATA
  1
DATAMAP_BEGIN
 90
        0
309
DATAMAP_END
 92
        0
 95
        1
302
CONTENT
  1
CELLCONTENT_BEGIN
 90
        1
300
VALUE
 93
        4
 90
        4
  1
訂正概要
 94
        0
300

302
訂正概要
304
ACVALUE_END
 91
        0
309
CELLCONTENT_END
  1
FORMATTEDCELLCONTENT_BEGIN
170
     1
300
CONTENTFORMAT
  1
CONTENTFORMAT_BEGIN
 90
      129
 91
        0
 92
        4
 93
        0
300

 40
0.0
140
1.0
 94
        1
 62
     0
340
0
144
7.5
309
CONTENTFORMAT_END
309
FORMATTEDCELLCONTENT_END
309
LINKEDTABLEDATACELL_END
  1
FORMATTEDTABLEDATACELL_BEGIN
300
CELLTABLEFORMAT
  1
TABLEFORMAT_BEGIN
 90
        1
170
     1
 91
   408576
 92
        0
 62
   257
 93
        1
300
CONTENTFORMAT
  1
CONTENTFORMAT_BEGIN
 90
        0
 91
        0
 92
      512
 93
        0
300

 40
0.0
140
1.0
 94
        1
 62
     0
340
0
144
0.18
309
CONTENTFORMAT_END
171
     1
301
MARGIN
  1
CELLMARGIN_BEGIN
 40
1.875
 40
1.875
 40
1.875
 40
1.875
 40
1.875
 40
1.875
309
CELLMARGIN_END
 94
        0
309
TABLEFORMAT_END
309
FORMATTEDTABLEDATACELL_END
  1
TABLECELL_BEGIN
 90
        2
 91
        0
309
TABLECELL_END
 91
        0
301
CUSTOMDATA
  1
DATAMAP_BEGIN
 90
        0
309
DATAMAP_END
309
LINKEDTABLEDATAROW_END
  1
FORMATTEDTABLEDATAROW_BEGIN
300
ROWTABLEFORMAT
  1
TABLEFORMAT_BEGIN
 90
        2
170
     1
 91
      128
 92
        0
 62
   257
 93
        1
300
CONTENTFORMAT
  1
CONTENTFORMAT_BEGIN
 90
      128
 91
        0
 92
      512
 93
        0
300

 40
0.0
140
1.0
 94
        1
 62
     0
340
0
144
7.5
309
CONTENTFORMAT_END
171
     0
 94
        0
309
TABLEFORMAT_END
309
FORMATTEDTABLEDATAROW_END
  1
TABLEROW_BEGIN
 90
        1
 40
13.75
309
TABLEROW_END
301
ROW
  1
LINKEDTABLEDATAROW_BEGIN
 90
        4
300
CELL
  1
LINKEDTABLEDATACELL_BEGIN
 90
        0
300

 91
        0
301
CUSTOMDATA
  1
DATAMAP_BEGIN
 90
        0
309
DATAMAP_END
 92
        0
 95
        3
302
CONTENT
  1
CELLCONTENT_BEGIN
 90
        1
300
VALUE
 93
        4
 90
        4
  1

 94
        0
300

302

304
ACVALUE_END
 91
        0
309
CELLCONTENT_END
  1
FORMATTEDCELLCONTENT_BEGIN
170
     1
300
CONTENTFORMAT
  1
CONTENTFORMAT_BEGIN
 90
      129
 91
        0
 92
        4
 93
        0
300

 40
0.0
140
1.0
 94
        1
 62
     0
340
0
144
7.5
309
CONTENTFORMAT_END
309
FORMATTEDCELLCONTENT_END
302
CONTENT
  1
CELLCONTENT_BEGIN
 90
        4
340
0
 91
        0
309
CELLCONTENT_END
  1
FORMATTEDCELLCONTENT_BEGIN
170
     1
300
CONTENTFORMAT
  1
CONTENTFORMAT_BEGIN
 90
        8
 91
        0
 92
      512
 93
        0
300

 40
0.0
140
1.0
 94
        1
 62
     0
340
0
144
0.18
309
CONTENTFORMAT_END
309
FORMATTEDCELLCONTENT_END
302
CONTENT
  1
CELLCONTENT_BEGIN
 90
        4
340
16AC
 91
        0
309
CELLCONTENT_END
  1
FORMATTEDCELLCONTENT_BEGIN
170
     1
300
CONTENTFORMAT
  1
CONTENTFORMAT_BEGIN
 90
      264
 91
      256
 92
      512
 93
        0
300

 40
0.0
140
1.0
 94
        1
 62
     0
340
0
144
0.18
309
CONTENTFORMAT_END
309
FORMATTEDCELLCONTENT_END
309
LINKEDTABLEDATACELL_END
  1
FORMATTEDTABLEDATACELL_BEGIN
300
CELLTABLEFORMAT
  1
TABLEFORMAT_BEGIN
 90
        1
170
     1
 91
   408592
 92
        0
 62
   257
 93
        1
300
CONTENTFORMAT
  1
CONTENTFORMAT_BEGIN
 90
       16
 91
        0
 92
      512
 93
        0
300

 40
0.0
140
1.0
 94
        5
 62
     0
340
0
144
0.18
309
CONTENTFORMAT_END
171
     1
301
MARGIN
  1
CELLMARGIN_BEGIN
 40
1.875
 40
1.875
 40
1.875
 40
1.875
 40
1.875
 40
1.875
309
CELLMARGIN_END
 94
        0
309
TABLEFORMAT_END
309
FORMATTEDTABLEDATACELL_END
  1
TABLECELL_BEGIN
 90
        3
 91
        0
309
TABLECELL_END
300
CELL
  1
LINKEDTABLEDATACELL_BEGIN
 90
        0
300

 91
        0
301
CUSTOMDATA
  1
DATAMAP_BEGIN
 90
        0
309
DATAMAP_END
 92
        0
 95
        1
302
CONTENT
  1
CELLCONTENT_BEGIN
 90
        1
300
VALUE
 93
        4
 90
        4
  1

 94
        0
300

302

304
ACVALUE_END
 91
        0
309
CELLCONTENT_END
  1
FORMATTEDCELLCONTENT_BEGIN
170
     1
300
CONTENTFORMAT
  1
CONTENTFORMAT_BEGIN
 90
      129
 91
        0
 92
        4
 93
        0
300

 40
0.0
140
1.0
 94
        1
 62
     0
340
0
144
7.5
309
CONTENTFORMAT_END
309
FORMATTEDCELLCONTENT_END
309
LINKEDTABLEDATACELL_END
  1
FORMATTEDTABLEDATACELL_BEGIN
300
CELLTABLEFORMAT
  1
TABLEFORMAT_BEGIN
 90
        1
170
     1
 91
   408592
 92
        0
 62
   257
 93
        1
300
CONTENTFORMAT
  1
CONTENTFORMAT_BEGIN
 90
       16
 91
        0
 92
      512
 93
        0
300

 40
0.0
140
1.0
 94
        5
 62
     0
340
0
144
0.18
309
CONTENTFORMAT_END
171
     1
301
MARGIN
  1
CELLMARGIN_BEGIN
 40
1.875
 40
1.875
 40
1.875
 40
1.875
 40
1.875
 40
1.875
309
CELLMARGIN_END
 94
        0
309
TABLEFORMAT_END
309
FORMATTEDTABLEDATACELL_END
  1
TABLECELL_BEGIN
 90
        3
 91
        0
309
TABLECELL_END
300
CELL
  1
LINKEDTABLEDATACELL_BEGIN
 90
        0
300

 91
        0
301
CUSTOMDATA
  1
DATAMAP_BEGIN
 90
        0
309
DATAMAP_END
 92
        0
 95
        1
302
CONTENT
  1
CELLCONTENT_BEGIN
 90
        1
300
VALUE
 93
        4
 90
        4
  1

 94
        0
300

302

304
ACVALUE_END
 91
        0
309
CELLCONTENT_END
  1
FORMATTEDCELLCONTENT_BEGIN
170
     1
300
CONTENTFORMAT
  1
CONTENTFORMAT_BEGIN
 90
      129
 91
        0
 92
        4
 93
        0
300

 40
0.0
140
1.0
 94
        1
 62
     0
340
0
144
7.5
309
CONTENTFORMAT_END
309
FORMATTEDCELLCONTENT_END
309
LINKEDTABLEDATACELL_END
  1
FORMATTEDTABLEDATACELL_BEGIN
300
CELLTABLEFORMAT
  1
TABLEFORMAT_BEGIN
 90
        1
170
     1
 91
   408592
 92
        0
 62
   257
 93
        1
300
CONTENTFORMAT
  1
CONTENTFORMAT_BEGIN
 90
       16
 91
        0
 92
      512
 93
        0
300

 40
0.0
140
1.0
 94
        5
 62
     0
340
0
144
0.18
309
CONTENTFORMAT_END
171
     1
301
MARGIN
  1
CELLMARGIN_BEGIN
 40
1.875
 40
1.875
 40
1.875
 40
1.875
 40
1.875
 40
1.875
309
CELLMARGIN_END
 94
        0
309
TABLEFORMAT_END
309
FORMATTEDTABLEDATACELL_END
  1
TABLECELL_BEGIN
 90
        3
 91
        0
309
TABLECELL_END
300
CELL
  1
LINKEDTABLEDATACELL_BEGIN
 90
        0
300

 91
        0
301
CUSTOMDATA
  1
DATAMAP_BEGIN
 90
        0
309
DATAMAP_END
 92
        0
 95
        1
302
CONTENT
  1
CELLCONTENT_BEGIN
 90
        1
300
VALUE
 93
        4
 90
        4
  1

 94
        0
300

302

304
ACVALUE_END
 91
        0
309
CELLCONTENT_END
  1
FORMATTEDCELLCONTENT_BEGIN
170
     1
300
CONTENTFORMAT
  1
CONTENTFORMAT_BEGIN
 90
      129
 91
        0
 92
        4
 93
        0
300

 40
0.0
140
1.0
 94
        1
 62
     0
340
0
144
7.5
309
CONTENTFORMAT_END
309
FORMATTEDCELLCONTENT_END
309
LINKEDTABLEDATACELL_END
  1
FORMATTEDTABLEDATACELL_BEGIN
300
CELLTABLEFORMAT
  1
TABLEFORMAT_BEGIN
 90
        1
170
     1
 91
   408592
 92
        0
 62
   257
 93
        1
300
CONTENTFORMAT
  1
CONTENTFORMAT_BEGIN
 90
       16
 91
        0
 92
      512
 93
        0
300

 40
0.0
140
1.0
 94
        4
 62
     0
340
0
144
0.18
309
CONTENTFORMAT_END
171
     1
301
MARGIN
  1
CELLMARGIN_BEGIN
 40
1.875
 40
1.875
 40
1.875
 40
1.875
 40
1.875
 40
1.875
309
CELLMARGIN_END
 94
        0
309
TABLEFORMAT_END
309
FORMATTEDTABLEDATACELL_END
  1
TABLECELL_BEGIN
 90
        3
 91
        0
309
TABLECELL_END
 91
        0
301
CUSTOMDATA
  1
DATAMAP_BEGIN
 90
        0
309
DATAMAP_END
309
LINKEDTABLEDATAROW_END
  1
FORMATTEDTABLEDATAROW_BEGIN
300
ROWTABLEFORMAT
  1
TABLEFORMAT_BEGIN
 90
        2
170
     1
 91
      128
 92
        0
 62
   257
 93
        1
300
CONTENTFORMAT
  1
CONTENTFORMAT_BEGIN
 90
      128
 91
        0
 92
      512
 93
        0
300

 40
0.0
140
1.0
 94
        1
 62
     0
340
0
144
7.5
309
CONTENTFORMAT_END
171
     0
 94
        0
309
TABLEFORMAT_END
309
FORMATTEDTABLEDATAROW_END
  1
TABLEROW_BEGIN
 90
        2
 40
13.75
309
TABLEROW_END
301
ROW
  1
LINKEDTABLEDATAROW_BEGIN
 90
        4
300
CELL
  1
LINKEDTABLEDATACELL_BEGIN
 90
        0
300

 91
        0
301
CUSTOMDATA
  1
DATAMAP_BEGIN
 90
        0
309
DATAMAP_END
 92
        0
 95
        2
302
CONTENT
  1
CELLCONTENT_BEGIN
 90
        1
300
VALUE
 93
        4
 90
        4
  1

 94
        0
300

302

304
ACVALUE_END
 91
        0
309
CELLCONTENT_END
  1
FORMATTEDCELLCONTENT_BEGIN
170
     1
300
CONTENTFORMAT
  1
CONTENTFORMAT_BEGIN
 90
      129
 91
        0
 92
        4
 93
        0
300

 40
0.0
140
1.0
 94
        1
 62
     0
340
0
144
7.5
309
CONTENTFORMAT_END
309
FORMATTEDCELLCONTENT_END
302
CONTENT
  1
CELLCONTENT_BEGIN
 90
        4
340
16B8
 91
        0
309
CELLCONTENT_END
  1
FORMATTEDCELLCONTENT_BEGIN
170
     1
300
CONTENTFORMAT
  1
CONTENTFORMAT_BEGIN
 90
      264
 91
      256
 92
      512
 93
        0
300

 40
0.0
140
1.0
 94
        1
 62
     0
340
0
144
0.18
309
CONTENTFORMAT_END
309
FORMATTEDCELLCONTENT_END
309
LINKEDTABLEDATACELL_END
  1
FORMATTEDTABLEDATACELL_BEGIN
300
CELLTABLEFORMAT
  1
TABLEFORMAT_BEGIN
 90
        1
170
     1
 91
   408592
 92
        0
 62
   257
 93
        1
300
CONTENTFORMAT
  1
CONTENTFORMAT_BEGIN
 90
       16
 91
        0
 92
      512
 93
        0
300

 40
0.0
140
1.0
 94
        5
 62
     0
340
0
144
0.18
309
CONTENTFORMAT_END
171
     1
301
MARGIN
  1
CELLMARGIN_BEGIN
 40
1.875
 40
1.875
 40
1.875
 40
1.875
 40
1.875
 40
1.875
309
CELLMARGIN_END
 94
        0
309
TABLEFORMAT_END
309
FORMATTEDTABLEDATACELL_END
  1
TABLECELL_BEGIN
 90
        3
 91
        0
309
TABLECELL_END
300
CELL
  1
LINKEDTABLEDATACELL_BEGIN
 90
        0
300

 91
        0
301
CUSTOMDATA
  1
DATAMAP_BEGIN
 90
        0
309
DATAMAP_END
 92
        0
 95
        1
302
CONTENT
  1
CELLCONTENT_BEGIN
 90
        1
300
VALUE
 93
        4
 90
        4
  1

 94
        0
300

302

304
ACVALUE_END
 91
        0
309
CELLCONTENT_END
  1
FORMATTEDCELLCONTENT_BEGIN
170
     1
300
CONTENTFORMAT
  1
CONTENTFORMAT_BEGIN
 90
      129
 91
        0
 92
        4
 93
        0
300

 40
0.0
140
1.0
 94
        1
 62
     0
340
0
144
7.5
309
CONTENTFORMAT_END
309
FORMATTEDCELLCONTENT_END
309
LINKEDTABLEDATACELL_END
  1
FORMATTEDTABLEDATACELL_BEGIN
300
CELLTABLEFORMAT
  1
TABLEFORMAT_BEGIN
 90
        1
170
     1
 91
   408592
 92
        0
 62
   257
 93
        1
300
CONTENTFORMAT
  1
CONTENTFORMAT_BEGIN
 90
       16
 91
        0
 92
      512
 93
        0
300

 40
0.0
140
1.0
 94
        5
 62
     0
340
0
144
0.18
309
CONTENTFORMAT_END
171
     1
301
MARGIN
  1
CELLMARGIN_BEGIN
 40
1.875
 40
1.875
 40
1.875
 40
1.875
 40
1.875
 40
1.875
309
CELLMARGIN_END
 94
        0
309
TABLEFORMAT_END
309
FORMATTEDTABLEDATACELL_END
  1
TABLECELL_BEGIN
 90
        3
 91
        0
309
TABLECELL_END
300
CELL
  1
LINKEDTABLEDATACELL_BEGIN
 90
        0
300

 91
        0
301
CUSTOMDATA
  1
DATAMAP_BEGIN
 90
        0
309
DATAMAP_END
 92
        0
 95
        1
302
CONTENT
  1
CELLCONTENT_BEGIN
 90
        1
300
VALUE
 93
        4
 90
        4
  1

 94
        0
300

302

304
ACVALUE_END
 91
        0
309
CELLCONTENT_END
  1
FORMATTEDCELLCONTENT_BEGIN
170
     1
300
CONTENTFORMAT
  1
CONTENTFORMAT_BEGIN
 90
      129
 91
        0
 92
        4
 93
        0
300

 40
0.0
140
1.0
 94
        1
 62
     0
340
0
144
7.5
309
CONTENTFORMAT_END
309
FORMATTEDCELLCONTENT_END
309
LINKEDTABLEDATACELL_END
  1
FORMATTEDTABLEDATACELL_BEGIN
300
CELLTABLEFORMAT
  1
TABLEFORMAT_BEGIN
 90
        1
170
     1
 91
   408592
 92
        0
 62
   257
 93
        1
300
CONTENTFORMAT
  1
CONTENTFORMAT_BEGIN
 90
       16
 91
        0
 92
      512
 93
        0
300

 40
0.0
140
1.0
 94
        5
 62
     0
340
0
144
0.18
309
CONTENTFORMAT_END
171
     1
301
MARGIN
  1
CELLMARGIN_BEGIN
 40
1.875
 40
1.875
 40
1.875
 40
1.875
 40
1.875
 40
1.875
309
CELLMARGIN_END
 94
        0
309
TABLEFORMAT_END
309
FORMATTEDTABLEDATACELL_END
  1
TABLECELL_BEGIN
 90
        3
 91
        0
309
TABLECELL_END
300
CELL
  1
LINKEDTABLEDATACELL_BEGIN
 90
        0
300

 91
        0
301
CUSTOMDATA
  1
DATAMAP_BEGIN
 90
        0
309
DATAMAP_END
 92
        0
 95
        1
302
CONTENT
  1
CELLCONTENT_BEGIN
 90
        1
300
VALUE
 93
        4
 90
        4
  1

 94
        0
300

302

304
ACVALUE_END
 91
        0
309
CELLCONTENT_END
  1
FORMATTEDCELLCONTENT_BEGIN
170
     1
300
CONTENTFORMAT
  1
CONTENTFORMAT_BEGIN
 90
      129
 91
        0
 92
        4
 93
        0
300

 40
0.0
140
1.0
 94
        1
 62
     0
340
0
144
7.5
309
CONTENTFORMAT_END
309
FORMATTEDCELLCONTENT_END
309
LINKEDTABLEDATACELL_END
  1
FORMATTEDTABLEDATACELL_BEGIN
300
CELLTABLEFORMAT
  1
TABLEFORMAT_BEGIN
 90
        1
170
     1
 91
   408592
 92
        0
 62
   257
 93
        1
300
CONTENTFORMAT
  1
CONTENTFORMAT_BEGIN
 90
       16
 91
        0
 92
      512
 93
        0
300

 40
0.0
140
1.0
 94
        4
 62
     0
340
0
144
0.18
309
CONTENTFORMAT_END
171
     1
301
MARGIN
  1
CELLMARGIN_BEGIN
 40
1.875
 40
1.875
 40
1.875
 40
1.875
 40
1.875
 40
1.875
309
CELLMARGIN_END
 94
        0
309
TABLEFORMAT_END
309
FORMATTEDTABLEDATACELL_END
  1
TABLECELL_BEGIN
 90
        3
 91
        0
309
TABLECELL_END
 91
        0
301
CUSTOMDATA
  1
DATAMAP_BEGIN
 90
        0
309
DATAMAP_END
309
LINKEDTABLEDATAROW_END
  1
FORMATTEDTABLEDATAROW_BEGIN
300
ROWTABLEFORMAT
  1
TABLEFORMAT_BEGIN
 90
        2
170
     1
 91
      128
 92
        0
 62
   257
 93
        1
300
CONTENTFORMAT
  1
CONTENTFORMAT_BEGIN
 90
      128
 91
        0
 92
      512
 93
        0
300

 40
0.0
140
1.0
 94
        1
 62
     0
340
0
144
7.5
309
CONTENTFORMAT_END
171
     0
 94
        0
309
TABLEFORMAT_END
309
FORMATTEDTABLEDATAROW_END
  1
TABLEROW_BEGIN
 90
        3
 40
13.75
309
TABLEROW_END
301
ROW
  1
LINKEDTABLEDATAROW_BEGIN
 90
        4
300
CELL
  1
LINKEDTABLEDATACELL_BEGIN
 90
        0
300

 91
        0
301
CUSTOMDATA
  1
DATAMAP_BEGIN
 90
        0
309
DATAMAP_END
 92
        0
 95
        2
302
CONTENT
  1
CELLCONTENT_BEGIN
 90
        1
300
VALUE
 93
        4
 90
        4
  1

 94
        0
300

302

304
ACVALUE_END
 91
        0
309
CELLCONTENT_END
  1
FORMATTEDCELLCONTENT_BEGIN
170
     1
300
CONTENTFORMAT
  1
CONTENTFORMAT_BEGIN
 90
      129
 91
        0
 92
        4
 93
        0
300

 40
0.0
140
1.0
 94
        1
 62
     0
340
0
144
7.5
309
CONTENTFORMAT_END
309
FORMATTEDCELLCONTENT_END
302
CONTENT
  1
CELLCONTENT_BEGIN
 90
        4
340
16C4
 91
        0
309
CELLCONTENT_END
  1
FORMATTEDCELLCONTENT_BEGIN
170
     1
300
CONTENTFORMAT
  1
CONTENTFORMAT_BEGIN
 90
      264
 91
      256
 92
      512
 93
        0
300

 40
0.0
140
1.0
 94
        1
 62
     0
340
0
144
0.18
309
CONTENTFORMAT_END
309
FORMATTEDCELLCONTENT_END
309
LINKEDTABLEDATACELL_END
  1
FORMATTEDTABLEDATACELL_BEGIN
300
CELLTABLEFORMAT
  1
TABLEFORMAT_BEGIN
 90
        1
170
     1
 91
   408592
 92
        0
 62
   257
 93
        1
300
CONTENTFORMAT
  1
CONTENTFORMAT_BEGIN
 90
       16
 91
        0
 92
      512
 93
        0
300

 40
0.0
140
1.0
 94
        5
 62
     0
340
0
144
0.18
309
CONTENTFORMAT_END
171
     1
301
MARGIN
  1
CELLMARGIN_BEGIN
 40
1.875
 40
1.875
 40
1.875
 40
1.875
 40
1.875
 40
1.875
309
CELLMARGIN_END
 94
        0
309
TABLEFORMAT_END
309
FORMATTEDTABLEDATACELL_END
  1
TABLECELL_BEGIN
 90
        3
 91
        0
309
TABLECELL_END
300
CELL
  1
LINKEDTABLEDATACELL_BEGIN
 90
        0
300

 91
        0
301
CUSTOMDATA
  1
DATAMAP_BEGIN
 90
        0
309
DATAMAP_END
 92
        0
 95
        1
302
CONTENT
  1
CELLCONTENT_BEGIN
 90
        1
300
VALUE
 93
        4
 90
        4
  1

 94
        0
300

302

304
ACVALUE_END
 91
        0
309
CELLCONTENT_END
  1
FORMATTEDCELLCONTENT_BEGIN
170
     1
300
CONTENTFORMAT
  1
CONTENTFORMAT_BEGIN
 90
      129
 91
        0
 92
        4
 93
        0
300

 40
0.0
140
1.0
 94
        1
 62
     0
340
0
144
7.5
309
CONTENTFORMAT_END
309
FORMATTEDCELLCONTENT_END
309
LINKEDTABLEDATACELL_END
  1
FORMATTEDTABLEDATACELL_BEGIN
300
CELLTABLEFORMAT
  1
TABLEFORMAT_BEGIN
 90
        1
170
     1
 91
   408592
 92
        0
 62
   257
 93
        1
300
CONTENTFORMAT
  1
CONTENTFORMAT_BEGIN
 90
       16
 91
        0
 92
      512
 93
        0
300

 40
0.0
140
1.0
 94
        5
 62
     0
340
0
144
0.18
309
CONTENTFORMAT_END
171
     1
301
MARGIN
  1
CELLMARGIN_BEGIN
 40
1.875
 40
1.875
 40
1.875
 40
1.875
 40
1.875
 40
1.875
309
CELLMARGIN_END
 94
        0
309
TABLEFORMAT_END
309
FORMATTEDTABLEDATACELL_END
  1
TABLECELL_BEGIN
 90
        3
 91
        0
309
TABLECELL_END
300
CELL
  1
LINKEDTABLEDATACELL_BEGIN
 90
        0
300

 91
        0
301
CUSTOMDATA
  1
DATAMAP_BEGIN
 90
        0
309
DATAMAP_END
 92
        0
 95
        1
302
CONTENT
  1
CELLCONTENT_BEGIN
 90
        1
300
VALUE
 93
        4
 90
        4
  1

 94
        0
300

302

304
ACVALUE_END
 91
        0
309
CELLCONTENT_END
  1
FORMATTEDCELLCONTENT_BEGIN
170
     1
300
CONTENTFORMAT
  1
CONTENTFORMAT_BEGIN
 90
      129
 91
        0
 92
        4
 93
        0
300

 40
0.0
140
1.0
 94
        1
 62
     0
340
0
144
7.5
309
CONTENTFORMAT_END
309
FORMATTEDCELLCONTENT_END
309
LINKEDTABLEDATACELL_END
  1
FORMATTEDTABLEDATACELL_BEGIN
300
CELLTABLEFORMAT
  1
TABLEFORMAT_BEGIN
 90
        1
170
     1
 91
   408592
 92
        0
 62
   257
 93
        1
300
CONTENTFORMAT
  1
CONTENTFORMAT_BEGIN
 90
       16
 91
        0
 92
      512
 93
        0
300

 40
0.0
140
1.0
 94
        5
 62
     0
340
0
144
0.18
309
CONTENTFORMAT_END
171
     1
301
MARGIN
  1
CELLMARGIN_BEGIN
 40
1.875
 40
1.875
 40
1.875
 40
1.875
 40
1.875
 40
1.875
309
CELLMARGIN_END
 94
        0
309
TABLEFORMAT_END
309
FORMATTEDTABLEDATACELL_END
  1
TABLECELL_BEGIN
 90
        3
 91
        0
309
TABLECELL_END
300
CELL
  1
LINKEDTABLEDATACELL_BEGIN
 90
        0
300

 91
        0
301
CUSTOMDATA
  1
DATAMAP_BEGIN
 90
        0
309
DATAMAP_END
 92
        0
 95
        1
302
CONTENT
  1
CELLCONTENT_BEGIN
 90
        1
300
VALUE
 93
        4
 90
        4
  1

 94
        0
300

302

304
ACVALUE_END
 91
        0
309
CELLCONTENT_END
  1
FORMATTEDCELLCONTENT_BEGIN
170
     1
300
CONTENTFORMAT
  1
CONTENTFORMAT_BEGIN
 90
      129
 91
        0
 92
        4
 93
        0
300

 40
0.0
140
1.0
 94
        1
 62
     0
340
0
144
7.5
309
CONTENTFORMAT_END
309
FORMATTEDCELLCONTENT_END
309
LINKEDTABLEDATACELL_END
  1
FORMATTEDTABLEDATACELL_BEGIN
300
CELLTABLEFORMAT
  1
TABLEFORMAT_BEGIN
 90
        1
170
     1
 91
   408592
 92
        0
 62
   257
 93
        1
300
CONTENTFORMAT
  1
CONTENTFORMAT_BEGIN
 90
       16
 91
        0
 92
      512
 93
        0
300

 40
0.0
140
1.0
 94
        4
 62
     0
340
0
144
0.18
309
CONTENTFORMAT_END
171
     1
301
MARGIN
  1
CELLMARGIN_BEGIN
 40
1.875
 40
1.875
 40
1.875
 40
1.875
 40
1.875
 40
1.875
309
CELLMARGIN_END
 94
        0
309
TABLEFORMAT_END
309
FORMATTEDTABLEDATACELL_END
  1
TABLECELL_BEGIN
 90
        3
 91
        0
309
TABLECELL_END
 91
        0
301
CUSTOMDATA
  1
DATAMAP_BEGIN
 90
        0
309
DATAMAP_END
309
LINKEDTABLEDATAROW_END
  1
FORMATTEDTABLEDATAROW_BEGIN
300
ROWTABLEFORMAT
  1
TABLEFORMAT_BEGIN
 90
        2
170
     1
 91
      128
 92
        0
 62
   257
 93
        1
300
CONTENTFORMAT
  1
CONTENTFORMAT_BEGIN
 90
      128
 91
        0
 92
      512
 93
        0
300

 40
0.0
140
1.0
 94
        1
 62
     0
340
0
144
7.5
309
CONTENTFORMAT_END
171
     0
 94
        0
309
TABLEFORMAT_END
309
FORMATTEDTABLEDATAROW_END
  1
TABLEROW_BEGIN
 90
        3
 40
13.75
309
TABLEROW_END
301
ROW
  1
LINKEDTABLEDATAROW_BEGIN
 90
        4
300
CELL
  1
LINKEDTABLEDATACELL_BEGIN
 90
        0
300

 91
        0
301
CUSTOMDATA
  1
DATAMAP_BEGIN
 90
        0
309
DATAMAP_END
 92
        0
 95
        2
302
CONTENT
  1
CELLCONTENT_BEGIN
 90
        1
300
VALUE
 93
        4
 90
        4
  1

 94
        0
300

302

304
ACVALUE_END
 91
        0
309
CELLCONTENT_END
  1
FORMATTEDCELLCONTENT_BEGIN
170
     1
300
CONTENTFORMAT
  1
CONTENTFORMAT_BEGIN
 90
      129
 91
        0
 92
        4
 93
        0
300

 40
0.0
140
1.0
 94
        1
 62
     0
340
0
144
7.5
309
CONTENTFORMAT_END
309
FORMATTEDCELLCONTENT_END
302
CONTENT
  1
CELLCONTENT_BEGIN
 90
        4
340
16D0
 91
        0
309
CELLCONTENT_END
  1
FORMATTEDCELLCONTENT_BEGIN
170
     1
300
CONTENTFORMAT
  1
CONTENTFORMAT_BEGIN
 90
      264
 91
      256
 92
      512
 93
        0
300

 40
0.0
140
1.0
 94
        1
 62
     0
340
0
144
0.18
309
CONTENTFORMAT_END
309
FORMATTEDCELLCONTENT_END
309
LINKEDTABLEDATACELL_END
  1
FORMATTEDTABLEDATACELL_BEGIN
300
CELLTABLEFORMAT
  1
TABLEFORMAT_BEGIN
 90
        1
170
     1
 91
   408592
 92
        0
 62
   257
 93
        1
300
CONTENTFORMAT
  1
CONTENTFORMAT_BEGIN
 90
       16
 91
        0
 92
      512
 93
        0
300

 40
0.0
140
1.0
 94
        5
 62
     0
340
0
144
0.18
309
CONTENTFORMAT_END
171
     1
301
MARGIN
  1
CELLMARGIN_BEGIN
 40
1.875
 40
1.875
 40
1.875
 40
1.875
 40
1.875
 40
1.875
309
CELLMARGIN_END
 94
        0
309
TABLEFORMAT_END
309
FORMATTEDTABLEDATACELL_END
  1
TABLECELL_BEGIN
 90
        3
 91
        0
309
TABLECELL_END
300
CELL
  1
LINKEDTABLEDATACELL_BEGIN
 90
        0
300

 91
        0
301
CUSTOMDATA
  1
DATAMAP_BEGIN
 90
        0
309
DATAMAP_END
 92
        0
 95
        1
302
CONTENT
  1
CELLCONTENT_BEGIN
 90
        1
300
VALUE
 93
        4
 90
        4
  1

 94
        0
300

302

304
ACVALUE_END
 91
        0
309
CELLCONTENT_END
  1
FORMATTEDCELLCONTENT_BEGIN
170
     1
300
CONTENTFORMAT
  1
CONTENTFORMAT_BEGIN
 90
      129
 91
        0
 92
        4
 93
        0
300

 40
0.0
140
1.0
 94
        1
 62
     0
340
0
144
7.5
309
CONTENTFORMAT_END
309
FORMATTEDCELLCONTENT_END
309
LINKEDTABLEDATACELL_END
  1
FORMATTEDTABLEDATACELL_BEGIN
300
CELLTABLEFORMAT
  1
TABLEFORMAT_BEGIN
 90
        1
170
     1
 91
   408592
 92
        0
 62
   257
 93
        1
300
CONTENTFORMAT
  1
CONTENTFORMAT_BEGIN
 90
       16
 91
        0
 92
      512
 93
        0
300

 40
0.0
140
1.0
 94
        5
 62
     0
340
0
144
0.18
309
CONTENTFORMAT_END
171
     1
301
MARGIN
  1
CELLMARGIN_BEGIN
 40
1.875
 40
1.875
 40
1.875
 40
1.875
 40
1.875
 40
1.875
309
CELLMARGIN_END
 94
        0
309
TABLEFORMAT_END
309
FORMATTEDTABLEDATACELL_END
  1
TABLECELL_BEGIN
 90
        3
 91
        0
309
TABLECELL_END
300
CELL
  1
LINKEDTABLEDATACELL_BEGIN
 90
        0
300

 91
        0
301
CUSTOMDATA
  1
DATAMAP_BEGIN
 90
        0
309
DATAMAP_END
 92
        0
 95
        1
302
CONTENT
  1
CELLCONTENT_BEGIN
 90
        1
300
VALUE
 93
        4
 90
        4
  1

 94
        0
300

302

304
ACVALUE_END
 91
        0
309
CELLCONTENT_END
  1
FORMATTEDCELLCONTENT_BEGIN
170
     1
300
CONTENTFORMAT
  1
CONTENTFORMAT_BEGIN
 90
      129
 91
        0
 92
        4
 93
        0
300

 40
0.0
140
1.0
 94
        1
 62
     0
340
0
144
7.5
309
CONTENTFORMAT_END
309
FORMATTEDCELLCONTENT_END
309
LINKEDTABLEDATACELL_END
  1
FORMATTEDTABLEDATACELL_BEGIN
300
CELLTABLEFORMAT
  1
TABLEFORMAT_BEGIN
 90
        1
170
     1
 91
   408592
 92
        0
 62
   257
 93
        1
300
CONTENTFORMAT
  1
CONTENTFORMAT_BEGIN
 90
       16
 91
        0
 92
      512
 93
        0
300

 40
0.0
140
1.0
 94
        5
 62
     0
340
0
144
0.18
309
CONTENTFORMAT_END
171
     1
301
MARGIN
  1
CELLMARGIN_BEGIN
 40
1.875
 40
1.875
 40
1.875
 40
1.875
 40
1.875
 40
1.875
309
CELLMARGIN_END
 94
        0
309
TABLEFORMAT_END
309
FORMATTEDTABLEDATACELL_END
  1
TABLECELL_BEGIN
 90
        3
 91
        0
309
TABLECELL_END
300
CELL
  1
LINKEDTABLEDATACELL_BEGIN
 90
        0
300

 91
        0
301
CUSTOMDATA
  1
DATAMAP_BEGIN
 90
        0
309
DATAMAP_END
 92
        0
 95
        1
302
CONTENT
  1
CELLCONTENT_BEGIN
 90
        1
300
VALUE
 93
        4
 90
        4
  1

 94
        0
300

302

304
ACVALUE_END
 91
        0
309
CELLCONTENT_END
  1
FORMATTEDCELLCONTENT_BEGIN
170
     1
300
CONTENTFORMAT
  1
CONTENTFORMAT_BEGIN
 90
      129
 91
        0
 92
        4
 93
        0
300

 40
0.0
140
1.0
 94
        1
 62
     0
340
0
144
7.5
309
CONTENTFORMAT_END
309
FORMATTEDCELLCONTENT_END
309
LINKEDTABLEDATACELL_END
  1
FORMATTEDTABLEDATACELL_BEGIN
300
CELLTABLEFORMAT
  1
TABLEFORMAT_BEGIN
 90
        1
170
     1
 91
   408592
 92
        0
 62
   257
 93
        1
300
CONTENTFORMAT
  1
CONTENTFORMAT_BEGIN
 90
       16
 91
        0
 92
      512
 93
        0
300

 40
0.0
140
1.0
 94
        4
 62
     0
340
0
144
0.18
309
CONTENTFORMAT_END
171
     1
301
MARGIN
  1
CELLMARGIN_BEGIN
 40
1.875
 40
1.875
 40
1.875
 40
1.875
 40
1.875
 40
1.875
309
CELLMARGIN_END
 94
        0
309
TABLEFORMAT_END
309
FORMATTEDTABLEDATACELL_END
  1
TABLECELL_BEGIN
 90
        3
 91
        0
309
TABLECELL_END
 91
        0
301
CUSTOMDATA
  1
DATAMAP_BEGIN
 90
        0
309
DATAMAP_END
309
LINKEDTABLEDATAROW_END
  1
FORMATTEDTABLEDATAROW_BEGIN
300
ROWTABLEFORMAT
  1
TABLEFORMAT_BEGIN
 90
        2
170
     1
 91
      128
 92
        0
 62
   257
 93
        1
300
CONTENTFORMAT
  1
CONTENTFORMAT_BEGIN
 90
      128
 91
        0
 92
      512
 93
        0
300

 40
0.0
140
1.0
 94
        1
 62
     0
340
0
144
7.5
309
CONTENTFORMAT_END
171
     0
 94
        0
309
TABLEFORMAT_END
309
FORMATTEDTABLEDATAROW_END
  1
TABLEROW_BEGIN
 90
        3
 40
13.75
309
TABLEROW_END
 92
        0
100
AcDbFormattedTableData
300
TABLEFORMAT
  1
TABLEFORMAT_BEGIN
 90
        4
170
     1
 91
   408576
 92
    65536
 62
   257
 93
        1
300
CONTENTFORMAT
  1
CONTENTFORMAT_BEGIN
 90
        0
 91
        0
 92
      512
 93
        0
300

 40
0.0
140
1.0
 94
        1
 62
     0
340
0
144
0.18
309
CONTENTFORMAT_END
171
     1
301
MARGIN
  1
CELLMARGIN_BEGIN
 40
1.875
 40
1.875
 40
1.875
 40
1.875
 40
0.075
 40
0.075
309
CELLMARGIN_END
 94
        0
309
TABLEFORMAT_END
 90
        0
100
AcDbTableContent
340
1661
  0
TABLEGEOMETRY
  5
19A0
330
19A3
100
AcDbTableGeometry
 90
        5
 91
        4
 92
       20
 93
        0
 40
0.0
 41
0.0
330
0
 94
        0
 93
        0
 40
0.0
 41
0.0
330
0
 94
        0
 93
        0
 40
0.0
 41
0.0
330
0
 94
        0
 93
        0
 40
0.0
 41
0.0
330
0
 94
        0
 93
        0
 40
0.0
 41
0.0
330
0
 94
        0
 93
        0
 40
0.0
 41
0.0
330
0
 94
        0
 93
        0
 40
0.0
 41
0.0
330
0
 94
        0
 93
        0
 40
0.0
 41
0.0
330
0
 94
        0
 93
        0
 40
0.0
 41
0.0
330
0
 94
        0
 93
        0
 40
0.0
 41
0.0
330
0
 94
        0
 93
        0
 40
0.0
 41
0.0
330
0
 94
        0
 93
        0
 40
0.0
 41
0.0
330
0
 94
        0
 93
        0
 40
0.0
 41
0.0
330
0
 94
        0
 93
        0
 40
0.0
 41
0.0
330
0
 94
        0
 93
        0
 40
0.0
 41
0.0
330
0
 94
        0
 93
        0
 40
0.0
 41
0.0
330
0
 94
        0
 93
        0
 40
0.0
 41
0.0
330
0
 94
        0
 93
        0
 40
0.0
 41
0.0
330
0
 94
        0
 93
        0
 40
0.0
 41
0.0
330
0
 94
        0
 93
        0
 40
0.0
 41
0.0
330
0
 94
        0
  0
DICTIONARY
  5
1834
102
{ACAD_REACTORS
330
1833
102
}
330
1833
100
AcDbDictionary
281
     1
  0
DICTIONARY
  5
1838
102
{ACAD_REACTORS
330
1837
102
}
330
1837
100
AcDbDictionary
281
     1
  0
DICTIONARY
  5
183C
102
{ACAD_REACTORS
330
183B
102
}
330
183B
100
AcDbDictionary
281
     1
  0
DICTIONARY
  5
1840
102
{ACAD_REACTORS
330
183F
102
}
330
183F
100
AcDbDictionary
281
     1
  0
DICTIONARY
  5
1844
102
{ACAD_REACTORS
330
1843
102
}
330
1843
100
AcDbDictionary
281
     1
  0
DICTIONARY
  5
1848
102
{ACAD_REACTORS
330
1847
102
}
330
1847
100
AcDbDictionary
281
     1
  0
DICTIONARY
  5
184D
102
{ACAD_REACTORS
330
184C
102
}
330
184C
100
AcDbDictionary
281
     1
  0
DICTIONARY
  5
1851
102
{ACAD_REACTORS
330
1850
102
}
330
1850
100
AcDbDictionary
281
     1
  0
DICTIONARY
  5
1855
102
{ACAD_REACTORS
330
1854
102
}
330
1854
100
AcDbDictionary
281
     1
  0
DICTIONARY
  5
18B0
102
{ACAD_REACTORS
330
18AF
102
}
330
18AF
100
AcDbDictionary
281
     1
  0
DICTIONARY
  5
19D8
330
1661
100
AcDbDictionary
280
     1
281
     1
  3
ACAD_ROUNDTRIP_2008_TABLESTYLE_CELLSTYLEMAP
360
19D9
  0
DICTIONARY
  5
19D6
330
15E9
100
AcDbDictionary
280
     1
281
     1
  3
ACAD_ROUNDTRIP_2008_TABLESTYLE_CELLSTYLEMAP
360
19D7
  0
DICTIONARY
  5
19AC
330
15D0
100
AcDbDictionary
280
     1
281
     1
  3
ACAD_XREC_ROUNDTRIP
360
19AD
  0
DICTIONARY
  5
19B2
330
15D3
100
AcDbDictionary
280
     1
281
     1
  3
ACAD_XREC_ROUNDTRIP
360
19B3
  0
DICTIONARY
  5
19BA
330
15D7
100
AcDbDictionary
280
     1
281
     1
  3
ACAD_XREC_ROUNDTRIP
360
19BB
  0
DICTIONARY
  5
19C2
330
15DB
100
AcDbDictionary
280
     1
281
     1
  3
ACAD_XREC_ROUNDTRIP
360
19C3
  0
DICTIONARY
  5
19B6
330
15D5
100
AcDbDictionary
280
     1
281
     1
  3
ACAD_XREC_ROUNDTRIP
360
19B7
  0
DICTIONARY
  5
19B8
330
15D6
100
AcDbDictionary
280
     1
281
     1
  3
ACAD_XREC_ROUNDTRIP
360
19B9
  0
DICTIONARY
  5
19C8
330
15DE
100
AcDbDictionary
280
     1
281
     1
  3
ACAD_XREC_ROUNDTRIP
360
19C9
  0
DICTIONARY
  5
19C0
330
15DA
100
AcDbDictionary
280
     1
281
     1
  3
ACAD_XREC_ROUNDTRIP
360
19C1
  0
DICTIONARY
  5
19A4
330
15CC
100
AcDbDictionary
280
     1
281
     1
  3
ACAD_XREC_ROUNDTRIP
360
19A5
  0
DICTIONARY
  5
19A6
330
15CD
100
AcDbDictionary
280
     1
281
     1
  3
ACAD_XREC_ROUNDTRIP
360
19A7
  0
DICTIONARY
  5
19A8
330
15CE
100
AcDbDictionary
280
     1
281
     1
  3
ACAD_XREC_ROUNDTRIP
360
19A9
  0
DICTIONARY
  5
19AA
330
15CF
100
AcDbDictionary
280
     1
281
     1
  3
ACAD_XREC_ROUNDTRIP
360
19AB
  0
DICTIONARY
  5
19B0
330
15D2
100
AcDbDictionary
280
     1
281
     1
  3
ACAD_XREC_ROUNDTRIP
360
19B1
  0
DICTIONARY
  5
19C4
330
15DC
100
AcDbDictionary
280
     1
281
     1
  3
ACAD_XREC_ROUNDTRIP
360
19C5
  0
DICTIONARY
  5
19BE
330
15D9
100
AcDbDictionary
280
     1
281
     1
  3
ACAD_XREC_ROUNDTRIP
360
19BF
  0
DICTIONARY
  5
19D4
330
15EC
100
AcDbDictionary
280
     1
281
     1
  3
ACAD_XREC_ROUNDTRIP
360
19D5
  0
DICTIONARY
  5
19C6
330
15DD
100
AcDbDictionary
280
     1
281
     1
  3
ACAD_XREC_ROUNDTRIP
360
19C7
  0
DICTIONARY
  5
19B4
330
15D4
100
AcDbDictionary
280
     1
281
     1
  3
ACAD_XREC_ROUNDTRIP
360
19B5
  0
DICTIONARY
  5
19D2
330
15E3
100
AcDbDictionary
280
     1
281
     1
  3
ACAD_XREC_ROUNDTRIP
360
19D3
  0
DICTIONARY
  5
19D0
330
15E2
100
AcDbDictionary
280
     1
281
     1
  3
ACAD_XREC_ROUNDTRIP
360
19D1
  0
DICTIONARY
  5
19CA
330
15DF
100
AcDbDictionary
280
     1
281
     1
  3
ACAD_XREC_ROUNDTRIP
360
19CB
  0
DICTIONARY
  5
19CC
330
15E0
100
AcDbDictionary
280
     1
281
     1
  3
ACAD_XREC_ROUNDTRIP
360
19CD
  0
DICTIONARY
  5
19BC
330
15D8
100
AcDbDictionary
280
     1
281
     1
  3
ACAD_XREC_ROUNDTRIP
360
19BD
  0
DICTIONARY
  5
19AE
330
15D1
100
AcDbDictionary
280
     1
281
     1
  3
ACAD_XREC_ROUNDTRIP
360
19AF
  0
DICTIONARY
  5
19CE
330
15E1
100
AcDbDictionary
280
     1
281
     1
  3
ACAD_XREC_ROUNDTRIP
360
19CF
  0
CELLSTYLEMAP
  5
19D9
102
{ACAD_REACTORS
330
19D8
102
}
330
19D8
100
AcDbCellStyleMap
 90
        3
300
CELLSTYLE
  1
TABLEFORMAT_BEGIN
 90
        5
170
     1
 91
        0
 92
    32768
 62
   257
 93
        1
300
CONTENTFORMAT
  1
CONTENTFORMAT_BEGIN
 90
        0
 91
        0
 92
        4
 93
        0
300

 40
0.0
140
1.0
 94
        5
 62
     0
340
165C
144
1.0
309
CONTENTFORMAT_END
171
     1
301
MARGIN
  1
CELLMARGIN_BEGIN
 40
1.5
 40
1.5
 40
1.5
 40
1.5
 40
1.5
 40
1.5
309
CELLMARGIN_END
 94
        6
 95
        1
302
GRIDFORMAT
  1
GRIDFORMAT_BEGIN
 90
        0
 91
        1
 62
     0
 92
       -2
340
11
 93
        0
 40
0.045
309
GRIDFORMAT_END
 95
        2
302
GRIDFORMAT
  1
GRIDFORMAT_BEGIN
 90
        0
 91
        1
 62
     0
 92
       -2
340
11
 93
        0
 40
0.045
309
GRIDFORMAT_END
 95
        4
302
GRIDFORMAT
  1
GRIDFORMAT_BEGIN
 90
        0
 91
        1
 62
     0
 92
       -2
340
11
 93
        0
 40
0.045
309
GRIDFORMAT_END
 95
        8
302
GRIDFORMAT
  1
GRIDFORMAT_BEGIN
 90
        0
 91
        1
 62
     0
 92
       -2
340
11
 93
        0
 40
0.045
309
GRIDFORMAT_END
 95
       16
302
GRIDFORMAT
  1
GRIDFORMAT_BEGIN
 90
        0
 91
        1
 62
     0
 92
       -2
340
11
 93
        0
 40
0.045
309
GRIDFORMAT_END
 95
       32
302
GRIDFORMAT
  1
GRIDFORMAT_BEGIN
 90
        0
 91
        1
 62
     0
 92
       -2
340
11
 93
        0
 40
0.045
309
GRIDFORMAT_END
309
TABLEFORMAT_END
  1
CELLSTYLE_BEGIN
 90
        1
 91
        1
300
_TITLE
309
CELLSTYLE_END
300
CELLSTYLE
  1
TABLEFORMAT_BEGIN
 90
        5
170
     1
 91
        0
 92
        0
 62
   257
 93
        1
300
CONTENTFORMAT
  1
CONTENTFORMAT_BEGIN
 90
        0
 91
        0
 92
        4
 93
        0
300

 40
0.0
140
1.0
 94
        5
 62
     0
340
165C
144
6.0
309
CONTENTFORMAT_END
171
     1
301
MARGIN
  1
CELLMARGIN_BEGIN
 40
1.5
 40
1.5
 40
1.5
 40
1.5
 40
1.5
 40
1.5
309
CELLMARGIN_END
 94
        6
 95
        1
302
GRIDFORMAT
  1
GRIDFORMAT_BEGIN
 90
        0
 91
        1
 62
     0
 92
       -2
340
11
 93
        0
 40
0.045
309
GRIDFORMAT_END
 95
        2
302
GRIDFORMAT
  1
GRIDFORMAT_BEGIN
 90
        0
 91
        1
 62
     0
 92
       -2
340
11
 93
        0
 40
0.045
309
GRIDFORMAT_END
 95
        4
302
GRIDFORMAT
  1
GRIDFORMAT_BEGIN
 90
        0
 91
        1
 62
     0
 92
       -2
340
11
 93
        0
 40
0.045
309
GRIDFORMAT_END
 95
        8
302
GRIDFORMAT
  1
GRIDFORMAT_BEGIN
 90
        0
 91
        1
 62
     0
 92
       -2
340
11
 93
        0
 40
0.045
309
GRIDFORMAT_END
 95
       16
302
GRIDFORMAT
  1
GRIDFORMAT_BEGIN
 90
        0
 91
        1
 62
     0
 92
       -2
340
11
 93
        0
 40
0.045
309
GRIDFORMAT_END
 95
       32
302
GRIDFORMAT
  1
GRIDFORMAT_BEGIN
 90
        0
 91
        1
 62
     0
 92
       -2
340
11
 93
        0
 40
0.045
309
GRIDFORMAT_END
309
TABLEFORMAT_END
  1
CELLSTYLE_BEGIN
 90
        2
 91
        1
300
_HEADER
309
CELLSTYLE_END
300
CELLSTYLE
  1
TABLEFORMAT_BEGIN
 90
        5
170
     1
 91
        0
 92
        0
 62
   257
 93
        1
300
CONTENTFORMAT
  1
CONTENTFORMAT_BEGIN
 90
        0
 91
        0
 92
        4
 93
        0
300

 40
0.0
140
1.0
 94
        2
 62
     0
340
165C
144
6.0
309
CONTENTFORMAT_END
171
     1
301
MARGIN
  1
CELLMARGIN_BEGIN
 40
1.5
 40
1.5
 40
1.5
 40
1.5
 40
1.5
 40
1.5
309
CELLMARGIN_END
 94
        6
 95
        1
302
GRIDFORMAT
  1
GRIDFORMAT_BEGIN
 90
        0
 91
        1
 62
     0
 92
       -2
340
11
 93
        0
 40
0.045
309
GRIDFORMAT_END
 95
        2
302
GRIDFORMAT
  1
GRIDFORMAT_BEGIN
 90
        0
 91
        1
 62
     0
 92
       -2
340
11
 93
        0
 40
0.045
309
GRIDFORMAT_END
 95
        4
302
GRIDFORMAT
  1
GRIDFORMAT_BEGIN
 90
        0
 91
        1
 62
     0
 92
       -2
340
11
 93
        0
 40
0.045
309
GRIDFORMAT_END
 95
        8
302
GRIDFORMAT
  1
GRIDFORMAT_BEGIN
 90
        0
 91
        1
 62
     0
 92
       -2
340
11
 93
        0
 40
0.045
309
GRIDFORMAT_END
 95
       16
302
GRIDFORMAT
  1
GRIDFORMAT_BEGIN
 90
        0
 91
        1
 62
     0
 92
       -2
340
11
 93
        0
 40
0.045
309
GRIDFORMAT_END
 95
       32
302
GRIDFORMAT
  1
GRIDFORMAT_BEGIN
 90
        0
 91
        1
 62
     0
 92
       -2
340
11
 93
        0
 40
0.045
309
GRIDFORMAT_END
309
TABLEFORMAT_END
  1
CELLSTYLE_BEGIN
 90
        3
 91
        2
300
_DATA
309
CELLSTYLE_END
  0
CELLSTYLEMAP
  5
19D7
102
{ACAD_REACTORS
330
19D6
102
}
330
19D6
100
AcDbCellStyleMap
 90
        3
300
CELLSTYLE
  1
TABLEFORMAT_BEGIN
 90
        5
170
     1
 91
        0
 92
    32768
 62
   257
 93
        1
300
CONTENTFORMAT
  1
CONTENTFORMAT_BEGIN
 90
        0
 91
        0
 92
        4
 93
        0
300

 40
0.0
140
1.0
 94
        5
 62
     0
340
17
144
0.25
309
CONTENTFORMAT_END
171
     1
301
MARGIN
  1
CELLMARGIN_BEGIN
 40
0.06
 40
0.06
 40
0.06
 40
0.06
 40
0.06
 40
0.06
309
CELLMARGIN_END
 94
        6
 95
        1
302
GRIDFORMAT
  1
GRIDFORMAT_BEGIN
 90
        0
 91
        1
 62
     0
 92
       -2
340
11
 93
        0
 40
0.045
309
GRIDFORMAT_END
 95
        2
302
GRIDFORMAT
  1
GRIDFORMAT_BEGIN
 90
        0
 91
        1
 62
     0
 92
       -2
340
11
 93
        0
 40
0.045
309
GRIDFORMAT_END
 95
        4
302
GRIDFORMAT
  1
GRIDFORMAT_BEGIN
 90
        0
 91
        1
 62
     0
 92
       -2
340
11
 93
        0
 40
0.045
309
GRIDFORMAT_END
 95
        8
302
GRIDFORMAT
  1
GRIDFORMAT_BEGIN
 90
        0
 91
        1
 62
     0
 92
       -2
340
11
 93
        0
 40
0.045
309
GRIDFORMAT_END
 95
       16
302
GRIDFORMAT
  1
GRIDFORMAT_BEGIN
 90
        0
 91
        1
 62
     0
 92
       -2
340
11
 93
        0
 40
0.045
309
GRIDFORMAT_END
 95
       32
302
GRIDFORMAT
  1
GRIDFORMAT_BEGIN
 90
        0
 91
        1
 62
     0
 92
       -2
340
11
 93
        0
 40
0.045
309
GRIDFORMAT_END
309
TABLEFORMAT_END
  1
CELLSTYLE_BEGIN
 90
        1
 91
        1
300
_TITLE
309
CELLSTYLE_END
300
CELLSTYLE
  1
TABLEFORMAT_BEGIN
 90
        5
170
     1
 91
        0
 92
        0
 62
   257
 93
        1
300
CONTENTFORMAT
  1
CONTENTFORMAT_BEGIN
 90
        0
 91
        0
 92
        4
 93
        0
300

 40
0.0
140
1.0
 94
        5
 62
     0
340
17
144
0.18
309
CONTENTFORMAT_END
171
     1
301
MARGIN
  1
CELLMARGIN_BEGIN
 40
0.06
 40
0.06
 40
0.06
 40
0.06
 40
0.06
 40
0.06
309
CELLMARGIN_END
 94
        6
 95
        1
302
GRIDFORMAT
  1
GRIDFORMAT_BEGIN
 90
        0
 91
        1
 62
     0
 92
       -2
340
11
 93
        0
 40
0.045
309
GRIDFORMAT_END
 95
        2
302
GRIDFORMAT
  1
GRIDFORMAT_BEGIN
 90
        0
 91
        1
 62
     0
 92
       -2
340
11
 93
        0
 40
0.045
309
GRIDFORMAT_END
 95
        4
302
GRIDFORMAT
  1
GRIDFORMAT_BEGIN
 90
        0
 91
        1
 62
     0
 92
       -2
340
11
 93
        0
 40
0.045
309
GRIDFORMAT_END
 95
        8
302
GRIDFORMAT
  1
GRIDFORMAT_BEGIN
 90
        0
 91
        1
 62
     0
 92
       -2
340
11
 93
        0
 40
0.045
309
GRIDFORMAT_END
 95
       16
302
GRIDFORMAT
  1
GRIDFORMAT_BEGIN
 90
        0
 91
        1
 62
     0
 92
       -2
340
11
 93
        0
 40
0.045
309
GRIDFORMAT_END
 95
       32
302
GRIDFORMAT
  1
GRIDFORMAT_BEGIN
 90
        0
 91
        1
 62
     0
 92
       -2
340
11
 93
        0
 40
0.045
309
GRIDFORMAT_END
309
TABLEFORMAT_END
  1
CELLSTYLE_BEGIN
 90
        2
 91
        1
300
_HEADER
309
CELLSTYLE_END
300
CELLSTYLE
  1
TABLEFORMAT_BEGIN
 90
        5
170
     1
 91
        0
 92
        0
 62
   257
 93
        1
300
CONTENTFORMAT
  1
CONTENTFORMAT_BEGIN
 90
        0
 91
        0
 92
        4
 93
        0
300

 40
0.0
140
1.0
 94
        2
 62
     0
340
17
144
0.18
309
CONTENTFORMAT_END
171
     1
301
MARGIN
  1
CELLMARGIN_BEGIN
 40
0.06
 40
0.06
 40
0.06
 40
0.06
 40
0.06
 40
0.06
309
CELLMARGIN_END
 94
        6
 95
        1
302
GRIDFORMAT
  1
GRIDFORMAT_BEGIN
 90
        0
 91
        1
 62
     0
 92
       -2
340
11
 93
        0
 40
0.045
309
GRIDFORMAT_END
 95
        2
302
GRIDFORMAT
  1
GRIDFORMAT_BEGIN
 90
        0
 91
        1
 62
     0
 92
       -2
340
11
 93
        0
 40
0.045
309
GRIDFORMAT_END
 95
        4
302
GRIDFORMAT
  1
GRIDFORMAT_BEGIN
 90
        0
 91
        1
 62
     0
 92
       -2
340
11
 93
        0
 40
0.045
309
GRIDFORMAT_END
 95
        8
302
GRIDFORMAT
  1
GRIDFORMAT_BEGIN
 90
        0
 91
        1
 62
     0
 92
       -2
340
11
 93
        0
 40
0.045
309
GRIDFORMAT_END
 95
       16
302
GRIDFORMAT
  1
GRIDFORMAT_BEGIN
 90
        0
 91
        1
 62
     0
 92
       -2
340
11
 93
        0
 40
0.045
309
GRIDFORMAT_END
 95
       32
302
GRIDFORMAT
  1
GRIDFORMAT_BEGIN
 90
        0
 91
        1
 62
     0
 92
       -2
340
11
 93
        0
 40
0.045
309
GRIDFORMAT_END
309
TABLEFORMAT_END
  1
CELLSTYLE_BEGIN
 90
        3
 91
        2
300
_DATA
309
CELLSTYLE_END
  0
XRECORD
  5
19AD
102
{ACAD_REACTORS
330
19AC
102
}
330
19AC
100
AcDbXrecord
280
     1
102
RTVSPost2010Prop28
280
     1
102
RTVSPost2010PropOp28
 70
     1
102
RTVSPost2010Prop29
280
     1
102
RTVSPost2010PropOp29
 70
     1
102
RTVSPost2010Prop30
280
     0
102
RTVSPost2010PropOp30
 70
     1
102
RTVSPost2010Prop31
280
     0
102
RTVSPost2010PropOp31
 70
     1
102
RTVSPost2010Prop32
280
     0
102
RTVSPost2010PropOp32
 70
     1
102
RTVSPost2010Prop33
280
     0
102
RTVSPost2010PropOp33
 70
     1
102
RTVSPost2010Prop34
280
     0
102
RTVSPost2010PropOp34
 70
     1
102
RTVSPost2010Prop35
280
     0
102
RTVSPost2010PropOp35
 70
     1
102
RTVSPost2010Prop36
280
     0
102
RTVSPost2010PropOp36
 70
     1
102
RTVSPost2010Prop37
 90
       50
102
RTVSPost2010PropOp37
 70
     1
102
RTVSPost2010Prop38
140
0.0
102
RTVSPost2010PropOp38
 70
     1
102
RTVSPost2010Prop39
140
1.0
102
RTVSPost2010PropOp39
 70
     1
102
RTVSPost2010Prop40
 90
        0
102
RTVSPost2010PropOp40
 70
     1
102
RTVSPost2010Prop41ColorIndex
 90
       18
102
RTVSPost2010Prop41ColorRGB
 90
        0
102
RTVSPost2010PropOp41
 70
     1
102
RTVSPost2010Prop42
 90
       50
102
RTVSPost2010PropOp42
 70
     1
102
RTVSPost2010Prop43
 90
        3
102
RTVSPost2010PropOp43
 70
     1
102
RTVSPost2010Prop44ColorIndex
 90
        5
102
RTVSPost2010Prop44ColorRGB
 90
      255
102
RTVSPost2010PropOp44
 70
     1
102
RTVSPost2010Prop45
280
     0
102
RTVSPost2010PropOp45
 70
     1
102
RTVSPost2010Prop46
 90
       50
102
RTVSPost2010PropOp46
 70
     1
102
RTVSPost2010Prop47
 90
       50
102
RTVSPost2010PropOp47
 70
     1
102
RTVSPost2010Prop48
 90
       50
102
RTVSPost2010PropOp48
 70
     1
102
RTVSPost2010Prop49
280
     0
102
RTVSPost2010PropOp49
 70
     1
102
RTVSPost2010Prop50
 90
       50
102
RTVSPost2010PropOp50
 70
     1
102
RTVSPost2010Prop51ColorIndex
 90
      256
102
RTVSPost2010Prop51ColorRGB
 90
-16777216
102
RTVSPost2010PropOp51
 70
     0
102
RTVSPost2010Prop52
140
1.0
102
RTVSPost2010PropOp52
 70
     0
102
RTVSPost2010Prop53
 90
        2
102
RTVSPost2010PropOp53
 70
     1
102
RTVSPost2010Prop54
  1
strokes_ogs.tif
102
RTVSPost2010PropOp54
 70
     1
102
RTVSPost2010Prop55
280
     0
102
RTVSPost2010PropOp55
 70
     1
102
RTVSPost2010Prop56
140
1.0
102
RTVSPost2010PropOp56
 70
     1
102
RTVSPost2010Prop57
140
1.0
102
RTVSPost2010PropOp57
 70
     1
  0
XRECORD
  5
19B3
102
{ACAD_REACTORS
330
19B2
102
}
330
19B2
100
AcDbXrecord
280
     1
102
RTVSPost2010Prop28
280
     0
102
RTVSPost2010PropOp28
 70
     1
102
RTVSPost2010Prop29
280
     1
102
RTVSPost2010PropOp29
 70
     1
102
RTVSPost2010Prop30
280
     1
102
RTVSPost2010PropOp30
 70
     1
102
RTVSPost2010Prop31
280
     0
102
RTVSPost2010PropOp31
 70
     1
102
RTVSPost2010Prop32
280
     0
102
RTVSPost2010PropOp32
 70
     1
102
RTVSPost2010Prop33
280
     0
102
RTVSPost2010PropOp33
 70
     1
102
RTVSPost2010Prop34
280
     0
102
RTVSPost2010PropOp34
 70
     1
102
RTVSPost2010Prop35
280
     0
102
RTVSPost2010PropOp35
 70
     1
102
RTVSPost2010Prop36
280
     0
102
RTVSPost2010PropOp36
 70
     1
102
RTVSPost2010Prop37
 90
       50
102
RTVSPost2010PropOp37
 70
     1
102
RTVSPost2010Prop38
140
0.0
102
RTVSPost2010PropOp38
 70
     1
102
RTVSPost2010Prop39
140
1.0
102
RTVSPost2010PropOp39
 70
     1
102
RTVSPost2010Prop40
 90
        0
102
RTVSPost2010PropOp40
 70
     1
102
RTVSPost2010Prop41ColorIndex
 90
       18
102
RTVSPost2010Prop41ColorRGB
 90
        0
102
RTVSPost2010PropOp41
 70
     1
102
RTVSPost2010Prop42
 90
       50
102
RTVSPost2010PropOp42
 70
     1
102
RTVSPost2010Prop43
 90
        3
102
RTVSPost2010PropOp43
 70
     1
102
RTVSPost2010Prop44ColorIndex
 90
        5
102
RTVSPost2010Prop44ColorRGB
 90
      255
102
RTVSPost2010PropOp44
 70
     1
102
RTVSPost2010Prop45
280
     0
102
RTVSPost2010PropOp45
 70
     1
102
RTVSPost2010Prop46
 90
       50
102
RTVSPost2010PropOp46
 70
     1
102
RTVSPost2010Prop47
 90
       50
102
RTVSPost2010PropOp47
 70
     1
102
RTVSPost2010Prop48
 90
       50
102
RTVSPost2010PropOp48
 70
     1
102
RTVSPost2010Prop49
280
     0
102
RTVSPost2010PropOp49
 70
     1
102
RTVSPost2010Prop50
 90
       50
102
RTVSPost2010PropOp50
 70
     1
102
RTVSPost2010Prop51ColorIndex
 90
      256
102
RTVSPost2010Prop51ColorRGB
 90
-16777216
102
RTVSPost2010PropOp51
 70
     0
102
RTVSPost2010Prop52
140
1.0
102
RTVSPost2010PropOp52
 70
     0
102
RTVSPost2010Prop53
 90
        2
102
RTVSPost2010PropOp53
 70
     1
102
RTVSPost2010Prop54
  1
strokes_ogs.tif
102
RTVSPost2010PropOp54
 70
     1
102
RTVSPost2010Prop55
280
     0
102
RTVSPost2010PropOp55
 70
     1
102
RTVSPost2010Prop56
140
1.0
102
RTVSPost2010PropOp56
 70
     1
102
RTVSPost2010Prop57
140
1.0
102
RTVSPost2010PropOp57
 70
     1
  0
XRECORD
  5
19BB
102
{ACAD_REACTORS
330
19BA
102
}
330
19BA
100
AcDbXrecord
280
     1
102
RTVSPost2010Prop28
280
     0
102
RTVSPost2010PropOp28
 70
     1
102
RTVSPost2010Prop29
280
     1
102
RTVSPost2010PropOp29
 70
     1
102
RTVSPost2010Prop30
280
     1
102
RTVSPost2010PropOp30
 70
     1
102
RTVSPost2010Prop31
280
     0
102
RTVSPost2010PropOp31
 70
     1
102
RTVSPost2010Prop32
280
     0
102
RTVSPost2010PropOp32
 70
     1
102
RTVSPost2010Prop33
280
     0
102
RTVSPost2010PropOp33
 70
     1
102
RTVSPost2010Prop34
280
     0
102
RTVSPost2010PropOp34
 70
     1
102
RTVSPost2010Prop35
280
     0
102
RTVSPost2010PropOp35
 70
     1
102
RTVSPost2010Prop36
280
     0
102
RTVSPost2010PropOp36
 70
     1
102
RTVSPost2010Prop37
 90
       50
102
RTVSPost2010PropOp37
 70
     1
102
RTVSPost2010Prop38
140
0.0
102
RTVSPost2010PropOp38
 70
     1
102
RTVSPost2010Prop39
140
1.0
102
RTVSPost2010PropOp39
 70
     1
102
RTVSPost2010Prop40
 90
        0
102
RTVSPost2010PropOp40
 70
     1
102
RTVSPost2010Prop41ColorIndex
 90
       18
102
RTVSPost2010Prop41ColorRGB
 90
        0
102
RTVSPost2010PropOp41
 70
     1
102
RTVSPost2010Prop42
 90
       50
102
RTVSPost2010PropOp42
 70
     1
102
RTVSPost2010Prop43
 90
        3
102
RTVSPost2010PropOp43
 70
     1
102
RTVSPost2010Prop44ColorIndex
 90
        5
102
RTVSPost2010Prop44ColorRGB
 90
      255
102
RTVSPost2010PropOp44
 70
     1
102
RTVSPost2010Prop45
280
     0
102
RTVSPost2010PropOp45
 70
     1
102
RTVSPost2010Prop46
 90
       50
102
RTVSPost2010PropOp46
 70
     1
102
RTVSPost2010Prop47
 90
       50
102
RTVSPost2010PropOp47
 70
     1
102
RTVSPost2010Prop48
 90
       50
102
RTVSPost2010PropOp48
 70
     1
102
RTVSPost2010Prop49
280
     0
102
RTVSPost2010PropOp49
 70
     1
102
RTVSPost2010Prop50
 90
       50
102
RTVSPost2010PropOp50
 70
     1
102
RTVSPost2010Prop51ColorIndex
 90
      256
102
RTVSPost2010Prop51ColorRGB
 90
-16777216
102
RTVSPost2010PropOp51
 70
     0
102
RTVSPost2010Prop52
140
1.0
102
RTVSPost2010PropOp52
 70
     0
102
RTVSPost2010Prop53
 90
        2
102
RTVSPost2010PropOp53
 70
     1
102
RTVSPost2010Prop54
  1
strokes_ogs.tif
102
RTVSPost2010PropOp54
 70
     1
102
RTVSPost2010Prop55
280
     0
102
RTVSPost2010PropOp55
 70
     1
102
RTVSPost2010Prop56
140
1.0
102
RTVSPost2010PropOp56
 70
     1
102
RTVSPost2010Prop57
140
1.0
102
RTVSPost2010PropOp57
 70
     1
  0
XRECORD
  5
19C3
102
{ACAD_REACTORS
330
19C2
102
}
330
19C2
100
AcDbXrecord
280
     1
102
RTVSPost2010Prop28
280
     0
102
RTVSPost2010PropOp28
 70
     1
102
RTVSPost2010Prop29
280
     1
102
RTVSPost2010PropOp29
 70
     1
102
RTVSPost2010Prop30
280
     1
102
RTVSPost2010PropOp30
 70
     1
102
RTVSPost2010Prop31
280
     0
102
RTVSPost2010PropOp31
 70
     1
102
RTVSPost2010Prop32
280
     0
102
RTVSPost2010PropOp32
 70
     1
102
RTVSPost2010Prop33
280
     0
102
RTVSPost2010PropOp33
 70
     1
102
RTVSPost2010Prop34
280
     0
102
RTVSPost2010PropOp34
 70
     1
102
RTVSPost2010Prop35
280
     0
102
RTVSPost2010PropOp35
 70
     1
102
RTVSPost2010Prop36
280
     0
102
RTVSPost2010PropOp36
 70
     1
102
RTVSPost2010Prop37
 90
       50
102
RTVSPost2010PropOp37
 70
     1
102
RTVSPost2010Prop38
140
0.0
102
RTVSPost2010PropOp38
 70
     1
102
RTVSPost2010Prop39
140
1.0
102
RTVSPost2010PropOp39
 70
     1
102
RTVSPost2010Prop40
 90
        0
102
RTVSPost2010PropOp40
 70
     1
102
RTVSPost2010Prop41ColorIndex
 90
       18
102
RTVSPost2010Prop41ColorRGB
 90
        0
102
RTVSPost2010PropOp41
 70
     1
102
RTVSPost2010Prop42
 90
       50
102
RTVSPost2010PropOp42
 70
     1
102
RTVSPost2010Prop43
 90
        3
102
RTVSPost2010PropOp43
 70
     1
102
RTVSPost2010Prop44ColorIndex
 90
        5
102
RTVSPost2010Prop44ColorRGB
 90
      255
102
RTVSPost2010PropOp44
 70
     1
102
RTVSPost2010Prop45
280
     0
102
RTVSPost2010PropOp45
 70
     1
102
RTVSPost2010Prop46
 90
       50
102
RTVSPost2010PropOp46
 70
     1
102
RTVSPost2010Prop47
 90
       50
102
RTVSPost2010PropOp47
 70
     1
102
RTVSPost2010Prop48
 90
       50
102
RTVSPost2010PropOp48
 70
     1
102
RTVSPost2010Prop49
280
     0
102
RTVSPost2010PropOp49
 70
     1
102
RTVSPost2010Prop50
 90
       50
102
RTVSPost2010PropOp50
 70
     1
102
RTVSPost2010Prop51ColorIndex
 90
      256
102
RTVSPost2010Prop51ColorRGB
 90
-16777216
102
RTVSPost2010PropOp51
 70
     0
102
RTVSPost2010Prop52
140
1.0
102
RTVSPost2010PropOp52
 70
     0
102
RTVSPost2010Prop53
 90
        2
102
RTVSPost2010PropOp53
 70
     1
102
RTVSPost2010Prop54
  1
strokes_ogs.tif
102
RTVSPost2010PropOp54
 70
     1
102
RTVSPost2010Prop55
280
     0
102
RTVSPost2010PropOp55
 70
     1
102
RTVSPost2010Prop56
140
1.0
102
RTVSPost2010PropOp56
 70
     1
102
RTVSPost2010Prop57
140
1.0
102
RTVSPost2010PropOp57
 70
     1
  0
XRECORD
  5
19B7
102
{ACAD_REACTORS
330
19B6
102
}
330
19B6
100
AcDbXrecord
280
     1
102
RTVSPost2010Prop28
280
     0
102
RTVSPost2010PropOp28
 70
     1
102
RTVSPost2010Prop29
280
     1
102
RTVSPost2010PropOp29
 70
     1
102
RTVSPost2010Prop30
280
     1
102
RTVSPost2010PropOp30
 70
     1
102
RTVSPost2010Prop31
280
     0
102
RTVSPost2010PropOp31
 70
     1
102
RTVSPost2010Prop32
280
     0
102
RTVSPost2010PropOp32
 70
     1
102
RTVSPost2010Prop33
280
     0
102
RTVSPost2010PropOp33
 70
     1
102
RTVSPost2010Prop34
280
     0
102
RTVSPost2010PropOp34
 70
     1
102
RTVSPost2010Prop35
280
     0
102
RTVSPost2010PropOp35
 70
     1
102
RTVSPost2010Prop36
280
     0
102
RTVSPost2010PropOp36
 70
     1
102
RTVSPost2010Prop37
 90
       50
102
RTVSPost2010PropOp37
 70
     1
102
RTVSPost2010Prop38
140
0.0
102
RTVSPost2010PropOp38
 70
     1
102
RTVSPost2010Prop39
140
1.0
102
RTVSPost2010PropOp39
 70
     1
102
RTVSPost2010Prop40
 90
        0
102
RTVSPost2010PropOp40
 70
     1
102
RTVSPost2010Prop41ColorIndex
 90
       18
102
RTVSPost2010Prop41ColorRGB
 90
        0
102
RTVSPost2010PropOp41
 70
     1
102
RTVSPost2010Prop42
 90
       50
102
RTVSPost2010PropOp42
 70
     1
102
RTVSPost2010Prop43
 90
        3
102
RTVSPost2010PropOp43
 70
     1
102
RTVSPost2010Prop44ColorIndex
 90
        5
102
RTVSPost2010Prop44ColorRGB
 90
      255
102
RTVSPost2010PropOp44
 70
     1
102
RTVSPost2010Prop45
280
     0
102
RTVSPost2010PropOp45
 70
     1
102
RTVSPost2010Prop46
 90
       50
102
RTVSPost2010PropOp46
 70
     1
102
RTVSPost2010Prop47
 90
       50
102
RTVSPost2010PropOp47
 70
     1
102
RTVSPost2010Prop48
 90
       50
102
RTVSPost2010PropOp48
 70
     1
102
RTVSPost2010Prop49
280
     0
102
RTVSPost2010PropOp49
 70
     1
102
RTVSPost2010Prop50
 90
       50
102
RTVSPost2010PropOp50
 70
     1
102
RTVSPost2010Prop51ColorIndex
 90
      256
102
RTVSPost2010Prop51ColorRGB
 90
-16777216
102
RTVSPost2010PropOp51
 70
     0
102
RTVSPost2010Prop52
140
1.0
102
RTVSPost2010PropOp52
 70
     0
102
RTVSPost2010Prop53
 90
        2
102
RTVSPost2010PropOp53
 70
     1
102
RTVSPost2010Prop54
  1
strokes_ogs.tif
102
RTVSPost2010PropOp54
 70
     1
102
RTVSPost2010Prop55
280
     0
102
RTVSPost2010PropOp55
 70
     1
102
RTVSPost2010Prop56
140
1.0
102
RTVSPost2010PropOp56
 70
     1
102
RTVSPost2010Prop57
140
1.0
102
RTVSPost2010PropOp57
 70
     1
  0
XRECORD
  5
19B9
102
{ACAD_REACTORS
330
19B8
102
}
330
19B8
100
AcDbXrecord
280
     1
102
RTVSPost2010Prop28
280
     0
102
RTVSPost2010PropOp28
 70
     1
102
RTVSPost2010Prop29
280
     1
102
RTVSPost2010PropOp29
 70
     1
102
RTVSPost2010Prop30
280
     1
102
RTVSPost2010PropOp30
 70
     1
102
RTVSPost2010Prop31
280
     0
102
RTVSPost2010PropOp31
 70
     1
102
RTVSPost2010Prop32
280
     0
102
RTVSPost2010PropOp32
 70
     1
102
RTVSPost2010Prop33
280
     0
102
RTVSPost2010PropOp33
 70
     1
102
RTVSPost2010Prop34
280
     0
102
RTVSPost2010PropOp34
 70
     1
102
RTVSPost2010Prop35
280
     0
102
RTVSPost2010PropOp35
 70
     1
102
RTVSPost2010Prop36
280
     0
102
RTVSPost2010PropOp36
 70
     1
102
RTVSPost2010Prop37
 90
       50
102
RTVSPost2010PropOp37
 70
     1
102
RTVSPost2010Prop38
140
0.0
102
RTVSPost2010PropOp38
 70
     1
102
RTVSPost2010Prop39
140
1.0
102
RTVSPost2010PropOp39
 70
     1
102
RTVSPost2010Prop40
 90
        0
102
RTVSPost2010PropOp40
 70
     1
102
RTVSPost2010Prop41ColorIndex
 90
       18
102
RTVSPost2010Prop41ColorRGB
 90
        0
102
RTVSPost2010PropOp41
 70
     1
102
RTVSPost2010Prop42
 90
       50
102
RTVSPost2010PropOp42
 70
     1
102
RTVSPost2010Prop43
 90
        3
102
RTVSPost2010PropOp43
 70
     1
102
RTVSPost2010Prop44ColorIndex
 90
        5
102
RTVSPost2010Prop44ColorRGB
 90
      255
102
RTVSPost2010PropOp44
 70
     1
102
RTVSPost2010Prop45
280
     0
102
RTVSPost2010PropOp45
 70
     1
102
RTVSPost2010Prop46
 90
       50
102
RTVSPost2010PropOp46
 70
     1
102
RTVSPost2010Prop47
 90
       50
102
RTVSPost2010PropOp47
 70
     1
102
RTVSPost2010Prop48
 90
       50
102
RTVSPost2010PropOp48
 70
     1
102
RTVSPost2010Prop49
280
     0
102
RTVSPost2010PropOp49
 70
     1
102
RTVSPost2010Prop50
 90
       50
102
RTVSPost2010PropOp50
 70
     1
102
RTVSPost2010Prop51ColorIndex
 90
      256
102
RTVSPost2010Prop51ColorRGB
 90
-16777216
102
RTVSPost2010PropOp51
 70
     0
102
RTVSPost2010Prop52
140
1.0
102
RTVSPost2010PropOp52
 70
     0
102
RTVSPost2010Prop53
 90
        2
102
RTVSPost2010PropOp53
 70
     1
102
RTVSPost2010Prop54
  1
strokes_ogs.tif
102
RTVSPost2010PropOp54
 70
     1
102
RTVSPost2010Prop55
280
     0
102
RTVSPost2010PropOp55
 70
     1
102
RTVSPost2010Prop56
140
1.0
102
RTVSPost2010PropOp56
 70
     1
102
RTVSPost2010Prop57
140
1.0
102
RTVSPost2010PropOp57
 70
     1
  0
XRECORD
  5
19C9
102
{ACAD_REACTORS
330
19C8
102
}
330
19C8
100
AcDbXrecord
280
     1
102
RTVSPost2010Prop28
280
     0
102
RTVSPost2010PropOp28
 70
     0
102
RTVSPost2010Prop29
280
     1
102
RTVSPost2010PropOp29
 70
     0
102
RTVSPost2010Prop30
280
     1
102
RTVSPost2010PropOp30
 70
     0
102
RTVSPost2010Prop31
280
     0
102
RTVSPost2010PropOp31
 70
     0
102
RTVSPost2010Prop32
280
     0
102
RTVSPost2010PropOp32
 70
     0
102
RTVSPost2010Prop33
280
     0
102
RTVSPost2010PropOp33
 70
     0
102
RTVSPost2010Prop34
280
     0
102
RTVSPost2010PropOp34
 70
     0
102
RTVSPost2010Prop35
280
     0
102
RTVSPost2010PropOp35
 70
     0
102
RTVSPost2010Prop36
280
     0
102
RTVSPost2010PropOp36
 70
     0
102
RTVSPost2010Prop37
 90
       50
102
RTVSPost2010PropOp37
 70
     0
102
RTVSPost2010Prop38
140
0.0
102
RTVSPost2010PropOp38
 70
     0
102
RTVSPost2010Prop39
140
1.0
102
RTVSPost2010PropOp39
 70
     0
102
RTVSPost2010Prop40
 90
        0
102
RTVSPost2010PropOp40
 70
     0
102
RTVSPost2010Prop41ColorIndex
 90
       18
102
RTVSPost2010Prop41ColorRGB
 90
        0
102
RTVSPost2010PropOp41
 70
     0
102
RTVSPost2010Prop42
 90
       50
102
RTVSPost2010PropOp42
 70
     0
102
RTVSPost2010Prop43
 90
        3
102
RTVSPost2010PropOp43
 70
     0
102
RTVSPost2010Prop44ColorIndex
 90
        5
102
RTVSPost2010Prop44ColorRGB
 90
      255
102
RTVSPost2010PropOp44
 70
     0
102
RTVSPost2010Prop45
280
     0
102
RTVSPost2010PropOp45
 70
     0
102
RTVSPost2010Prop46
 90
       50
102
RTVSPost2010PropOp46
 70
     0
102
RTVSPost2010Prop47
 90
       50
102
RTVSPost2010PropOp47
 70
     0
102
RTVSPost2010Prop48
 90
       50
102
RTVSPost2010PropOp48
 70
     0
102
RTVSPost2010Prop49
280
     0
102
RTVSPost2010PropOp49
 70
     0
102
RTVSPost2010Prop50
 90
       50
102
RTVSPost2010PropOp50
 70
     0
102
RTVSPost2010Prop51ColorIndex
 90
      256
102
RTVSPost2010Prop51ColorRGB
 90
-16777216
102
RTVSPost2010PropOp51
 70
     0
102
RTVSPost2010Prop52
140
1.0
102
RTVSPost2010PropOp52
 70
     0
102
RTVSPost2010Prop53
 90
        2
102
RTVSPost2010PropOp53
 70
     0
102
RTVSPost2010Prop54
  1
strokes_ogs.tif
102
RTVSPost2010PropOp54
 70
     0
102
RTVSPost2010Prop55
280
     0
102
RTVSPost2010PropOp55
 70
     0
102
RTVSPost2010Prop56
140
1.0
102
RTVSPost2010PropOp56
 70
     0
102
RTVSPost2010Prop57
140
1.0
102
RTVSPost2010PropOp57
 70
     0
  0
XRECORD
  5
19C1
102
{ACAD_REACTORS
330
19C0
102
}
330
19C0
100
AcDbXrecord
280
     1
102
RTVSPost2010Prop28
280
     0
102
RTVSPost2010PropOp28
 70
     1
102
RTVSPost2010Prop29
280
     1
102
RTVSPost2010PropOp29
 70
     1
102
RTVSPost2010Prop30
280
     1
102
RTVSPost2010PropOp30
 70
     1
102
RTVSPost2010Prop31
280
     0
102
RTVSPost2010PropOp31
 70
     1
102
RTVSPost2010Prop32
280
     0
102
RTVSPost2010PropOp32
 70
     1
102
RTVSPost2010Prop33
280
     0
102
RTVSPost2010PropOp33
 70
     1
102
RTVSPost2010Prop34
280
     0
102
RTVSPost2010PropOp34
 70
     1
102
RTVSPost2010Prop35
280
     0
102
RTVSPost2010PropOp35
 70
     1
102
RTVSPost2010Prop36
280
     0
102
RTVSPost2010PropOp36
 70
     1
102
RTVSPost2010Prop37
 90
       50
102
RTVSPost2010PropOp37
 70
     1
102
RTVSPost2010Prop38
140
0.0
102
RTVSPost2010PropOp38
 70
     1
102
RTVSPost2010Prop39
140
1.0
102
RTVSPost2010PropOp39
 70
     1
102
RTVSPost2010Prop40
 90
        0
102
RTVSPost2010PropOp40
 70
     1
102
RTVSPost2010Prop41ColorIndex
 90
       18
102
RTVSPost2010Prop41ColorRGB
 90
        0
102
RTVSPost2010PropOp41
 70
     1
102
RTVSPost2010Prop42
 90
       50
102
RTVSPost2010PropOp42
 70
     1
102
RTVSPost2010Prop43
 90
        3
102
RTVSPost2010PropOp43
 70
     1
102
RTVSPost2010Prop44ColorIndex
 90
        5
102
RTVSPost2010Prop44ColorRGB
 90
      255
102
RTVSPost2010PropOp44
 70
     1
102
RTVSPost2010Prop45
280
     0
102
RTVSPost2010PropOp45
 70
     1
102
RTVSPost2010Prop46
 90
       50
102
RTVSPost2010PropOp46
 70
     1
102
RTVSPost2010Prop47
 90
       50
102
RTVSPost2010PropOp47
 70
     1
102
RTVSPost2010Prop48
 90
       50
102
RTVSPost2010PropOp48
 70
     1
102
RTVSPost2010Prop49
280
     0
102
RTVSPost2010PropOp49
 70
     1
102
RTVSPost2010Prop50
 90
       50
102
RTVSPost2010PropOp50
 70
     1
102
RTVSPost2010Prop51ColorIndex
 90
      256
102
RTVSPost2010Prop51ColorRGB
 90
-16777216
102
RTVSPost2010PropOp51
 70
     0
102
RTVSPost2010Prop52
140
1.0
102
RTVSPost2010PropOp52
 70
     0
102
RTVSPost2010Prop53
 90
        2
102
RTVSPost2010PropOp53
 70
     1
102
RTVSPost2010Prop54
  1
strokes_ogs.tif
102
RTVSPost2010PropOp54
 70
     1
102
RTVSPost2010Prop55
280
     0
102
RTVSPost2010PropOp55
 70
     1
102
RTVSPost2010Prop56
140
1.0
102
RTVSPost2010PropOp56
 70
     1
102
RTVSPost2010Prop57
140
1.0
102
RTVSPost2010PropOp57
 70
     1
  0
XRECORD
  5
19A5
102
{ACAD_REACTORS
330
19A4
102
}
330
19A4
100
AcDbXrecord
280
     1
102
RTVSPost2010Prop28
280
     0
102
RTVSPost2010PropOp28
 70
     1
102
RTVSPost2010Prop29
280
     1
102
RTVSPost2010PropOp29
 70
     1
102
RTVSPost2010Prop30
280
     1
102
RTVSPost2010PropOp30
 70
     1
102
RTVSPost2010Prop31
280
     0
102
RTVSPost2010PropOp31
 70
     1
102
RTVSPost2010Prop32
280
     0
102
RTVSPost2010PropOp32
 70
     1
102
RTVSPost2010Prop33
280
     0
102
RTVSPost2010PropOp33
 70
     1
102
RTVSPost2010Prop34
280
     0
102
RTVSPost2010PropOp34
 70
     1
102
RTVSPost2010Prop35
280
     0
102
RTVSPost2010PropOp35
 70
     1
102
RTVSPost2010Prop36
280
     0
102
RTVSPost2010PropOp36
 70
     1
102
RTVSPost2010Prop37
 90
       50
102
RTVSPost2010PropOp37
 70
     1
102
RTVSPost2010Prop38
140
0.0
102
RTVSPost2010PropOp38
 70
     1
102
RTVSPost2010Prop39
140
1.0
102
RTVSPost2010PropOp39
 70
     1
102
RTVSPost2010Prop40
 90
        0
102
RTVSPost2010PropOp40
 70
     1
102
RTVSPost2010Prop41ColorIndex
 90
       18
102
RTVSPost2010Prop41ColorRGB
 90
        0
102
RTVSPost2010PropOp41
 70
     1
102
RTVSPost2010Prop42
 90
       50
102
RTVSPost2010PropOp42
 70
     1
102
RTVSPost2010Prop43
 90
        3
102
RTVSPost2010PropOp43
 70
     1
102
RTVSPost2010Prop44ColorIndex
 90
        5
102
RTVSPost2010Prop44ColorRGB
 90
      255
102
RTVSPost2010PropOp44
 70
     1
102
RTVSPost2010Prop45
280
     0
102
RTVSPost2010PropOp45
 70
     1
102
RTVSPost2010Prop46
 90
       50
102
RTVSPost2010PropOp46
 70
     1
102
RTVSPost2010Prop47
 90
       50
102
RTVSPost2010PropOp47
 70
     1
102
RTVSPost2010Prop48
 90
       50
102
RTVSPost2010PropOp48
 70
     1
102
RTVSPost2010Prop49
280
     0
102
RTVSPost2010PropOp49
 70
     1
102
RTVSPost2010Prop50
 90
       50
102
RTVSPost2010PropOp50
 70
     1
102
RTVSPost2010Prop51ColorIndex
 90
      256
102
RTVSPost2010Prop51ColorRGB
 90
-16777216
102
RTVSPost2010PropOp51
 70
     0
102
RTVSPost2010Prop52
140
1.0
102
RTVSPost2010PropOp52
 70
     0
102
RTVSPost2010Prop53
 90
        2
102
RTVSPost2010PropOp53
 70
     1
102
RTVSPost2010Prop54
  1
strokes_ogs.tif
102
RTVSPost2010PropOp54
 70
     1
102
RTVSPost2010Prop55
280
     0
102
RTVSPost2010PropOp55
 70
     1
102
RTVSPost2010Prop56
140
1.0
102
RTVSPost2010PropOp56
 70
     1
102
RTVSPost2010Prop57
140
1.0
102
RTVSPost2010PropOp57
 70
     1
  0
XRECORD
  5
19A7
102
{ACAD_REACTORS
330
19A6
102
}
330
19A6
100
AcDbXrecord
280
     1
102
RTVSPost2010Prop28
280
     0
102
RTVSPost2010PropOp28
 70
     1
102
RTVSPost2010Prop29
280
     1
102
RTVSPost2010PropOp29
 70
     1
102
RTVSPost2010Prop30
280
     1
102
RTVSPost2010PropOp30
 70
     1
102
RTVSPost2010Prop31
280
     0
102
RTVSPost2010PropOp31
 70
     1
102
RTVSPost2010Prop32
280
     0
102
RTVSPost2010PropOp32
 70
     1
102
RTVSPost2010Prop33
280
     0
102
RTVSPost2010PropOp33
 70
     1
102
RTVSPost2010Prop34
280
     0
102
RTVSPost2010PropOp34
 70
     1
102
RTVSPost2010Prop35
280
     0
102
RTVSPost2010PropOp35
 70
     1
102
RTVSPost2010Prop36
280
     0
102
RTVSPost2010PropOp36
 70
     1
102
RTVSPost2010Prop37
 90
       50
102
RTVSPost2010PropOp37
 70
     1
102
RTVSPost2010Prop38
140
0.0
102
RTVSPost2010PropOp38
 70
     1
102
RTVSPost2010Prop39
140
1.0
102
RTVSPost2010PropOp39
 70
     1
102
RTVSPost2010Prop40
 90
        0
102
RTVSPost2010PropOp40
 70
     1
102
RTVSPost2010Prop41ColorIndex
 90
       18
102
RTVSPost2010Prop41ColorRGB
 90
        0
102
RTVSPost2010PropOp41
 70
     1
102
RTVSPost2010Prop42
 90
       50
102
RTVSPost2010PropOp42
 70
     1
102
RTVSPost2010Prop43
 90
        3
102
RTVSPost2010PropOp43
 70
     1
102
RTVSPost2010Prop44ColorIndex
 90
        5
102
RTVSPost2010Prop44ColorRGB
 90
      255
102
RTVSPost2010PropOp44
 70
     1
102
RTVSPost2010Prop45
280
     0
102
RTVSPost2010PropOp45
 70
     1
102
RTVSPost2010Prop46
 90
       50
102
RTVSPost2010PropOp46
 70
     1
102
RTVSPost2010Prop47
 90
       50
102
RTVSPost2010PropOp47
 70
     1
102
RTVSPost2010Prop48
 90
       50
102
RTVSPost2010PropOp48
 70
     1
102
RTVSPost2010Prop49
280
     0
102
RTVSPost2010PropOp49
 70
     1
102
RTVSPost2010Prop50
 90
       50
102
RTVSPost2010PropOp50
 70
     1
102
RTVSPost2010Prop51ColorIndex
 90
      256
102
RTVSPost2010Prop51ColorRGB
 90
-16777216
102
RTVSPost2010PropOp51
 70
     0
102
RTVSPost2010Prop52
140
1.0
102
RTVSPost2010PropOp52
 70
     0
102
RTVSPost2010Prop53
 90
        2
102
RTVSPost2010PropOp53
 70
     1
102
RTVSPost2010Prop54
  1
strokes_ogs.tif
102
RTVSPost2010PropOp54
 70
     1
102
RTVSPost2010Prop55
280
     0
102
RTVSPost2010PropOp55
 70
     1
102
RTVSPost2010Prop56
140
1.0
102
RTVSPost2010PropOp56
 70
     1
102
RTVSPost2010Prop57
140
1.0
102
RTVSPost2010PropOp57
 70
     1
  0
XRECORD
  5
19A9
102
{ACAD_REACTORS
330
19A8
102
}
330
19A8
100
AcDbXrecord
280
     1
102
RTVSPost2010Prop28
280
     0
102
RTVSPost2010PropOp28
 70
     1
102
RTVSPost2010Prop29
280
     1
102
RTVSPost2010PropOp29
 70
     1
102
RTVSPost2010Prop30
280
     1
102
RTVSPost2010PropOp30
 70
     1
102
RTVSPost2010Prop31
280
     0
102
RTVSPost2010PropOp31
 70
     1
102
RTVSPost2010Prop32
280
     0
102
RTVSPost2010PropOp32
 70
     1
102
RTVSPost2010Prop33
280
     0
102
RTVSPost2010PropOp33
 70
     1
102
RTVSPost2010Prop34
280
     0
102
RTVSPost2010PropOp34
 70
     1
102
RTVSPost2010Prop35
280
     0
102
RTVSPost2010PropOp35
 70
     1
102
RTVSPost2010Prop36
280
     0
102
RTVSPost2010PropOp36
 70
     1
102
RTVSPost2010Prop37
 90
       50
102
RTVSPost2010PropOp37
 70
     1
102
RTVSPost2010Prop38
140
0.0
102
RTVSPost2010PropOp38
 70
     1
102
RTVSPost2010Prop39
140
1.0
102
RTVSPost2010PropOp39
 70
     1
102
RTVSPost2010Prop40
 90
        0
102
RTVSPost2010PropOp40
 70
     1
102
RTVSPost2010Prop41ColorIndex
 90
       18
102
RTVSPost2010Prop41ColorRGB
 90
        0
102
RTVSPost2010PropOp41
 70
     1
102
RTVSPost2010Prop42
 90
       50
102
RTVSPost2010PropOp42
 70
     1
102
RTVSPost2010Prop43
 90
        3
102
RTVSPost2010PropOp43
 70
     1
102
RTVSPost2010Prop44ColorIndex
 90
        5
102
RTVSPost2010Prop44ColorRGB
 90
      255
102
RTVSPost2010PropOp44
 70
     1
102
RTVSPost2010Prop45
280
     0
102
RTVSPost2010PropOp45
 70
     1
102
RTVSPost2010Prop46
 90
       50
102
RTVSPost2010PropOp46
 70
     1
102
RTVSPost2010Prop47
 90
       50
102
RTVSPost2010PropOp47
 70
     1
102
RTVSPost2010Prop48
 90
       50
102
RTVSPost2010PropOp48
 70
     1
102
RTVSPost2010Prop49
280
     0
102
RTVSPost2010PropOp49
 70
     1
102
RTVSPost2010Prop50
 90
       50
102
RTVSPost2010PropOp50
 70
     1
102
RTVSPost2010Prop51ColorIndex
 90
      256
102
RTVSPost2010Prop51ColorRGB
 90
-16777216
102
RTVSPost2010PropOp51
 70
     0
102
RTVSPost2010Prop52
140
1.0
102
RTVSPost2010PropOp52
 70
     0
102
RTVSPost2010Prop53
 90
        2
102
RTVSPost2010PropOp53
 70
     1
102
RTVSPost2010Prop54
  1
strokes_ogs.tif
102
RTVSPost2010PropOp54
 70
     1
102
RTVSPost2010Prop55
280
     0
102
RTVSPost2010PropOp55
 70
     1
102
RTVSPost2010Prop56
140
1.0
102
RTVSPost2010PropOp56
 70
     1
102
RTVSPost2010Prop57
140
1.0
102
RTVSPost2010PropOp57
 70
     1
  0
XRECORD
  5
19AB
102
{ACAD_REACTORS
330
19AA
102
}
330
19AA
100
AcDbXrecord
280
     1
102
RTVSPost2010Prop28
280
     0
102
RTVSPost2010PropOp28
 70
     1
102
RTVSPost2010Prop29
280
     1
102
RTVSPost2010PropOp29
 70
     1
102
RTVSPost2010Prop30
280
     1
102
RTVSPost2010PropOp30
 70
     1
102
RTVSPost2010Prop31
280
     0
102
RTVSPost2010PropOp31
 70
     1
102
RTVSPost2010Prop32
280
     0
102
RTVSPost2010PropOp32
 70
     1
102
RTVSPost2010Prop33
280
     0
102
RTVSPost2010PropOp33
 70
     1
102
RTVSPost2010Prop34
280
     0
102
RTVSPost2010PropOp34
 70
     1
102
RTVSPost2010Prop35
280
     0
102
RTVSPost2010PropOp35
 70
     1
102
RTVSPost2010Prop36
280
     0
102
RTVSPost2010PropOp36
 70
     1
102
RTVSPost2010Prop37
 90
       50
102
RTVSPost2010PropOp37
 70
     1
102
RTVSPost2010Prop38
140
0.0
102
RTVSPost2010PropOp38
 70
     1
102
RTVSPost2010Prop39
140
1.0
102
RTVSPost2010PropOp39
 70
     1
102
RTVSPost2010Prop40
 90
        0
102
RTVSPost2010PropOp40
 70
     1
102
RTVSPost2010Prop41ColorIndex
 90
       18
102
RTVSPost2010Prop41ColorRGB
 90
        0
102
RTVSPost2010PropOp41
 70
     1
102
RTVSPost2010Prop42
 90
       50
102
RTVSPost2010PropOp42
 70
     1
102
RTVSPost2010Prop43
 90
        3
102
RTVSPost2010PropOp43
 70
     1
102
RTVSPost2010Prop44ColorIndex
 90
        5
102
RTVSPost2010Prop44ColorRGB
 90
      255
102
RTVSPost2010PropOp44
 70
     1
102
RTVSPost2010Prop45
280
     0
102
RTVSPost2010PropOp45
 70
     1
102
RTVSPost2010Prop46
 90
       50
102
RTVSPost2010PropOp46
 70
     1
102
RTVSPost2010Prop47
 90
       50
102
RTVSPost2010PropOp47
 70
     1
102
RTVSPost2010Prop48
 90
       50
102
RTVSPost2010PropOp48
 70
     1
102
RTVSPost2010Prop49
280
     0
102
RTVSPost2010PropOp49
 70
     1
102
RTVSPost2010Prop50
 90
       50
102
RTVSPost2010PropOp50
 70
     1
102
RTVSPost2010Prop51ColorIndex
 90
      256
102
RTVSPost2010Prop51ColorRGB
 90
-16777216
102
RTVSPost2010PropOp51
 70
     0
102
RTVSPost2010Prop52
140
1.0
102
RTVSPost2010PropOp52
 70
     0
102
RTVSPost2010Prop53
 90
        2
102
RTVSPost2010PropOp53
 70
     1
102
RTVSPost2010Prop54
  1
strokes_ogs.tif
102
RTVSPost2010PropOp54
 70
     1
102
RTVSPost2010Prop55
280
     0
102
RTVSPost2010PropOp55
 70
     1
102
RTVSPost2010Prop56
140
1.0
102
RTVSPost2010PropOp56
 70
     1
102
RTVSPost2010Prop57
140
1.0
102
RTVSPost2010PropOp57
 70
     1
  0
XRECORD
  5
19B1
102
{ACAD_REACTORS
330
19B0
102
}
330
19B0
100
AcDbXrecord
280
     1
102
RTVSPost2010Prop28
280
     0
102
RTVSPost2010PropOp28
 70
     1
102
RTVSPost2010Prop29
280
     1
102
RTVSPost2010PropOp29
 70
     1
102
RTVSPost2010Prop30
280
     1
102
RTVSPost2010PropOp30
 70
     1
102
RTVSPost2010Prop31
280
     0
102
RTVSPost2010PropOp31
 70
     1
102
RTVSPost2010Prop32
280
     0
102
RTVSPost2010PropOp32
 70
     1
102
RTVSPost2010Prop33
280
     0
102
RTVSPost2010PropOp33
 70
     1
102
RTVSPost2010Prop34
280
     0
102
RTVSPost2010PropOp34
 70
     1
102
RTVSPost2010Prop35
280
     0
102
RTVSPost2010PropOp35
 70
     1
102
RTVSPost2010Prop36
280
     0
102
RTVSPost2010PropOp36
 70
     1
102
RTVSPost2010Prop37
 90
       50
102
RTVSPost2010PropOp37
 70
     1
102
RTVSPost2010Prop38
140
0.0
102
RTVSPost2010PropOp38
 70
     1
102
RTVSPost2010Prop39
140
1.0
102
RTVSPost2010PropOp39
 70
     1
102
RTVSPost2010Prop40
 90
        0
102
RTVSPost2010PropOp40
 70
     1
102
RTVSPost2010Prop41ColorIndex
 90
       18
102
RTVSPost2010Prop41ColorRGB
 90
        0
102
RTVSPost2010PropOp41
 70
     1
102
RTVSPost2010Prop42
 90
       50
102
RTVSPost2010PropOp42
 70
     1
102
RTVSPost2010Prop43
 90
        3
102
RTVSPost2010PropOp43
 70
     1
102
RTVSPost2010Prop44ColorIndex
 90
        5
102
RTVSPost2010Prop44ColorRGB
 90
      255
102
RTVSPost2010PropOp44
 70
     1
102
RTVSPost2010Prop45
280
     0
102
RTVSPost2010PropOp45
 70
     1
102
RTVSPost2010Prop46
 90
       50
102
RTVSPost2010PropOp46
 70
     1
102
RTVSPost2010Prop47
 90
       50
102
RTVSPost2010PropOp47
 70
     1
102
RTVSPost2010Prop48
 90
       50
102
RTVSPost2010PropOp48
 70
     1
102
RTVSPost2010Prop49
280
     0
102
RTVSPost2010PropOp49
 70
     1
102
RTVSPost2010Prop50
 90
       50
102
RTVSPost2010PropOp50
 70
     1
102
RTVSPost2010Prop51ColorIndex
 90
      256
102
RTVSPost2010Prop51ColorRGB
 90
-16777216
102
RTVSPost2010PropOp51
 70
     0
102
RTVSPost2010Prop52
140
1.0
102
RTVSPost2010PropOp52
 70
     0
102
RTVSPost2010Prop53
 90
        2
102
RTVSPost2010PropOp53
 70
     1
102
RTVSPost2010Prop54
  1
strokes_ogs.tif
102
RTVSPost2010PropOp54
 70
     1
102
RTVSPost2010Prop55
280
     0
102
RTVSPost2010PropOp55
 70
     1
102
RTVSPost2010Prop56
140
1.0
102
RTVSPost2010PropOp56
 70
     1
102
RTVSPost2010Prop57
140
1.0
102
RTVSPost2010PropOp57
 70
     1
  0
XRECORD
  5
19C5
102
{ACAD_REACTORS
330
19C4
102
}
330
19C4
100
AcDbXrecord
280
     1
102
RTVSPost2010Prop28
280
     0
102
RTVSPost2010PropOp28
 70
     0
102
RTVSPost2010Prop29
280
     1
102
RTVSPost2010PropOp29
 70
     0
102
RTVSPost2010Prop30
280
     1
102
RTVSPost2010PropOp30
 70
     0
102
RTVSPost2010Prop31
280
     0
102
RTVSPost2010PropOp31
 70
     0
102
RTVSPost2010Prop32
280
     0
102
RTVSPost2010PropOp32
 70
     0
102
RTVSPost2010Prop33
280
     0
102
RTVSPost2010PropOp33
 70
     0
102
RTVSPost2010Prop34
280
     0
102
RTVSPost2010PropOp34
 70
     0
102
RTVSPost2010Prop35
280
     0
102
RTVSPost2010PropOp35
 70
     0
102
RTVSPost2010Prop36
280
     0
102
RTVSPost2010PropOp36
 70
     0
102
RTVSPost2010Prop37
 90
       50
102
RTVSPost2010PropOp37
 70
     0
102
RTVSPost2010Prop38
140
0.0
102
RTVSPost2010PropOp38
 70
     0
102
RTVSPost2010Prop39
140
1.0
102
RTVSPost2010PropOp39
 70
     0
102
RTVSPost2010Prop40
 90
        0
102
RTVSPost2010PropOp40
 70
     0
102
RTVSPost2010Prop41ColorIndex
 90
       18
102
RTVSPost2010Prop41ColorRGB
 90
        0
102
RTVSPost2010PropOp41
 70
     0
102
RTVSPost2010Prop42
 90
       50
102
RTVSPost2010PropOp42
 70
     0
102
RTVSPost2010Prop43
 90
        3
102
RTVSPost2010PropOp43
 70
     0
102
RTVSPost2010Prop44ColorIndex
 90
        5
102
RTVSPost2010Prop44ColorRGB
 90
      255
102
RTVSPost2010PropOp44
 70
     0
102
RTVSPost2010Prop45
280
     0
102
RTVSPost2010PropOp45
 70
     0
102
RTVSPost2010Prop46
 90
       50
102
RTVSPost2010PropOp46
 70
     0
102
RTVSPost2010Prop47
 90
       50
102
RTVSPost2010PropOp47
 70
     0
102
RTVSPost2010Prop48
 90
       50
102
RTVSPost2010PropOp48
 70
     0
102
RTVSPost2010Prop49
280
     0
102
RTVSPost2010PropOp49
 70
     0
102
RTVSPost2010Prop50
 90
       50
102
RTVSPost2010PropOp50
 70
     0
102
RTVSPost2010Prop51ColorIndex
 90
      256
102
RTVSPost2010Prop51ColorRGB
 90
-16777216
102
RTVSPost2010PropOp51
 70
     0
102
RTVSPost2010Prop52
140
1.0
102
RTVSPost2010PropOp52
 70
     0
102
RTVSPost2010Prop53
 90
        2
102
RTVSPost2010PropOp53
 70
     0
102
RTVSPost2010Prop54
  1
strokes_ogs.tif
102
RTVSPost2010PropOp54
 70
     0
102
RTVSPost2010Prop55
280
     0
102
RTVSPost2010PropOp55
 70
     0
102
RTVSPost2010Prop56
140
1.0
102
RTVSPost2010PropOp56
 70
     0
102
RTVSPost2010Prop57
140
1.0
102
RTVSPost2010PropOp57
 70
     0
  0
XRECORD
  5
19BF
102
{ACAD_REACTORS
330
19BE
102
}
330
19BE
100
AcDbXrecord
280
     1
102
RTVSPost2010Prop28
280
     0
102
RTVSPost2010PropOp28
 70
     1
102
RTVSPost2010Prop29
280
     1
102
RTVSPost2010PropOp29
 70
     1
102
RTVSPost2010Prop30
280
     1
102
RTVSPost2010PropOp30
 70
     1
102
RTVSPost2010Prop31
280
     0
102
RTVSPost2010PropOp31
 70
     1
102
RTVSPost2010Prop32
280
     0
102
RTVSPost2010PropOp32
 70
     1
102
RTVSPost2010Prop33
280
     0
102
RTVSPost2010PropOp33
 70
     1
102
RTVSPost2010Prop34
280
     0
102
RTVSPost2010PropOp34
 70
     1
102
RTVSPost2010Prop35
280
     0
102
RTVSPost2010PropOp35
 70
     1
102
RTVSPost2010Prop36
280
     0
102
RTVSPost2010PropOp36
 70
     1
102
RTVSPost2010Prop37
 90
       50
102
RTVSPost2010PropOp37
 70
     1
102
RTVSPost2010Prop38
140
0.0
102
RTVSPost2010PropOp38
 70
     1
102
RTVSPost2010Prop39
140
1.0
102
RTVSPost2010PropOp39
 70
     1
102
RTVSPost2010Prop40
 90
        0
102
RTVSPost2010PropOp40
 70
     1
102
RTVSPost2010Prop41ColorIndex
 90
       18
102
RTVSPost2010Prop41ColorRGB
 90
        0
102
RTVSPost2010PropOp41
 70
     1
102
RTVSPost2010Prop42
 90
       50
102
RTVSPost2010PropOp42
 70
     1
102
RTVSPost2010Prop43
 90
        3
102
RTVSPost2010PropOp43
 70
     1
102
RTVSPost2010Prop44ColorIndex
 90
        5
102
RTVSPost2010Prop44ColorRGB
 90
      255
102
RTVSPost2010PropOp44
 70
     1
102
RTVSPost2010Prop45
280
     0
102
RTVSPost2010PropOp45
 70
     1
102
RTVSPost2010Prop46
 90
       50
102
RTVSPost2010PropOp46
 70
     1
102
RTVSPost2010Prop47
 90
       50
102
RTVSPost2010PropOp47
 70
     1
102
RTVSPost2010Prop48
 90
       50
102
RTVSPost2010PropOp48
 70
     1
102
RTVSPost2010Prop49
280
     0
102
RTVSPost2010PropOp49
 70
     1
102
RTVSPost2010Prop50
 90
       50
102
RTVSPost2010PropOp50
 70
     1
102
RTVSPost2010Prop51ColorIndex
 90
      256
102
RTVSPost2010Prop51ColorRGB
 90
-16777216
102
RTVSPost2010PropOp51
 70
     0
102
RTVSPost2010Prop52
140
1.0
102
RTVSPost2010PropOp52
 70
     0
102
RTVSPost2010Prop53
 90
        2
102
RTVSPost2010PropOp53
 70
     1
102
RTVSPost2010Prop54
  1
strokes_ogs.tif
102
RTVSPost2010PropOp54
 70
     1
102
RTVSPost2010Prop55
280
     0
102
RTVSPost2010PropOp55
 70
     1
102
RTVSPost2010Prop56
140
1.0
102
RTVSPost2010PropOp56
 70
     1
102
RTVSPost2010Prop57
140
1.0
102
RTVSPost2010PropOp57
 70
     1
  0
XRECORD
  5
19D5
102
{ACAD_REACTORS
330
19D4
102
}
330
19D4
100
AcDbXrecord
280
     1
102
RTVSPost2010Prop28
280
     0
102
RTVSPost2010PropOp28
 70
     1
102
RTVSPost2010Prop29
280
     1
102
RTVSPost2010PropOp29
 70
     1
102
RTVSPost2010Prop30
280
     1
102
RTVSPost2010PropOp30
 70
     1
102
RTVSPost2010Prop31
280
     0
102
RTVSPost2010PropOp31
 70
     1
102
RTVSPost2010Prop32
280
     0
102
RTVSPost2010PropOp32
 70
     1
102
RTVSPost2010Prop33
280
     0
102
RTVSPost2010PropOp33
 70
     1
102
RTVSPost2010Prop34
280
     0
102
RTVSPost2010PropOp34
 70
     1
102
RTVSPost2010Prop35
280
     0
102
RTVSPost2010PropOp35
 70
     1
102
RTVSPost2010Prop36
280
     0
102
RTVSPost2010PropOp36
 70
     1
102
RTVSPost2010Prop37
 90
       50
102
RTVSPost2010PropOp37
 70
     1
102
RTVSPost2010Prop38
140
0.0
102
RTVSPost2010PropOp38
 70
     1
102
RTVSPost2010Prop39
140
1.0
102
RTVSPost2010PropOp39
 70
     1
102
RTVSPost2010Prop40
 90
        0
102
RTVSPost2010PropOp40
 70
     1
102
RTVSPost2010Prop41ColorIndex
 90
       18
102
RTVSPost2010Prop41ColorRGB
 90
        0
102
RTVSPost2010PropOp41
 70
     1
102
RTVSPost2010Prop42
 90
       50
102
RTVSPost2010PropOp42
 70
     1
102
RTVSPost2010Prop43
 90
        3
102
RTVSPost2010PropOp43
 70
     1
102
RTVSPost2010Prop44ColorIndex
 90
        5
102
RTVSPost2010Prop44ColorRGB
 90
      255
102
RTVSPost2010PropOp44
 70
     1
102
RTVSPost2010Prop45
280
     0
102
RTVSPost2010PropOp45
 70
     1
102
RTVSPost2010Prop46
 90
       50
102
RTVSPost2010PropOp46
 70
     1
102
RTVSPost2010Prop47
 90
       50
102
RTVSPost2010PropOp47
 70
     1
102
RTVSPost2010Prop48
 90
       50
102
RTVSPost2010PropOp48
 70
     1
102
RTVSPost2010Prop49
280
     0
102
RTVSPost2010PropOp49
 70
     1
102
RTVSPost2010Prop50
 90
       50
102
RTVSPost2010PropOp50
 70
     1
102
RTVSPost2010Prop51ColorIndex
 90
      256
102
RTVSPost2010Prop51ColorRGB
 90
-16777216
102
RTVSPost2010PropOp51
 70
     0
102
RTVSPost2010Prop52
140
1.0
102
RTVSPost2010PropOp52
 70
     0
102
RTVSPost2010Prop53
 90
        2
102
RTVSPost2010PropOp53
 70
     1
102
RTVSPost2010Prop54
  1
strokes_ogs.tif
102
RTVSPost2010PropOp54
 70
     1
102
RTVSPost2010Prop55
280
     0
102
RTVSPost2010PropOp55
 70
     1
102
RTVSPost2010Prop56
140
1.0
102
RTVSPost2010PropOp56
 70
     1
102
RTVSPost2010Prop57
140
1.0
102
RTVSPost2010PropOp57
 70
     1
  0
XRECORD
  5
19C7
102
{ACAD_REACTORS
330
19C6
102
}
330
19C6
100
AcDbXrecord
280
     1
102
RTVSPost2010Prop28
280
     0
102
RTVSPost2010PropOp28
 70
     0
102
RTVSPost2010Prop29
280
     1
102
RTVSPost2010PropOp29
 70
     0
102
RTVSPost2010Prop30
280
     1
102
RTVSPost2010PropOp30
 70
     0
102
RTVSPost2010Prop31
280
     0
102
RTVSPost2010PropOp31
 70
     0
102
RTVSPost2010Prop32
280
     0
102
RTVSPost2010PropOp32
 70
     0
102
RTVSPost2010Prop33
280
     0
102
RTVSPost2010PropOp33
 70
     0
102
RTVSPost2010Prop34
280
     0
102
RTVSPost2010PropOp34
 70
     0
102
RTVSPost2010Prop35
280
     0
102
RTVSPost2010PropOp35
 70
     0
102
RTVSPost2010Prop36
280
     0
102
RTVSPost2010PropOp36
 70
     0
102
RTVSPost2010Prop37
 90
       50
102
RTVSPost2010PropOp37
 70
     0
102
RTVSPost2010Prop38
140
0.0
102
RTVSPost2010PropOp38
 70
     0
102
RTVSPost2010Prop39
140
1.0
102
RTVSPost2010PropOp39
 70
     0
102
RTVSPost2010Prop40
 90
        0
102
RTVSPost2010PropOp40
 70
     0
102
RTVSPost2010Prop41ColorIndex
 90
       18
102
RTVSPost2010Prop41ColorRGB
 90
        0
102
RTVSPost2010PropOp41
 70
     0
102
RTVSPost2010Prop42
 90
       50
102
RTVSPost2010PropOp42
 70
     0
102
RTVSPost2010Prop43
 90
        3
102
RTVSPost2010PropOp43
 70
     0
102
RTVSPost2010Prop44ColorIndex
 90
        5
102
RTVSPost2010Prop44ColorRGB
 90
      255
102
RTVSPost2010PropOp44
 70
     0
102
RTVSPost2010Prop45
280
     0
102
RTVSPost2010PropOp45
 70
     0
102
RTVSPost2010Prop46
 90
       50
102
RTVSPost2010PropOp46
 70
     0
102
RTVSPost2010Prop47
 90
       50
102
RTVSPost2010PropOp47
 70
     0
102
RTVSPost2010Prop48
 90
       50
102
RTVSPost2010PropOp48
 70
     0
102
RTVSPost2010Prop49
280
     0
102
RTVSPost2010PropOp49
 70
     0
102
RTVSPost2010Prop50
 90
       50
102
RTVSPost2010PropOp50
 70
     0
102
RTVSPost2010Prop51ColorIndex
 90
      256
102
RTVSPost2010Prop51ColorRGB
 90
-16777216
102
RTVSPost2010PropOp51
 70
     0
102
RTVSPost2010Prop52
140
1.0
102
RTVSPost2010PropOp52
 70
     0
102
RTVSPost2010Prop53
 90
        2
102
RTVSPost2010PropOp53
 70
     0
102
RTVSPost2010Prop54
  1
strokes_ogs.tif
102
RTVSPost2010PropOp54
 70
     0
102
RTVSPost2010Prop55
280
     0
102
RTVSPost2010PropOp55
 70
     0
102
RTVSPost2010Prop56
140
1.0
102
RTVSPost2010PropOp56
 70
     0
102
RTVSPost2010Prop57
140
1.0
102
RTVSPost2010PropOp57
 70
     0
  0
XRECORD
  5
19B5
102
{ACAD_REACTORS
330
19B4
102
}
330
19B4
100
AcDbXrecord
280
     1
102
RTVSPost2010Prop28
280
     0
102
RTVSPost2010PropOp28
 70
     1
102
RTVSPost2010Prop29
280
     1
102
RTVSPost2010PropOp29
 70
     1
102
RTVSPost2010Prop30
280
     1
102
RTVSPost2010PropOp30
 70
     1
102
RTVSPost2010Prop31
280
     0
102
RTVSPost2010PropOp31
 70
     1
102
RTVSPost2010Prop32
280
     0
102
RTVSPost2010PropOp32
 70
     1
102
RTVSPost2010Prop33
280
     0
102
RTVSPost2010PropOp33
 70
     1
102
RTVSPost2010Prop34
280
     0
102
RTVSPost2010PropOp34
 70
     1
102
RTVSPost2010Prop35
280
     0
102
RTVSPost2010PropOp35
 70
     1
102
RTVSPost2010Prop36
280
     0
102
RTVSPost2010PropOp36
 70
     1
102
RTVSPost2010Prop37
 90
       50
102
RTVSPost2010PropOp37
 70
     1
102
RTVSPost2010Prop38
140
0.0
102
RTVSPost2010PropOp38
 70
     1
102
RTVSPost2010Prop39
140
1.0
102
RTVSPost2010PropOp39
 70
     1
102
RTVSPost2010Prop40
 90
        0
102
RTVSPost2010PropOp40
 70
     1
102
RTVSPost2010Prop41ColorIndex
 90
       18
102
RTVSPost2010Prop41ColorRGB
 90
        0
102
RTVSPost2010PropOp41
 70
     1
102
RTVSPost2010Prop42
 90
       50
102
RTVSPost2010PropOp42
 70
     1
102
RTVSPost2010Prop43
 90
        3
102
RTVSPost2010PropOp43
 70
     1
102
RTVSPost2010Prop44ColorIndex
 90
        5
102
RTVSPost2010Prop44ColorRGB
 90
      255
102
RTVSPost2010PropOp44
 70
     1
102
RTVSPost2010Prop45
280
     0
102
RTVSPost2010PropOp45
 70
     1
102
RTVSPost2010Prop46
 90
       50
102
RTVSPost2010PropOp46
 70
     1
102
RTVSPost2010Prop47
 90
       50
102
RTVSPost2010PropOp47
 70
     1
102
RTVSPost2010Prop48
 90
       50
102
RTVSPost2010PropOp48
 70
     1
102
RTVSPost2010Prop49
280
     0
102
RTVSPost2010PropOp49
 70
     1
102
RTVSPost2010Prop50
 90
       50
102
RTVSPost2010PropOp50
 70
     1
102
RTVSPost2010Prop51ColorIndex
 90
      256
102
RTVSPost2010Prop51ColorRGB
 90
-16777216
102
RTVSPost2010PropOp51
 70
     0
102
RTVSPost2010Prop52
140
1.0
102
RTVSPost2010PropOp52
 70
     0
102
RTVSPost2010Prop53
 90
        2
102
RTVSPost2010PropOp53
 70
     1
102
RTVSPost2010Prop54
  1
strokes_ogs.tif
102
RTVSPost2010PropOp54
 70
     1
102
RTVSPost2010Prop55
280
     0
102
RTVSPost2010PropOp55
 70
     1
102
RTVSPost2010Prop56
140
1.0
102
RTVSPost2010PropOp56
 70
     1
102
RTVSPost2010Prop57
140
1.0
102
RTVSPost2010PropOp57
 70
     1
  0
XRECORD
  5
19D3
102
{ACAD_REACTORS
330
19D2
102
}
330
19D2
100
AcDbXrecord
280
     1
102
RTVSPost2010Prop28
280
     0
102
RTVSPost2010PropOp28
 70
     1
102
RTVSPost2010Prop29
280
     1
102
RTVSPost2010PropOp29
 70
     1
102
RTVSPost2010Prop30
280
     1
102
RTVSPost2010PropOp30
 70
     1
102
RTVSPost2010Prop31
280
     0
102
RTVSPost2010PropOp31
 70
     1
102
RTVSPost2010Prop32
280
     0
102
RTVSPost2010PropOp32
 70
     1
102
RTVSPost2010Prop33
280
     0
102
RTVSPost2010PropOp33
 70
     1
102
RTVSPost2010Prop34
280
     0
102
RTVSPost2010PropOp34
 70
     1
102
RTVSPost2010Prop35
280
     0
102
RTVSPost2010PropOp35
 70
     1
102
RTVSPost2010Prop36
280
     0
102
RTVSPost2010PropOp36
 70
     1
102
RTVSPost2010Prop37
 90
       50
102
RTVSPost2010PropOp37
 70
     1
102
RTVSPost2010Prop38
140
0.0
102
RTVSPost2010PropOp38
 70
     1
102
RTVSPost2010Prop39
140
1.0
102
RTVSPost2010PropOp39
 70
     1
102
RTVSPost2010Prop40
 90
        0
102
RTVSPost2010PropOp40
 70
     1
102
RTVSPost2010Prop41ColorIndex
 90
       18
102
RTVSPost2010Prop41ColorRGB
 90
        0
102
RTVSPost2010PropOp41
 70
     1
102
RTVSPost2010Prop42
 90
       50
102
RTVSPost2010PropOp42
 70
     1
102
RTVSPost2010Prop43
 90
        3
102
RTVSPost2010PropOp43
 70
     1
102
RTVSPost2010Prop44ColorIndex
 90
        5
102
RTVSPost2010Prop44ColorRGB
 90
      255
102
RTVSPost2010PropOp44
 70
     1
102
RTVSPost2010Prop45
280
     0
102
RTVSPost2010PropOp45
 70
     1
102
RTVSPost2010Prop46
 90
       50
102
RTVSPost2010PropOp46
 70
     1
102
RTVSPost2010Prop47
 90
       50
102
RTVSPost2010PropOp47
 70
     1
102
RTVSPost2010Prop48
 90
       50
102
RTVSPost2010PropOp48
 70
     1
102
RTVSPost2010Prop49
280
     0
102
RTVSPost2010PropOp49
 70
     1
102
RTVSPost2010Prop50
 90
       50
102
RTVSPost2010PropOp50
 70
     1
102
RTVSPost2010Prop51ColorIndex
 90
      256
102
RTVSPost2010Prop51ColorRGB
 90
-16777216
102
RTVSPost2010PropOp51
 70
     0
102
RTVSPost2010Prop52
140
1.0
102
RTVSPost2010PropOp52
 70
     0
102
RTVSPost2010Prop53
 90
        2
102
RTVSPost2010PropOp53
 70
     1
102
RTVSPost2010Prop54
  1
strokes_ogs.tif
102
RTVSPost2010PropOp54
 70
     1
102
RTVSPost2010Prop55
280
     0
102
RTVSPost2010PropOp55
 70
     1
102
RTVSPost2010Prop56
140
1.0
102
RTVSPost2010PropOp56
 70
     1
102
RTVSPost2010Prop57
140
1.0
102
RTVSPost2010PropOp57
 70
     1
  0
XRECORD
  5
19D1
102
{ACAD_REACTORS
330
19D0
102
}
330
19D0
100
AcDbXrecord
280
     1
102
RTVSPost2010Prop28
280
     0
102
RTVSPost2010PropOp28
 70
     1
102
RTVSPost2010Prop29
280
     1
102
RTVSPost2010PropOp29
 70
     1
102
RTVSPost2010Prop30
280
     1
102
RTVSPost2010PropOp30
 70
     1
102
RTVSPost2010Prop31
280
     0
102
RTVSPost2010PropOp31
 70
     1
102
RTVSPost2010Prop32
280
     0
102
RTVSPost2010PropOp32
 70
     1
102
RTVSPost2010Prop33
280
     0
102
RTVSPost2010PropOp33
 70
     1
102
RTVSPost2010Prop34
280
     0
102
RTVSPost2010PropOp34
 70
     1
102
RTVSPost2010Prop35
280
     0
102
RTVSPost2010PropOp35
 70
     1
102
RTVSPost2010Prop36
280
     0
102
RTVSPost2010PropOp36
 70
     1
102
RTVSPost2010Prop37
 90
       50
102
RTVSPost2010PropOp37
 70
     1
102
RTVSPost2010Prop38
140
0.0
102
RTVSPost2010PropOp38
 70
     1
102
RTVSPost2010Prop39
140
1.0
102
RTVSPost2010PropOp39
 70
     1
102
RTVSPost2010Prop40
 90
        0
102
RTVSPost2010PropOp40
 70
     1
102
RTVSPost2010Prop41ColorIndex
 90
       18
102
RTVSPost2010Prop41ColorRGB
 90
        0
102
RTVSPost2010PropOp41
 70
     1
102
RTVSPost2010Prop42
 90
       50
102
RTVSPost2010PropOp42
 70
     1
102
RTVSPost2010Prop43
 90
        3
102
RTVSPost2010PropOp43
 70
     1
102
RTVSPost2010Prop44ColorIndex
 90
        5
102
RTVSPost2010Prop44ColorRGB
 90
      255
102
RTVSPost2010PropOp44
 70
     1
102
RTVSPost2010Prop45
280
     0
102
RTVSPost2010PropOp45
 70
     1
102
RTVSPost2010Prop46
 90
       50
102
RTVSPost2010PropOp46
 70
     1
102
RTVSPost2010Prop47
 90
       50
102
RTVSPost2010PropOp47
 70
     1
102
RTVSPost2010Prop48
 90
       50
102
RTVSPost2010PropOp48
 70
     1
102
RTVSPost2010Prop49
280
     0
102
RTVSPost2010PropOp49
 70
     1
102
RTVSPost2010Prop50
 90
       50
102
RTVSPost2010PropOp50
 70
     1
102
RTVSPost2010Prop51ColorIndex
 90
      256
102
RTVSPost2010Prop51ColorRGB
 90
-16777216
102
RTVSPost2010PropOp51
 70
     0
102
RTVSPost2010Prop52
140
1.0
102
RTVSPost2010PropOp52
 70
     0
102
RTVSPost2010Prop53
 90
        2
102
RTVSPost2010PropOp53
 70
     1
102
RTVSPost2010Prop54
  1
strokes_ogs.tif
102
RTVSPost2010PropOp54
 70
     1
102
RTVSPost2010Prop55
280
     0
102
RTVSPost2010PropOp55
 70
     1
102
RTVSPost2010Prop56
140
1.0
102
RTVSPost2010PropOp56
 70
     1
102
RTVSPost2010Prop57
140
1.0
102
RTVSPost2010PropOp57
 70
     1
  0
XRECORD
  5
19CB
102
{ACAD_REACTORS
330
19CA
102
}
330
19CA
100
AcDbXrecord
280
     1
102
RTVSPost2010Prop28
280
     0
102
RTVSPost2010PropOp28
 70
     1
102
RTVSPost2010Prop29
280
     1
102
RTVSPost2010PropOp29
 70
     1
102
RTVSPost2010Prop30
280
     1
102
RTVSPost2010PropOp30
 70
     1
102
RTVSPost2010Prop31
280
     0
102
RTVSPost2010PropOp31
 70
     1
102
RTVSPost2010Prop32
280
     0
102
RTVSPost2010PropOp32
 70
     1
102
RTVSPost2010Prop33
280
     0
102
RTVSPost2010PropOp33
 70
     1
102
RTVSPost2010Prop34
280
     0
102
RTVSPost2010PropOp34
 70
     1
102
RTVSPost2010Prop35
280
     0
102
RTVSPost2010PropOp35
 70
     1
102
RTVSPost2010Prop36
280
     0
102
RTVSPost2010PropOp36
 70
     1
102
RTVSPost2010Prop37
 90
       50
102
RTVSPost2010PropOp37
 70
     1
102
RTVSPost2010Prop38
140
0.0
102
RTVSPost2010PropOp38
 70
     1
102
RTVSPost2010Prop39
140
1.0
102
RTVSPost2010PropOp39
 70
     1
102
RTVSPost2010Prop40
 90
        0
102
RTVSPost2010PropOp40
 70
     1
102
RTVSPost2010Prop41ColorIndex
 90
       18
102
RTVSPost2010Prop41ColorRGB
 90
        0
102
RTVSPost2010PropOp41
 70
     1
102
RTVSPost2010Prop42
 90
       50
102
RTVSPost2010PropOp42
 70
     1
102
RTVSPost2010Prop43
 90
        3
102
RTVSPost2010PropOp43
 70
     1
102
RTVSPost2010Prop44ColorIndex
 90
        5
102
RTVSPost2010Prop44ColorRGB
 90
      255
102
RTVSPost2010PropOp44
 70
     1
102
RTVSPost2010Prop45
280
     0
102
RTVSPost2010PropOp45
 70
     1
102
RTVSPost2010Prop46
 90
       50
102
RTVSPost2010PropOp46
 70
     1
102
RTVSPost2010Prop47
 90
       50
102
RTVSPost2010PropOp47
 70
     1
102
RTVSPost2010Prop48
 90
       50
102
RTVSPost2010PropOp48
 70
     1
102
RTVSPost2010Prop49
280
     0
102
RTVSPost2010PropOp49
 70
     1
102
RTVSPost2010Prop50
 90
       50
102
RTVSPost2010PropOp50
 70
     1
102
RTVSPost2010Prop51ColorIndex
 90
      256
102
RTVSPost2010Prop51ColorRGB
 90
-16777216
102
RTVSPost2010PropOp51
 70
     0
102
RTVSPost2010Prop52
140
1.0
102
RTVSPost2010PropOp52
 70
     0
102
RTVSPost2010Prop53
 90
        2
102
RTVSPost2010PropOp53
 70
     1
102
RTVSPost2010Prop54
  1
strokes_ogs.tif
102
RTVSPost2010PropOp54
 70
     1
102
RTVSPost2010Prop55
280
     0
102
RTVSPost2010PropOp55
 70
     1
102
RTVSPost2010Prop56
140
1.0
102
RTVSPost2010PropOp56
 70
     1
102
RTVSPost2010Prop57
140
1.0
102
RTVSPost2010PropOp57
 70
     1
  0
XRECORD
  5
19CD
102
{ACAD_REACTORS
330
19CC
102
}
330
19CC
100
AcDbXrecord
280
     1
102
RTVSPost2010Prop28
280
     0
102
RTVSPost2010PropOp28
 70
     1
102
RTVSPost2010Prop29
280
     1
102
RTVSPost2010PropOp29
 70
     1
102
RTVSPost2010Prop30
280
     1
102
RTVSPost2010PropOp30
 70
     1
102
RTVSPost2010Prop31
280
     0
102
RTVSPost2010PropOp31
 70
     1
102
RTVSPost2010Prop32
280
     0
102
RTVSPost2010PropOp32
 70
     1
102
RTVSPost2010Prop33
280
     0
102
RTVSPost2010PropOp33
 70
     1
102
RTVSPost2010Prop34
280
     0
102
RTVSPost2010PropOp34
 70
     1
102
RTVSPost2010Prop35
280
     0
102
RTVSPost2010PropOp35
 70
     1
102
RTVSPost2010Prop36
280
     0
102
RTVSPost2010PropOp36
 70
     1
102
RTVSPost2010Prop37
 90
       50
102
RTVSPost2010PropOp37
 70
     1
102
RTVSPost2010Prop38
140
0.0
102
RTVSPost2010PropOp38
 70
     1
102
RTVSPost2010Prop39
140
1.0
102
RTVSPost2010PropOp39
 70
     1
102
RTVSPost2010Prop40
 90
        0
102
RTVSPost2010PropOp40
 70
     1
102
RTVSPost2010Prop41ColorIndex
 90
       18
102
RTVSPost2010Prop41ColorRGB
 90
        0
102
RTVSPost2010PropOp41
 70
     1
102
RTVSPost2010Prop42
 90
       50
102
RTVSPost2010PropOp42
 70
     1
102
RTVSPost2010Prop43
 90
        3
102
RTVSPost2010PropOp43
 70
     1
102
RTVSPost2010Prop44ColorIndex
 90
        5
102
RTVSPost2010Prop44ColorRGB
 90
      255
102
RTVSPost2010PropOp44
 70
     1
102
RTVSPost2010Prop45
280
     0
102
RTVSPost2010PropOp45
 70
     1
102
RTVSPost2010Prop46
 90
       50
102
RTVSPost2010PropOp46
 70
     1
102
RTVSPost2010Prop47
 90
       50
102
RTVSPost2010PropOp47
 70
     1
102
RTVSPost2010Prop48
 90
       50
102
RTVSPost2010PropOp48
 70
     1
102
RTVSPost2010Prop49
280
     0
102
RTVSPost2010PropOp49
 70
     1
102
RTVSPost2010Prop50
 90
       50
102
RTVSPost2010PropOp50
 70
     1
102
RTVSPost2010Prop51ColorIndex
 90
      256
102
RTVSPost2010Prop51ColorRGB
 90
-16777216
102
RTVSPost2010PropOp51
 70
     0
102
RTVSPost2010Prop52
140
1.0
102
RTVSPost2010PropOp52
 70
     0
102
RTVSPost2010Prop53
 90
        2
102
RTVSPost2010PropOp53
 70
     1
102
RTVSPost2010Prop54
  1
strokes_ogs.tif
102
RTVSPost2010PropOp54
 70
     1
102
RTVSPost2010Prop55
280
     0
102
RTVSPost2010PropOp55
 70
     1
102
RTVSPost2010Prop56
140
1.0
102
RTVSPost2010PropOp56
 70
     1
102
RTVSPost2010Prop57
140
1.0
102
RTVSPost2010PropOp57
 70
     1
  0
XRECORD
  5
19BD
102
{ACAD_REACTORS
330
19BC
102
}
330
19BC
100
AcDbXrecord
280
     1
102
RTVSPost2010Prop28
280
     0
102
RTVSPost2010PropOp28
 70
     1
102
RTVSPost2010Prop29
280
     1
102
RTVSPost2010PropOp29
 70
     1
102
RTVSPost2010Prop30
280
     1
102
RTVSPost2010PropOp30
 70
     1
102
RTVSPost2010Prop31
280
     0
102
RTVSPost2010PropOp31
 70
     1
102
RTVSPost2010Prop32
280
     0
102
RTVSPost2010PropOp32
 70
     1
102
RTVSPost2010Prop33
280
     0
102
RTVSPost2010PropOp33
 70
     1
102
RTVSPost2010Prop34
280
     0
102
RTVSPost2010PropOp34
 70
     1
102
RTVSPost2010Prop35
280
     0
102
RTVSPost2010PropOp35
 70
     1
102
RTVSPost2010Prop36
280
     0
102
RTVSPost2010PropOp36
 70
     1
102
RTVSPost2010Prop37
 90
       50
102
RTVSPost2010PropOp37
 70
     1
102
RTVSPost2010Prop38
140
0.0
102
RTVSPost2010PropOp38
 70
     1
102
RTVSPost2010Prop39
140
1.0
102
RTVSPost2010PropOp39
 70
     1
102
RTVSPost2010Prop40
 90
        0
102
RTVSPost2010PropOp40
 70
     1
102
RTVSPost2010Prop41ColorIndex
 90
       18
102
RTVSPost2010Prop41ColorRGB
 90
        0
102
RTVSPost2010PropOp41
 70
     1
102
RTVSPost2010Prop42
 90
       50
102
RTVSPost2010PropOp42
 70
     1
102
RTVSPost2010Prop43
 90
        3
102
RTVSPost2010PropOp43
 70
     1
102
RTVSPost2010Prop44ColorIndex
 90
        5
102
RTVSPost2010Prop44ColorRGB
 90
      255
102
RTVSPost2010PropOp44
 70
     1
102
RTVSPost2010Prop45
280
     0
102
RTVSPost2010PropOp45
 70
     1
102
RTVSPost2010Prop46
 90
       50
102
RTVSPost2010PropOp46
 70
     1
102
RTVSPost2010Prop47
 90
       50
102
RTVSPost2010PropOp47
 70
     1
102
RTVSPost2010Prop48
 90
       50
102
RTVSPost2010PropOp48
 70
     1
102
RTVSPost2010Prop49
280
     0
102
RTVSPost2010PropOp49
 70
     1
102
RTVSPost2010Prop50
 90
       50
102
RTVSPost2010PropOp50
 70
     1
102
RTVSPost2010Prop51ColorIndex
 90
      256
102
RTVSPost2010Prop51ColorRGB
 90
-16777216
102
RTVSPost2010PropOp51
 70
     0
102
RTVSPost2010Prop52
140
1.0
102
RTVSPost2010PropOp52
 70
     0
102
RTVSPost2010Prop53
 90
        2
102
RTVSPost2010PropOp53
 70
     1
102
RTVSPost2010Prop54
  1
strokes_ogs.tif
102
RTVSPost2010PropOp54
 70
     1
102
RTVSPost2010Prop55
280
     0
102
RTVSPost2010PropOp55
 70
     1
102
RTVSPost2010Prop56
140
1.0
102
RTVSPost2010PropOp56
 70
     1
102
RTVSPost2010Prop57
140
1.0
102
RTVSPost2010PropOp57
 70
     1
  0
XRECORD
  5
19AF
102
{ACAD_REACTORS
330
19AE
102
}
330
19AE
100
AcDbXrecord
280
     1
102
RTVSPost2010Prop28
280
     0
102
RTVSPost2010PropOp28
 70
     1
102
RTVSPost2010Prop29
280
     1
102
RTVSPost2010PropOp29
 70
     1
102
RTVSPost2010Prop30
280
     1
102
RTVSPost2010PropOp30
 70
     1
102
RTVSPost2010Prop31
280
     0
102
RTVSPost2010PropOp31
 70
     1
102
RTVSPost2010Prop32
280
     0
102
RTVSPost2010PropOp32
 70
     1
102
RTVSPost2010Prop33
280
     0
102
RTVSPost2010PropOp33
 70
     1
102
RTVSPost2010Prop34
280
     0
102
RTVSPost2010PropOp34
 70
     1
102
RTVSPost2010Prop35
280
     0
102
RTVSPost2010PropOp35
 70
     1
102
RTVSPost2010Prop36
280
     0
102
RTVSPost2010PropOp36
 70
     1
102
RTVSPost2010Prop37
 90
       50
102
RTVSPost2010PropOp37
 70
     1
102
RTVSPost2010Prop38
140
0.0
102
RTVSPost2010PropOp38
 70
     1
102
RTVSPost2010Prop39
140
1.0
102
RTVSPost2010PropOp39
 70
     1
102
RTVSPost2010Prop40
 90
        0
102
RTVSPost2010PropOp40
 70
     1
102
RTVSPost2010Prop41ColorIndex
 90
       18
102
RTVSPost2010Prop41ColorRGB
 90
        0
102
RTVSPost2010PropOp41
 70
     1
102
RTVSPost2010Prop42
 90
       50
102
RTVSPost2010PropOp42
 70
     1
102
RTVSPost2010Prop43
 90
        3
102
RTVSPost2010PropOp43
 70
     1
102
RTVSPost2010Prop44ColorIndex
 90
        5
102
RTVSPost2010Prop44ColorRGB
 90
      255
102
RTVSPost2010PropOp44
 70
     1
102
RTVSPost2010Prop45
280
     0
102
RTVSPost2010PropOp45
 70
     1
102
RTVSPost2010Prop46
 90
       50
102
RTVSPost2010PropOp46
 70
     1
102
RTVSPost2010Prop47
 90
       50
102
RTVSPost2010PropOp47
 70
     1
102
RTVSPost2010Prop48
 90
       50
102
RTVSPost2010PropOp48
 70
     1
102
RTVSPost2010Prop49
280
     0
102
RTVSPost2010PropOp49
 70
     1
102
RTVSPost2010Prop50
 90
       50
102
RTVSPost2010PropOp50
 70
     1
102
RTVSPost2010Prop51ColorIndex
 90
      256
102
RTVSPost2010Prop51ColorRGB
 90
-16777216
102
RTVSPost2010PropOp51
 70
     0
102
RTVSPost2010Prop52
140
1.0
102
RTVSPost2010PropOp52
 70
     0
102
RTVSPost2010Prop53
 90
        2
102
RTVSPost2010PropOp53
 70
     1
102
RTVSPost2010Prop54
  1
strokes_ogs.tif
102
RTVSPost2010PropOp54
 70
     1
102
RTVSPost2010Prop55
280
     0
102
RTVSPost2010PropOp55
 70
     1
102
RTVSPost2010Prop56
140
1.0
102
RTVSPost2010PropOp56
 70
     1
102
RTVSPost2010Prop57
140
1.0
102
RTVSPost2010PropOp57
 70
     1
  0
XRECORD
  5
19CF
102
{ACAD_REACTORS
330
19CE
102
}
330
19CE
100
AcDbXrecord
280
     1
102
RTVSPost2010Prop28
280
     0
102
RTVSPost2010PropOp28
 70
     1
102
RTVSPost2010Prop29
280
     1
102
RTVSPost2010PropOp29
 70
     1
102
RTVSPost2010Prop30
280
     1
102
RTVSPost2010PropOp30
 70
     1
102
RTVSPost2010Prop31
280
     0
102
RTVSPost2010PropOp31
 70
     1
102
RTVSPost2010Prop32
280
     0
102
RTVSPost2010PropOp32
 70
     1
102
RTVSPost2010Prop33
280
     0
102
RTVSPost2010PropOp33
 70
     1
102
RTVSPost2010Prop34
280
     0
102
RTVSPost2010PropOp34
 70
     1
102
RTVSPost2010Prop35
280
     0
102
RTVSPost2010PropOp35
 70
     1
102
RTVSPost2010Prop36
280
     0
102
RTVSPost2010PropOp36
 70
     1
102
RTVSPost2010Prop37
 90
       50
102
RTVSPost2010PropOp37
 70
     1
102
RTVSPost2010Prop38
140
0.0
102
RTVSPost2010PropOp38
 70
     1
102
RTVSPost2010Prop39
140
1.0
102
RTVSPost2010PropOp39
 70
     1
102
RTVSPost2010Prop40
 90
        0
102
RTVSPost2010PropOp40
 70
     1
102
RTVSPost2010Prop41ColorIndex
 90
       18
102
RTVSPost2010Prop41ColorRGB
 90
        0
102
RTVSPost2010PropOp41
 70
     1
102
RTVSPost2010Prop42
 90
       50
102
RTVSPost2010PropOp42
 70
     1
102
RTVSPost2010Prop43
 90
        3
102
RTVSPost2010PropOp43
 70
     1
102
RTVSPost2010Prop44ColorIndex
 90
        5
102
RTVSPost2010Prop44ColorRGB
 90
      255
102
RTVSPost2010PropOp44
 70
     1
102
RTVSPost2010Prop45
280
     0
102
RTVSPost2010PropOp45
 70
     1
102
RTVSPost2010Prop46
 90
       50
102
RTVSPost2010PropOp46
 70
     1
102
RTVSPost2010Prop47
 90
       50
102
RTVSPost2010PropOp47
 70
     1
102
RTVSPost2010Prop48
 90
       50
102
RTVSPost2010PropOp48
 70
     1
102
RTVSPost2010Prop49
280
     0
102
RTVSPost2010PropOp49
 70
     1
102
RTVSPost2010Prop50
 90
       50
102
RTVSPost2010PropOp50
 70
     1
102
RTVSPost2010Prop51ColorIndex
 90
      256
102
RTVSPost2010Prop51ColorRGB
 90
-16777216
102
RTVSPost2010PropOp51
 70
     0
102
RTVSPost2010Prop52
140
1.0
102
RTVSPost2010PropOp52
 70
     0
102
RTVSPost2010Prop53
 90
        2
102
RTVSPost2010PropOp53
 70
     1
102
RTVSPost2010Prop54
  1
strokes_ogs.tif
102
RTVSPost2010PropOp54
 70
     1
102
RTVSPost2010Prop55
280
     0
102
RTVSPost2010PropOp55
 70
     1
102
RTVSPost2010Prop56
140
1.0
102
RTVSPost2010PropOp56
 70
     1
102
RTVSPost2010Prop57
140
1.0
102
RTVSPost2010PropOp57
 70
     1
  0
ENDSEC
  0
SECTION
  2
THUMBNAILIMAGE
 90
    24616
310
28000000800000004000000001001800000000000000000000000000000000000000000000000000000000000000000000000000000000000000000000000000000000000000000000000000000000000000000000000000000000000000000000000000FFFFFFFFFFFFFFFFFFFFFFFFFFFFFFFFFFFFFFFFFFFFFFFFFFFFFF
310
FFFFFFFFFFFFFFFFFFFFFFFFFFFFFFFFFFFFFFFFFFFFFFFFFFFFFFFFFFFFFFFFFFFFFFFFFFFFFFFFFFFFFFFFFFFFFFFFFFFFFFFFFFFFFFFFFFFFFFFFFFFFFFFFFFFFFFFFFFFFFFFFFFFFFFFFFFFFFFFFFFFFFFFFFFFFFFFFFFFFFFFFFFFFFFFFFFFFFFFFFFFFFFFFFFFFFFFFFFFFFFFFFFFFFFFFFFFFFFFFFFFFFFFFFFFFFF
310
FFFFFFFFFFFFFFFFFFFFFFFFFFFFFFFFFFFFFFFFFFFFFFFFFFFFFFFFFFFFFFFFFFFFFFFFFFFFFFFFFFFFFFFFFFFFFFFFFFFFFFFFFFFFFFFFFFFFFFFFFFFFFFFFFFFFFFFFFFFFFFFFFFFFFFFFFFFFFFFFFFFFFFFFFFFFFFFFFFFFFFFFFFFFFFFFFFFFFFFFFFFFFFFFFFFFFFFFFFFFFFFFFF0000000000000000000000000000
310
00000000000000000000000000000000000000000000000000000000000000000000000000000000000000000000000000000000000000000000000000000000000000000000000000000000000000000000000000000000000000000000000000000000000000FFFFFF000000000000000000000000000000000000000000
310
00000000000000000000000000000000000000000000000000000000000000000000000000000000000000000000000000000000000000000000000000000000000000000000000000000000000000000000000000000000000000000000000000000000000000000000000000000000000000000000000000000000000000
310
0000000000000000000000000000000000000000000000000000000000000000000000000000000000000000000000000000000000000000000000000000000000000000000000000000000000000000000000000000000000000000000000000000000000000000000000000000000000FFFFFF0000000000000000000000
310
00000000000000000000000000000000000000000000000000000000000000000000000000000000000000000000000000000000000000000000000000000000000000000000000000000000000000000000000000000000000000000000000000000000000000000000FFFFFF00000000BFFF00BFFF00BFFF00BFFF00BFFF
310
00BFFF00BFFF00BFFF00BFFF00BFFF00BFFF00BFFF00BFFF00BFFF00BFFF00BFFF00BFFF00BFFF00BFFF00BFFF00BFFF00BFFF00BFFF00BFFF00BFFF00BFFF00BFFF00BFFF00BFFF00BFFF00BFFF00BFFF00BFFF00BFFF00BFFF00BFFF00BFFF00BFFF00BFFF00BFFF00BFFF00BFFF00BFFF00BFFF00BFFF00BFFF00BFFFFF
310
FFFFFFFFFFFFFFFFFFFFFFFFFFFFFFFFFFFFFFFFFFFFFFFFFFFFFFFFFFFFFFFFFFFFFFFFFFFFFFFFFFFFFFFFFFFFFFFFFFFFFFFFFFFFFFFFFFFFFFFFFFFFFFFFFFFFFFFFFFFFFFFFFFFFFFFFFFFFFFFF007299FFFFFFFFFFFFFFFFFFFFFFFFFFFFFFFFFFFFFFFFFFFFFFFFFFFFFFFFFFFF000000FFFFFF0000000000000000
310
00000000000000000000000000000000000000000000000000000000000000000000000000000000000000000000000000000000000000000000000000000000000000000000000000000000000000000000000000000000000000000000000000000000000000000000000000FFFFFF00000000BFFF000000000000000000
310
00000000000000000000000000000000000000000000000000000000000000000000000000000000000000000000000000000000000000000000000000000000000000000000000000000000000000000000000000000000000000000000000000000000000000000000000000000000000000000000000000000000000000
310
0000FFFFFFFFFFFFFFFFFFFFFFFFFFFFFFFFFFFFFFFFFFFFFFFFFFFFFFFFFFFFFFFFFFFFFFFFFFFFFFFFFFFFFFFFFFFFFFFFFFFFFFFFFFFFFFFFFFFFFFFFFFFFFFFFFFFFFFFFFFFFFFFF007299007299007299007299FFFFFFFFFFFFFFFFFFFFFFFFFFFFFFFFFFFFFFFFFFFFFFFFFFFFFFFFFFFF000000FFFFFF0000000000
310
00000000000000000000000000000000000000000000000000000000000000000000000000000000000000000000000000000000000000000000000000000000000000000000000000000000000000000000000000000000000000000000000000000000000000000000000000000000FFFFFF00000000BFFF000000000000
310
00000000000000000000000000000000000000000000000000000000000000000000000000000000000000000000000000000000000000000000000000000000000000000000000000000000000000000000000000000000000000000000000000000000000000000000000000000000000000000000000000000000000000
310
0000000000FFFFFFFFFFFFFFFFFFFFFFFFFFFFFFFFFFFFFFFFFFFFFFFFFFFFFFFFFFFFFFFFFFFFFFFFFFFFFFFFFFFFFFFFFFFFFFFFFFFFFFFFFFFFFFFFFFFFFFFFFFFFFFFFFFFFFFFFFFFFFFFF007299007299007299007299FFFFFFFFFFFFFFFFFFFFFFFFFFFFFFFFFFFF000000000000000000FFFFFF000000FFFFFF0000
310
00000000000000000000000000000000000000000000000000000000000000000000000000000000000000000000000000000000000000000000000000000000000000000000000000000000000000000000000000000000000000000000000000000000000000000000000000000000000000FFFFFF00000000BFFF000000
310
00000000000000000000000000000000000000000000000000000000000000000000000000000000000000000000000000000000000000000000000000000000000000000000000000000000000000000000000000000000000000000000000000000000000000000000000000000000000000000000000000000000000000
310
0000000000000000FFFFFFFFFFFFFFFFFFFFFFFFFFFFFFFFFFFFFFFFFFFFFFFFFFFFFFFFFFFFFFFFFFFFFFFFFFFFFFFFFFFFFFFFFFFFFFFFFFFFFFFFFFFFFFFFFFFFFFFFFFFFFFFFFFFFFFFFFFFFFFFFFFFFFFFFFFFFFFFFFFFFFFFFFFFFFFFFFFFFFFFFFFFFFFFFFFFFFFFFFFFFFFFFFFFFFFFFFFFFFFFFFFFF000000FFFF
310
FF000000000000000000000000000000000000000000000000000000000000000000000000000000000000000000000000000000000000000000000000000000000000000000000000000000000000000000000000000000000000000000000000000000000000000000000000000000000000000000FFFFFF00000000BFFF
310
00000000000000000000000000000000000000000000000000000000000000000000000000000000000000000000000000000000000000000000000000000000000000000000000000000000000000000000000000000000000000000000000000000000000000000000000000000000000000000000000000000000000000
310
0000000000000000000000000000000000000000000000000000000000000000000000000000000000000000000000000000000000000000000000000000000000000000000000000000000000000000FFFFFF007299FFFFFFFFFFFFFFFFFFFFFFFFFFFFFFFFFFFFFFFFFFFFFFFFFFFFFFFFFFFFFFFFFFFFFFFFFFFFFF0000
310
00FFFFFF000000000000000000000000000000000000000000000000000000000000000000000000000000000000000000000000000000000000000000000000000000000000000000000000000000000000000000000000000000000000000000000000000000000000000000000000000000000000000000FFFFFF000000
310
00BFFF00000000000000000000000000000000000000000000000000000000000000000000000000000000000000000000000000000000000000000000000000000000000000000000000000000000000000000000000000000000000000000000000000000000000000000000000000000000000000000000000000000000
310
0000000000000000000000000000000000000000000000000000000000000000000000000000000000000000000000000000000000000000000000000000000000000000000000000000000000000000000000FFFFFFFFFFFFFFFFFFFFFFFFFFFFFFFFFFFFFFFFFFFFFFFFFFFFFFFFFFFFFFFFFFFFFFFFFFFFFF000000FFFF
310
FF000000FFFFFF000000000000000000000000000000000000000000000000000000000000000000000000000000000000000000000000000000000000000000000000000000000000000000000000000000000000000000000000000000000000000000000000000000000000000000000000000000000000000000FFFFFF
310
00000000BFFF00000000000000000000000000000000000000000000000000000000000000000000000000000000000000000000000000000000000000000000000000000000000000000000000000000000000000000000000000000000000000000000000000000000000000000000000000000000000000000000000000
310
0000000000000000000000000000000000000000000000000000000000000000000000000000000000000000000000FFFFFF000000000000000000000000000000000000000000000000000000000000000000000000FFFFFFFFFFFFFFFFFFFFFFFFFFFFFFFFFFFFFFFFFFFFFFFFFFFFFFFFFFFFFFFFFFFFFFFFFFFFFFFFFF
310
FFFFFFFF000000FFFFFF000000000000000000000000000000000000000000000000000000000000000000000000000000000000000000000000000000000000000000000000000000000000000000000000000000000000000000000000000000000000000000000000000000000000000000000000000000000000000000
310
FFFFFF00000000BFFF00000000000000000000000000000000000000000000000000000000000000000000000000000000000000000000000000000000000000000000000000000000000000000000000000000000000000000000000000000000000000000000000000000000000000000000000000000000000000000000
310
0000000000000000000000000000000000000000000000000000000000000000000000000000000000000000000000FFFFFF000000000000000000000000000000000000000000000000000000000000000000000000000000FFFFFFFFFFFFFFFFFFFFFFFFFFFFFFFFFFFFFFFFFFFFFFFFFFFFFFFFFFFFFFFFFFFFFFFFFFFF
310
FF000000FFFFFF000000FFFFFF000000000000000000000000000000000000000000000000000000000000000000000000000000000000000000000000000000000000000000000000000000000000000000000000000000000000000000000000000000000000000000000000000000000000000000000000000000000000
310
000000FFFFFF00000000BFFF00000000000000000000000000000000000000000000000000000000000000000000000000000000000000000000000000000000000000000000000000000000000000000000000000000000000000000000000000000000000000000000000000000000000000000000000000000000000000
310
0000000000000000000000000000000000000000000000000000000000000000000000000000000000000000000000FFFFFF000000000000000000000000000000000000000000000000000000000000000000000000000000000000FFFFFFFFFFFF007299FFFFFF007299FFFFFFFFFFFFFFFFFFFFFFFFFFFFFFFFFFFFFFFF
310
FFFFFFFFFFFFFFFFFFFF000000FFFFFF000000000000000000000000000000000000000000000000000000000000000000000000000000000000000000000000000000000000000000000000000000000000000000000000000000000000000000000000000000000000000000000000000000000000000000000000000000
310
000000000000FFFFFF00000000BFFF00000000000000000000000000000000000000000000000000000000000000000000000000000000000000000000000000000000000000000000000000000000000000000000000000000000000000000000000000000000000000000000000000000000000000000000000000000000
310
0000000000000000000000000000000000000000000000000000000000000000000000000000000000000000000000FFFFFF000000000000000000000000000000000000000000000000000000000000000000000000000000000000000000000000FFFFFFFFFFFFFFFFFFFFFFFFFFFFFFFFFFFFFFFFFFFFFFFFFFFFFFFFFF
310
FFFFFFFFFFFFFFFFFFFFFFFFFF000000FFFFFF000000000000000000000000000000000000000000000000000000000000000000000000000000000000000000000000000000000000000000000000000000000000000000000000000000000000000000000000000000000000000000000000000000000000000000000000
310
000000000000000000FFFFFF00000000BFFF00000000000000000000000000000000000000000000000000000000000000000000000000000000000000000000000000000000000000000000000000000000000000000000000000000000000000000000000000000000000000000000000000000000000000000000000000
310
0000000000000000000000000000000000000000000000000000000000000000000000000000000000000000FFFFFFFFFFFF0000000000000000000000000000000000000000000000000000000000000000000000000000000000000000000000000000000000000000000000000000000000000000000000000000000000
310
0000000000000000000000000000BFFF000000FFFFFF000000000000000000000000000000000000000000000000000000000000000000000000000000000000000000000000000000000000000000000000000000000000000000000000000000000000000000000000000000000000000000000000000000000000000000
310
000000000000000000000000FFFFFF00000000BFFF00000000000000000000000000000000000000000000000000000000000000000000000000000000000000000000000000000000000000000000000000000000000000000000000000000000000000000000000000000000000000000000000000000000729900000000
310
0000000000000000000000000000000000000000000000000000000000000000000000000000000000000000FFFFFFFFFFFF0000000000000000000000000000000000000000000000000000000000000000000000000000000000000000000000000000000000000000000000000000000000000000000000000000000000
310
0000000000000000000000000000000000BFFF000000FFFFFF000000000000000000000000000000000000000000000000000000000000000000000000000000000000000000000000000000000000000000000000000000000000000000000000000000000000000000000000000000000000000000000000000000000000
310
000000000000000000000000000000FFFFFF00000000BFFF000000000000000000000000000000000000000000000000000000000000000000000000000000000000000000000000000000000000000000000000000000000000000000000000000000000000000000000000000000000000000000000000000000007299FF
310
FFFF000000000000000000000000000000000000000000000000000000000000000000000000000000000000FFFFFFFFFFFF0000000000000000000000000000000000000000000000000000000000000000000000000000000000000000000000000000000000000000000000000000000000000000000000000000000000
310
0000000000000000000000000000000000000000BFFF000000FFFFFF000000000000000000000000000000000000000000000000000000000000000000000000000000000000000000000000000000000000000000000000000000000000000000000000000000000000000000000000000000000000000000000000000000
310
000000000000000000000000000000000000FFFFFF00000000BFFF00000000000000000000000000000000000000000000000000000000000000000000000000000000000000000000000000000000000000000000000000000000000000000000000000000000000000000000000000000000000000000000000000000000
310
7299FFFFFF000000000000000000000000000000000000000000000000000000000000000000000000000000FFFFFFFFFFFF0000000000000000000000000000000000000000000000000000000000000000000000000000000000000000000000000000000000000000000000000000000000000000000000000000000000
310
0000000000000000000000000000000000000000000000BFFF000000FFFFFF000000000000000000000000000000000000000000000000000000000000000000000000000000000000000000000000000000000000000000000000000000000000000000000000000000000000000000000000000000000000000000000000
310
000000000000000000000000000000000000000000FFFFFF00000000BFFF000000000000000000000000000000000000000000000000000000000000000000000000000000000000000000000000000000000000000000000000000000000000FFFFFF000000000000000000000000000000000000000000000000000000FF
310
FFFFFFFFFFFFFFFFFFFFFFFFFFFFFFFFFFFFFFFFFFFFFFFFFFFFFFFFFFFFFFFFFFFFFFFFFFFFFFFFFFFFFFFFFFFFFFFFFFFFFFFFFFFFFFFFFFFFFFFFFFFFFFFFFFFFFFFFFFFFFFFFFFFFFFFFFFFFFFFFFFFFFFFFFFFFFFFFFFFFFFFFFFFFFF0000000000000000000000000000000000000000000000000000000000000000
310
0000000000000000000000000000000000000000000000000000BFFF000000FFFFFF000000000000000000000000000000000000000000000000000000000000000000000000000000000000000000000000000000000000000000000000000000000000000000000000000000000000000000000000000000000000000000
310
000000000000000000000000000000000000000000000000FFFFFF00000000BFFF000000000000000000000000000000000000000000000000000000000000000000000000000000000000000000000000000000000000000000000000000000000000FFFFFF00000000000000000000000000000000000000000000000000
310
0000FFFFFFFFFFFFFFFFFFFFFFFFFFFFFFFFFFFFFFFFFFFFFFFFFFFFFFFFFFFFFFFFFFFFFFFFFFFFFFFFFFFFFFFFFFFFFFFFFFFFFFFFFFFFFFFFFFFFFFFFFFFFFFFFFFFFFFFFFFFFFFFFFFFFFFFFFFFFFFFFFFFFFFFFFFFFFFFFFFFFFFFFFFFFFFFF0000000000000000000000000000000000000000000000000000000000
310
0000000000000000000000000000000000000000000000000000000000BFFF000000FFFFFF000000000000000000000000000000000000000000000000000000000000000000000000000000000000000000000000000000000000000000000000000000000000000000000000000000000000000000000000000000000000
310
000000000000000000000000000000000000000000000000000000FFFFFF00000000BFFF000000000000000000000000000000000000000000000000000000000000000000000000000000000000000000000000000000000000000000000000000000000000FFFFFF00000000000000000000000000000000000000000000
310
0000000000FFFFFF000000FFFFFF000000FFFFFF000000000000000000000000000000000000000000000000000000000000000000000000000000000000000000FFFFFF0000000000000000000000000000000000000000000000000000000000000000000000000000000000000000000000000000000000000000000000
310
0000000000000000000000000000000000000000000000000000000000000000BFFF000000FFFFFF000000000000000000000000000000000000000000000000000000000000000000000000000000000000000000000000000000000000000000000000000000000000000000000000000000000000000000000000000000
310
000000000000000000000000000000000000000000000000000000000000FFFFFF00000000BFFF000000000000000000000000000000000000000000000000000000000000000000000000000000000000000000000000000000000000000000000000000000000000FFFFFF00000000000000000000000000000000000000
310
0000000000000000FFFFFF000000FFFFFF000000000000FFFFFF000000000000000000000000000000000000000000000000000000000000000000000000000000000000000000FFFFFF0000000000000000000000000000000000000000000000000000000000000000000000000000000000000000000000000000000000
310
0000000000000000000000000000000000000000000000000000000000000000000000BFFF000000FFFFFF000000000000000000000000000000000000000000000000000000000000000000000000000000000000000000000000000000000000000000000000000000000000000000000000000000000000000000000000
310
000000000000000000000000000000000000000000000000000000000000000000FFFFFF00000000BFFF000000000000000000000000000000000000000000000000000000000000000000000000000000000000000000000000000000000000000000000000000000000000FFFFFF00000000000000000000000000000000
310
0000000000000000000000FFFFFF000000000000FFFFFF000000FFFFFF000000000000000000000000000000000000000000000000000000000000000000000000000000000000000000FFFFFF0000000000000000000000000000000000000000000000000000000000000000000000000000000000000000000000000000
310
0000000000000000000000000000000000000000000000000000000000000000000000000000BFFF000000FFFFFF000000000000000000000000000000000000000000000000000000000000000000000000000000000000000000000000000000000000000000000000000000000000000000000000000000000000000000
310
000000000000000000000000000000000000000000000000000000000000000000000000FFFFFF00000000BFFF000000000000000000000000000000000000000000000000000000000000000000000000000000000000000000000000000000000000000000000000000000000000FFFFFF00000000000000000000000000
310
0000FFFFFF000000000000000000FFFFFF000000000000000000FFFFFF000000FFFFFFFFFFFFFFFFFFFFFFFFFFFFFFFFFFFF000000000000000000000000000000000000000000000000000000000000FFFFFFFFFFFFFFFFFFFFFFFFFFFFFFFFFFFFFFFFFFFFFFFFFFFFFF0000000000000000000000000000000000000000
310
0000000000000000000000000000000000000000000000000000000000000000000000000000000000BFFF000000FFFFFF000000000000000000000000000000000000000000000000000000000000000000000000000000000000000000000000000000000000000000000000000000000000000000000000000000000000
310
000000000000000000000000000000000000000000000000000000000000000000000000000000FFFFFF00000000BFFF000000000000000000000000000000000000000000000000000000000000000000000000000000000000000000000000000000000000000000000000000000000000FFFFFF00000000000000000000
310
0000FFFFFFFFFFFF000000000000000000FFFFFF000000000000000000FFFFFFFFFFFFFFFFFFFFFFFFFFFFFFFFFFFFFFFFFFFFFFFF000000000000000000000000000000000000000000000000000000000000FFFFFFFFFFFFFFFFFFFFFFFFFFFFFFFFFFFFFFFFFFFFFFFFFFFFFFFFFFFFFFFFFFFFFFFFFFFFFFFFFFFF0000
310
0000000000000000000000000000000000000000000000000000000000000000000000000000000000000000BFFF000000FFFFFF000000000000000000000000000000000000000000000000000000000000000000000000000000000000000000000000000000000000000000000000000000000000000000000000000000
310
000000000000000000000000000000000000000000000000000000000000000000000000000000000000FFFFFF00000000BFFF000000000000000000000000000000000000000000000000000000000000000000000000000000000000000000000000000000000000000000000000000000000000FFFFFF00000000000000
310
0000FFFFFFFFFFFF000000000000000000000000FFFFFF000000000000000000000000FFFFFFFFFFFFFFFFFFFFFFFFFFFFFFFFFFFFFFFFFF000000000000000000000000000000000000000000000000000000000000000000FFFFFFFFFFFFFFFFFFFFFFFFFFFFFFFFFFFFFFFFFFFFFFFFFFFFFFFFFFFFFFFFFFFFFFFFFFFF
310
FF00000000000000000000000000000000000000000000000000000000000000000000000000000000000000000000BFFF000000FFFFFF000000000000000000000000000000000000000000000000000000000000000000000000000000000000000000000000000000000000000000000000000000000000000000000000
310
000000000000000000000000000000000000000000000000000000000000000000000000000000000000000000FFFFFF00000000BFFF000000000000000000000000000000000000000000000000000000000000000000000000000000000000000000000000000000000000000000000000000000000000FFFFFF00000000
310
0000FFFFFFFFFFFF000000000000000000000000000000FFFFFF0000000000000000000000000000000000000000000000000000000000000000000000000000000000000000000000000000000000000000000000000000000000000000000000000000000000000000000000000000000000000000000000000000000000
310
0000000000000000000000000000000000000000000000000000000000000000000000000000000000000000000000000000BFFF000000FFFFFF000000000000000000000000000000000000000000000000000000000000000000000000000000000000000000000000000000000000000000000000000000000000000000
310
000000000000000000000000000000000000000000000000000000000000000000000000000000000000000000000000FFFFFF00000000BFFF000000000000000000000000000000000000000000000000000000000000000000000000000000000000000000000000000000000000000000000000000000000000FFFFFF00
310
0000FFFFFF000000000000000000000000000000000000000000FFFFFF0000000000000000000000000000000000000000000000000000000000000000000000000000000000000000000000000000000000000000000000000000000000000000000000000000000000000000000000000000000000000000000000000000
310
0000000000000000000000000000000000000000000000000000000000000000000000000000000000000000000000000000000000BFFF000000FFFFFF000000000000000000000000000000000000000000000000000000000000000000000000000000000000000000000000000000000000000000000000000000000000
310
000000000000000000000000000000000000000000000000000000000000000000000000000000000000000000000000000000FFFFFF00000000BFFF000000000000000000000000000000000000000000000000000000000000000000000000000000000000000000000000000000000000000000000000000000000000FF
310
FFFFFFFFFF000000000000000000000000000000000000000000000000FFFFFF000000000000FFFFFFFFFFFFFFFFFFFFFFFFFFFFFFFFFFFFFFFFFFFFFFFFFFFFFFFFFFFFFFFFFFFFFFFFFFFFFF0000000000000000000000000000000000000000000000000000000000000000000000000000000000000000000000000000
310
0000000000000000000000000000000000000000000000000000000000000000000000000000000000000000000000000000000000000000BFFF000000FFFFFF000000000000000000000000000000000000000000000000000000000000000000000000000000000000000000000000000000000000000000000000000000
310
000000000000000000000000000000000000000000000000000000000000000000000000000000000000000000000000000000000000FFFFFF00000000BFFF00000000000000000000000000000000000000000000000000000000000000000000000000000000000000000000000000000000000000000000000000000000
310
0000FFFFFF000000000000000000000000000000000000000000000000000000FFFFFF000000FFFFFFFFFFFFFFFFFFFFFFFFFFFFFFFFFFFFFFFFFFFFFFFFFFFFFFFFFFFFFFFFFFFFFFFFFFFFFFFFFFFF0000000000000000000000000000000000000000000000000000000000000000000000000000000000000000000000
310
0000000000000000000000000000000000000000000000000000000000000000000000000000000000000000000000000000000000000000000000BFFF000000FFFFFF000000000000000000000000000000000000000000000000000000000000000000000000000000000000000000000000000000000000000000000000
310
000000000000000000000000000000000000000000000000000000000000000000000000000000000000000000000000000000000000000000FFFFFF00000000BFFF00000000000000000000000000000000000000000000000000000000000000000000000000000000000000000000000000000000000000000000000000
310
0000000000FFFFFF000000000000000000000000000000000000000000000000000000FFFFFF000000FFFFFFFFFFFFFFFFFFFFFFFFFFFFFFFFFFFFFFFFFFFFFFFFFFFFFF0000000000000000000000000000000000000000000000000000000000000000000000000000000000000000000000000000000000000000000000
310
0000000000000000000000000000000000000000000000000000000000000000000000000000000000000000000000000000000000000000000000000000BFFF000000FFFFFF000000000000000000000000000000000000000000000000000000000000000000000000000000000000000000000000000000000000000000
310
000000000000000000000000000000000000000000000000000000000000000000000000000000000000000000000000000000000000000000000000FFFFFF00000000BFFF00000000000000000000000000000000000000000000000000000000000000000000000000000000000000000000000000000000000000000000
310
0000000000000000FFFFFF000000000000000000000000000000000000000000000000000000FFFFFFFFFFFF0000000000000000000000000000000000000000000000000000000000000000000000000000000000000000000000000000000000000000000000000000000000000000000000000000000000000000000000
310
0000000000000000000000000000000000000000000000000000000000000000000000000000000000000000000000000000000000000000000000000000000000BFFF000000FFFFFF000000000000000000000000000000000000000000000000000000000000000000000000000000000000000000000000000000000000
310
000000000000000000000000000000000000000000000000000000000000000000000000000000000000000000000000000000000000000000000000000000FFFFFF00000000BFFF00000000000000000000000000000000000000000000000000000000000000000000000000000000000000000000000000000000000000
310
0000000000000000000000FFFFFF000000000000000000000000000000000000000000000000000000FFFFFFFFFFFF000000FFFFFFFFFFFFFFFFFFFFFFFFFFFFFFFFFFFFFFFFFF0000000000000000000000000000000000000000000000000000000000000000000000000000000000000000000000000000000000000000
310
0000000000000000000000000000000000000000000000000000000000000000000000000000000000000000000000000000000000000000000000000000000000000000BFFF000000FFFFFF000000000000000000000000000000000000000000000000000000000000000000000000000000000000000000000000000000
310
000000000000000000000000000000000000000000000000000000000000000000000000000000000000000000000000000000000000000000000000000000000000FFFFFF00000000BFFF00000000000000000000000000000000000000000000000000000000000000000000000000000000000000000000000000000000
310
0000000000000000000000000000FFFFFF000000000000000000000000000000000000000000000000000000FFFFFF000000FFFFFFFFFFFFFFFFFFFFFFFFFFFFFFFFFFFFFFFFFFFFFFFFFFFFFFFFFFFFFFFFFFFFFFFF0000000000000000000000000000000000000000000000000000000000000000000000000000000000
310
0000000000000000000000000000000000000000000000000000000000000000000000000000000000000000000000000000000000000000000000000000000000000000000000BFFF000000FFFFFF000000000000000000000000000000000000000000000000000000000000000000000000000000000000000000000000
310
000000000000000000000000000000000000000000000000000000000000000000000000000000000000000000000000000000000000000000000000000000000000000000FFFFFF00000000BFFF00000000000000000000000000000000000000000000000000000000000000000000000000000000000000000000000000
310
0000000000000000000000000000000000FFFFFF000000000000000000000000000000000000000000000000000000FFFFFF000000FFFFFFFFFFFFFFFFFFFFFFFFFFFFFFFFFFFFFFFFFFFFFFFFFFFFFFFFFFFFFFFFFFFFFFFF0000000000000000000000000000000000000000000000000000000000000000000000000000
310
0000000000000000000000000000000000000000000000000000000000000000000000000000000000000000000000000000000000000000000000000000000000000000000000000000BFFF000000FFFFFF000000000000000000000000000000000000000000000000000000000000000000000000000000000000000000
310
000000000000000000000000000000000000000000000000000000000000000000000000000000000000000000000000000000000000000000000000000000000000000000000000FFFFFF00000000BFFF00000000000000000000000000000000000000000000000000000000000000000000000000000000000000000000
310
0000000000000000000000000000000000000000FFFFFF000000000000000000000000000000000000000000000000000000FFFFFFFFFFFF0000000000000000000000000000000000000000000000000000000000000000000000000000000000000000000000000000000000000000000000000000000000000000000000
310
0000000000000000000000000000000000000000000000000000000000000000000000000000000000000000000000000000000000000000000000000000000000000000000000000000000000BFFF000000FFFFFF000000000000000000000000000000000000000000000000000000000000000000000000000000000000
310
000000000000000000000000000000000000000000000000000000000000000000000000000000000000000000000000000000000000000000000000000000000000000000000000000000FFFFFF00000000BFFF00000000000000000000000000000000000000000000000000000000000000000000000000000000000000
310
0000000000000000000000000000000000000000000000FFFFFF000000000000000000000000000000000000000000FFFFFFFFFFFFFFFFFFFFFFFF0000000000000000000000000000000000000000000000000000000000000000000000000000000000000000000000000000000000000000000000000000000000000000
310
0000000000000000000000000000000000000000000000000000000000000000000000000000000000000000000000000000000000000000000000000000000000000000000000000000000000000000BFFF000000FFFFFF000000000000000000000000000000000000000000000000000000000000000000000000000000
310
000000000000000000000000000000000000000000000000000000000000000000000000000000000000000000000000000000000000000000000000000000000000000000000000000000000000FFFFFF00000000BFFF00000000000000000000000000000000000000000000000000000000000000000000000000000000
310
0000000000000000000000000000000000000000000000000000FFFFFF000000000000000000000000000000000000007299007299007299FFFFFF000000000000000000000000000000FFFFFFFFFFFFFFFFFFFFFFFFFFFFFF0000000000000000000000000000000000000000000000000000000000000000000000000000
310
0000000000000000000000000000000000000000000000000000000000000000000000000000000000000000000000000000000000000000000000000000000000000000000000000000000000000000000000BFFF000000FFFFFF000000000000000000000000000000000000000000000000000000000000000000000000
310
000000000000000000000000000000000000000000000000000000000000000000000000000000000000000000000000000000000000000000000000000000000000000000000000000000000000000000FFFFFF00000000BFFF00000000000000000000000000000000000000000000000000000000000000000000000000
310
0000000000000000000000000000000000000000000000000000000000FFFFFF000000000000000000000000000000000000000000000000000000FFFFFFFFFFFFFFFFFFFFFFFFFFFFFFFFFFFFFFFFFFFFFFFFFFFFFFFFFFFFFFFFFF0000000000000000000000000000000000000000000000000000000000000000000000
310
0000000000000000000000000000000000000000000000000000000000000000000000000000000000000000000000000000000000000000000000000000000000000000000000000000000000000000000000000000BFFF000000FFFFFF000000000000000000000000000000000000000000000000000000000000000000
310
000000000000000000000000000000000000000000000000000000000000000000000000000000000000000000000000000000000000000000000000000000000000000000000000000000000000000000000000FFFFFF00000000BFFF00000000000000000000000000000000000000000000000000000000000000000000
310
0000000000000000000000000000000000000000000000000000000000000000FFFFFF000000000000000000000000000000FFFFFF000000000000000000FFFFFFFFFFFFFFFFFFFFFFFF0066CCFFFFFFFFFFFFFFFFFFFFFFFFFFFFFFFFFFFFFFFFFF0000000000000000000000000000000000000000000000000000000000
310
0000000000000000000000000000000000000000000000000000000000000000000000000000000000000000000000000000000000000000000000000000000000000000000000000000000000000000000000000000000000BFFF000000FFFFFF000000000000000000000000000000000000000000000000000000000000
310
000000000000000000000000000000000000000000000000000000000000000000000000000000000000000000000000000000000000000000000000000000000000000000000000000000000000000000000000000000FFFFFF00000000BFFF00000000000000000000000000000000000000000000000000000000000000
310
0000000000000000000000000000000000000000000000000000000000000000000000FFFFFF000000000000000000000000FFFFFF000000000000000000000000000000FFFFFFFFFFFF0000000066CC0000000000000000000000000000000000000000000000000000000000000000000000000000000000000000000000
310
0000000000000000000000000000000000000000000000000000000000000000000000000000000000000000000000000000000000000000000000000000000000000000000000000000000000000000000000000000000000000000BFFF000000FFFFFF000000000000000000000000000000000000000000000000000000
310
000000000000000000000000000000000000000000000000000000000000000000000000000000000000000000000000000000000000000000000000000000000000000000000000000000000000000000000000000000000000FFFFFF00000000BFFF00000000000000000000000000000000000000000000000000000000
310
0000000000000000000000000000000000000000000000000000000000000000000000000000FFFFFF000000000000FFFFFFFFFFFF0000000000000000000000000000000000000000000000000000000066CC0000000000000000000000000000000000000000000000000000000000000000000000000000000000000000
310
0000000000000000000000000000000000000000000000000000000000000000000000000000000000000000000000000000000000000000000000000000000000000000000000000000000000000000000000000000000000000000000000BFFF000000FFFFFF000000000000000000000000000000000000000000000000
310
000000000000000000000000000000000000000000000000000000000000000000000000000000000000000000000000000000000000000000000000000000000000000000000000000000000000000000000000000000000000000000FFFFFF00000000BFFF00000000000000000000000000000000000000000000000000
310
0000000000000000000000000000000000000000000000000000000000000000000000000000000000FFFFFF000000FFFFFFFFFFFF0000000000000000000000000000000000000000000000000000000000000066CC0000000000000000000000000000000000000000000000000000000000000000000000000000000000
310
0000000000000000000000000000000000000000000000000000000000000000000000000000000000000000000000000000000000000000000000000000000000000000000000000000000000000000000000000000000000000000000000000000BFFF000000FFFFFF000000000000000000000000000000000000000000
310
000000000000000000000000000000000000000000000000000000000000000000000000000000000000000000000000000000000000000000000000000000000000000000000000000000000000000000000000000000000000000000000000FFFFFF00000000BFFF00000000000000000000000000000000000000000000
310
0000000000000000000000000000000000000000000000000000000000000000000000000000000000000000FFFFFFFFFFFFFFFFFF0000000000000000000000000000000000000000000000000000000000000000000066CC0000000000000000000000000000000000000000000000000000000000000000000000000000
310
0000000000000000000000000000000000000000000000000000000000000000000000000000000000000000000000000000000000000000000000000000000000000000000000000000000000000000000000000000000000000000000000000000000000BFFF000000FFFFFF000000000000000000000000000000000000
310
000000000000000000000000000000000000000000000000000000000000000000000000000000000000000000000000000000000000000000000000000000000000000000000000000000000000000000000000000000000000000000000000000000FFFFFF00000000BFFF00000000000000000000000000000000000000
310
0000000000000000000000000000000000000000000000000000000000000000000000000000000000000000000000FFFFFFFFFFFF0000000000000000000000000000000000000000000000000000000000000000000000000066CC0000000000000000000000000000000000000000000000000000000000000000000000
310
0000000000000000000000000000000000000000000000000000000000000000000000000000000000000000000000000000000000000000000000000000000000000000000000000000000000000000000000000000000000000000000000000000000000000000BFFF000000FFFFFF000000000000000000000000000000
310
000000000000000000000000000000000000000000000000000000000000000000000000000000000000000000000000000000000000000000000000000000000000000000000000000000000000000000000000000000000000000000000000000000000000FFFFFF00000000BFFF00000000000000000000000000000000
310
0000000000000000000000000000000000000000000000000000000000000000000000000000000000000000000000000000FFFFFF0000000000000000000000000000000000000000000000000000000000000000000000000000000066CC0000000000000000000000000000000000000000000000000000000000000000
310
0000000000000000000000000000000000000000000000000000000000000000000000000000000000000000000000000000000000000000000000000000000000000000000000000000000000000000000000000000000000000000000000000000000000000000000000BFFF000000FFFFFF000000000000000000000000
310
000000000000000000000000000000000000000000000000000000000000000000000000000000000000000000000000000000000000000000000000000000000000000000000000000000000000000000000000000000000000000000000000000000000000000000FFFFFF00000000BFFF00000000000000000000000000
310
0000000000000000000000000000000000000000000000000000000000000000000000000000000000000000000000000000000000FFFFFF0000000000000000000000000000000000000000000000000000000000000000000000000000000066CC0000000000000000000000000000000000000000000000000000000000
310
0000000000000000000000000000000000000000000000000000000000000000000000000000000000000000000000000000000000000000000000000000000000000000000000000000000000000000000000000000000000000000000000000000000000000000000000000000BFFF000000FFFFFF000000000000000000
310
000000000000000000000000000000000000000000000000000000000000000000000000000000000000000000000000000000000000000000000000000000000000000000000000000000000000000000000000000000000000000000000000000000000000000000000000FFFFFF00000000BFFF00000000000000000000
310
0000000000000000000000000000000000000000000000000000000000000000000000000000000000000000000000000000000000000000FFFFFF0000000000000000000000000000000000000000000000000000000000000000000000000000000066CC0000000000000000000000000000000000000000000000000000
310
0000000000000000000000000000000000000000000000000000000000000000000000000000000000000000000000000000000000000000000000000000000000000000000000000000000000000000000000000000000000000000000000000000000000000000000000000000000000BFFF000000FFFFFF000000000000
310
000000000000000000000000000000000000000000000000000000000000000000000000000000000000000000000000000000000000000000000000000000000000000000000000000000000000000000000000000000000000000000000000000000000000000000000000000000FFFFFF00000000BFFF00000000000000
310
0000000000000000000000000000000000000000000000000000000000000000000000000000000000000000000000000000000000000000FFFFFFFFFFFF0000000000000000000000000000000000000000000000000000000000000066CC0066CC0066CC0066CC0000000000000000000000000000000000000000000000
310
0000000000000000000000000000000000000000000000000000000000000000000000000000000000000000000000000000000000000000000000000000000000000000000000000000000000000000000000000000000000000000000000000000000000000000000000000000000000000000BFFF000000FFFFFF000000
310
000000000000000000000000000000000000000000000000000000000000000000000000000000000000000000000000000000000000000000000000000000000000000000000000000000000000000000000000000000000000000000000000000000000000000000000000000000000000FFFFFF00000000BFFF00000000
310
0000000000000000000000000000000000000000000000000000000000000000000000000000000000000000000000000000000000000000000000FFFFFF0000000000000000000066CC0066CC0066CC0066CC0066CC0066CC0066CC0066CC0066CC0066CC0066CC0066CC0000000000000000000000000000000000000000
310
0000000000000000000000000000000000000000000000000000000000000000000000000000000000000000000000000000000000000000000000000000000000000000000000000000000000000000000000000000000000000000000000000000000000000000000000000000000000000000000000BFFF000000FFFFFF
310
000000000000000000000000000000000000000000000000000000000000000000000000000000000000000000000000000000000000000000000000000000000000000000000000000000000000000000000000000000000000000000000000000000000000000000000000000000000000000000FFFFFF00000000BFFF00
310
00000000000000000000000000000000000000000000000000000000000000000000000000000000000000000000000000000000000000000000000000000066CC0066CC0066CC0066CC0066CC0066CC000000000000000000000000000000000000FFFFFF0000000000000000000000000000000000000000000000000000
310
0000000000000000000000000000000000000000000000000000000000000000000000000000000000000000000000000000000000000000000000000000000000000000000000000000000000000000000000000000000000000000000000000000000000000000000000000000000000000000000000000000BFFF000000
310
FFFFFF000000000000000000000000000000000000000000000000000000000000000000000000000000000000000000000000000000000000000000000000000000000000000000000000000000000000000000000000000000000000000000000000000000000000000000000000000000000000000000FFFFFF00000000
310
BFFF000000000000000000000000000000000000000000000000000000000000000000000000000000000000000000000000000000000000000000000000000000000000000000000000000000000000000000000000000000000000000000000000000000FFFFFF0000000000000000000000000000000000000000000000
310
0000000000000000000000000000000000000000000000000000000000000000000000000000000000000000000000000000000000000000000000000000000000000000000000000000000000000000000000000000000000000000000000000000000000000000000000000000000000000000000000000000000000BFFF
310
000000FFFFFF000000000000000000000000000000000000000000000000000000000000000000000000000000000000000000000000000000000000000000000000000000000000000000000000000000000000000000000000000000000000000000000000000000000000000000000000000000000000000000FFFFFF00
310
000000BFFF000000000000000000000000000000000000000000000000000000000000000000000000000000000000000000000000000000000000000000000000000000000000000000000000000000000000000000000000000000000000000000000000000000000000FFFFFF0000000000000000000000000000000000
310
00000000000000000000000000000000000000000000000000000000000000000000000000000000000000000000000000000000000000000000000000000000000000000000000000000000000000000000000000000000000000000000000000000000000000000000000000000000000000000000000000000000000000
310
00BFFF000000FFFFFF000000000000000000000000000000000000000000000000000000000000000000000000000000000000000000000000000000000000000000000000000000000000000000000000000000000000000000000000000000000000000000000000000000000000000000000000000000000000000000FF
310
FFFF00000000BFFF000000000000000000000000000000000000000000000000000000000000000000000000000000000000000000000000000000000000000000000000000000000000000000000000000000000000000000000000000000000000000000000000000000000000FFFFFF0000000000000000000000000000
310
00000000000000000000000000000000000000000000000000000000000000000000000000000000000000000000000000000000000000000000000000000000000000000000000000000000000000000000000000000000000000000000000000000000000000000000000000000000000000000000000000000000000000
310
00000000BFFF000000FFFFFF00000000000000000000000000000000000000000000000000000000000000000000000000000000000000000000000000000000000000000000000000000000000000000000000000000000000000000000000000000000000000000000000000000000000000000000000000000000000000
310
0000FFFFFF00000000BFFF000000000000000000000000000000000000000000000000000000000000000000000000000000000000000000000000000000000000000000000000000000000000000000000000000000000000000000000000000000000000000000000000000000000000000000FFFFFFFFFFFFFFFFFFFFFF
310
FFFFFFFFFFFFFFFFFFFFFFFFFFFFFFFFFFFFFFFFFFFF000000000000000000000000000000000000000000000000000000000000000000000000000000000000000000000000000000000000000000000000000000000000000000000000000000000000000000000000000000000000000000000000000000000000000000
310
00000000000000BFFF000000FFFFFF00000000000000000000000000000000000000000000000000000000000000000000000000000000000000000000000000000000000000000000000000000000000000000000000000000000000000000000000000000000000000000000000000000000000000000000000000000000
310
0000000000FFFFFF00000000BFFF000000000000000000000000000000000000000000000000000000000000000000000000000000000000000000000000000000000000000000000000000000000000000000000000000000000000000000000000000000000000000000000000000000000000000000FFFFFFFFFFFFFFFF
310
FFFFFFFFFFFFFFFFFFFFFFFFFFFFFFFFFFFFFFFFFFFFFFFFFF000000000000000000000000000000000000000000000000000000000000000000000000000000000000000000000000000000000000000000000000000000000000000000000000000000000000000000000000000000000000000000000000000000000000
310
00000000000000000000BFFF000000FFFFFF00000000000000000000000000000000000000000000000000000000000000000000000000000000000000000000000000000000000000000000000000000000000000000000000000000000000000000000000000000000000000000000000000000000000000000000000000
310
0000000000000000FFFFFF00000000BFFF0000000000000000000000000000000000000000000000000000000000000000000000000000000000000000000000000000000000000000000000000000000000000000000000000000000000000000000000000000000000000000000000000000000000000000000000000000
310
00000000000000000000000000000000000000000000000000000000000000000000000000000000000000000000000000000000000000000000000000000000000000000000000000000000000000000000000000000000000000000000000000000000000000000000000000000000000000000000000000000000000000
310
00000000000000000000000000BFFF000000FFFFFF00000000000000000000000000000000000000000000000000000000000000000000000000000000000000000000000000000000000000000000000000000000000000000000000000000000000000000000000000000000000000000000000000000000000000000000
310
0000000000000000000000FFFFFF00000000BFFF0000000000000000000000000000000000000000000000000000000000000000000000000000000000000000000000000000000000000000000000000000000000000000000000000000000000000000000000000000000000000000000000000000000000000000000000
310
00000000000000000000000000000000000000000000000000000000000000000000000000000000000000000000000000000000000000000000000000000000000000000000000000000000000000000000000000000000000000000000000000000000000000000000000000000000000000000000000000000000000000
310
00000000000000000000000000000000BFFF000000FFFFFF00000000000000000000000000000000000000000000000000000000000000000000000000000000000000000000000000000000000000000000000000000000000000000000000000000000000000000000000000000000000000000000000000000000000000
310
0000000000000000000000000000FFFFFF00000000BFFF0000000000000000000000000000000000000000000000000000000000000000000000000000000000000000000000000000000000000000000000000000000000000000000000000000000000000000000000000000000000000000000000000000000000000000
310
00000000000000000000000000000000000000000000000000000000000000000000000000000000000000000000000000000000000000000000000000000000000000000000000000000000000000000000000000000000000000000000000000000000000000000000000000000000000000000000000000000000000000
310
00000000000000000000000000000000000000BFFF000000FFFFFF00000000000000000000000000000000000000000000000000000000000000000000000000000000000000000000000000000000000000000000000000000000000000000000000000000000000000000000000000000000000000000000000000000000
310
0000000000000000000000000000000000FFFFFF00000000BFFF0000000000000000000000000000000000000000000000000000000000000000000000000000000000000000000000000000000000000000000000000000000000000000000000000000000000000000000000000000000000000000000000000000000000
310
00000000000000000000000000000000000000000000000000000000000000000000000000000000000000000000000000000000000000000000000000000000000000000000000000000000000000000000000000000000000000000000000000000000000000000000000000000000000000000000000000000000000000
310
00000000000000000000000000000000000000000000BFFF000000FFFFFF00000000000000000000000000000000000000000000000000000000000000000000000000000000000000000000000000000000000000000000000000000000000000000000000000000000000000000000000000000000000000000000000000
310
0000000000000000000000000000000000000000FFFFFF00000000BFFF0000000000000000000000000000000000000000000000000000000000000000000000000000000000000000000000000000000000000000000000000000000000000000000000000000000000000000000000000000000000000000000000000000
310
00000000000000000000000000000000000000000000000000000000000000000000000000000000000000000000000000000000000000000000000000000000000000000000000000000000000000000000000000000000000000000000000000000000000000000000000000000000000000000000000000000000000000
310
00000000000000000000000000000000000000000000000000BFFF000000FFFFFF00000000000000000000000000000000000000000000000000000000000000000000000000000000000000000000000000000000000000000000000000000000000000000000000000000000000000000000000000000000000000000000
310
0000000000000000000000000000000000000000000000FFFFFF00000000BFFF0000000000000000000000000000000000000000000000000000000000000000000000000000000000000000000000000000000000000000000000000000000000000000000000000000000000000000000000000000000000000000000000
310
00000000000000000000000000000000000000000000000000000000000000000000000000000000000000000000000000000000000000000000000000000000000000000000000000000000000000000000000000000000000000000000000000000000000000000000000000000000000000000000000000000000000000
310
00000000000000000000000000000000000000000000000000000000BFFF000000FFFFFF00000000000000000000000000000000000000000000000000000000000000000000000000000000000000000000000000000000000000000000000000000000000000000000000000000000000000000000000000000000000000
310
0000000000000000000000000000000000000000000000000000FFFFFF00000000BFFF00BFFF00BFFF00BFFF00BFFF00BFFF00BFFF00BFFF00BFFF00BFFF00BFFF00BFFF00BFFF00BFFF00BFFF00BFFF00BFFF00BFFF00BFFF00BFFF00BFFF00BFFF00BFFF00BFFF00BFFF00BFFF00BFFF00BFFF00BFFF00BFFF00BFFF00BF
310
FF00BFFF00BFFF00BFFF00BFFF00BFFF00BFFF00BFFF00BFFF00BFFF00BFFF00BFFF00BFFF00BFFF00BFFF00BFFF00BFFF00BFFF00BFFF00BFFF00BFFF00BFFF00BFFF00BFFF00BFFF00BFFF00BFFF00BFFF00BFFF00BFFF00BFFF00BFFF00BFFF00BFFF00BFFF00BFFF00BFFF00BFFF00BFFF00BFFF00BFFF00BFFF00BFFF
310
00BFFF00BFFF00BFFF00BFFF00BFFF00BFFF00BFFF00BFFF00BFFF00BFFF00BFFF000000FFFFFF00000000000000000000000000000000000000000000000000000000000000000000000000000000000000000000000000000000000000000000000000000000000000000000000000000000000000000000000000000000
310
0000000000000000000000000000000000000000000000000000000000FFFFFF0000000000000000000000000000000000000000000000000000000000000000000000000000000000000000000000000000000000000000000000000000000000000000000000000000000000000000000000000000000000000000000000
310
00000000000000000000000000000000000000000000000000000000000000000000000000000000000000000000000000000000000000000000000000000000000000000000000000000000000000000000000000000000000000000000000000000000000000000000000000000000000000000000000000000000000000
310
000000000000000000000000000000000000000000000000000000000000000000000000000000FFFFFF00000000000000000000000000000000000000000000000000000000000000000000000000000000000000000000000000000000000000000000000000000000000000000000000000000000000000000000000000
310
0000000000000000000000000000000000000000000000000000000000000000FFFFFFFFFFFFFFFFFFFFFFFFFFFFFFFFFFFFFFFFFFFFFFFFFFFFFFFFFFFFFFFFFFFFFFFFFFFFFFFFFFFFFFFFFFFFFFFFFFFFFFFFFFFFFFFFFFFFFFFFFFFFFFFFFFFFFFFFFFFFFFFFFFFFFFFFFFFFFFFFFFFFFFFFFFFFFFFFFFFFFFFFFFFFFF
310
FFFFFFFFFFFFFFFFFFFFFFFFFFFFFFFFFFFFFFFFFFFFFFFFFFFFFFFFFFFFFFFFFFFFFFFFFFFFFFFFFFFFFFFFFFFFFFFFFFFFFFFFFFFFFFFFFFFFFFFFFFFFFFFFFFFFFFFFFFFFFFFFFFFFFFFFFFFFFFFFFFFFFFFFFFFFFFFFFFFFFFFFFFFFFFFFFFFFFFFFFFFFFFFFFFFFFFFFFFFFFFFFFFFFFFFFFFFFFFFFFFFFFFFFFFFFFF
310
FFFFFFFFFFFFFFFFFFFFFFFFFFFFFFFFFFFFFFFFFFFFFFFFFFFFFFFFFFFFFFFFFFFFFFFFFFFFFFFFFFFFFFFFFF00000000000000000000000000000000000000000000000000000000000000000000000000000000000000000000000000000000000000000000000000000000000000000000000000000000000000000000
310
00000000000000000000000000000000000000000000000000000000000000000000000000000000000000000000000000000000000000000000000000000000000000000000000000000000000000000000000000000000000000000000000000000000000000000000000000000000000000000000000000000000000000
310
00000000000000000000000000000000000000000000000000000000000000000000000000000000000000000000000000000000000000000000000000000000000000000000000000000000000000000000000000000000000000000000000000000000000000000000000000000000000000000000000000000000000000
310
000000000000000000000000000000000000000000000000000000000000000000000000000000000000000000000000000000000000000000000000000000000000000000000000000000000000000000000000000000000000000000000000000000000000000000
  0
ENDSEC
  0
EOF
