  0
SECTION
  2
HEADER
  9
$ACADVER
  1
AC1027
  9
$ACADMAINTVER
 70
   105
  9
$DWGCODEPAGE
  3
DOS932
  9
$LASTSAVEDBY
  1
HRC747U
  9
$REQUIREDVERSIONS
160
                 0
  9
$INSBASE
 10
0.0
 20
0.0
 30
0.0
  9
$EXTMIN
 10
0.0
 20
0.0
 30
0.0
  9
$EXTMAX
 10
1680.0
 20
1188.0
 30
0.0
  9
$LIMMIN
 10
0.0
 20
0.0
  9
$LIMMAX
 10
420.0
 20
297.0
  9
$ORTHOMODE
 70
     0
  9
$REGENMODE
 70
     1
  9
$FILLMODE
 70
     1
  9
$QTEXTMODE
 70
     0
  9
$MIRRTEXT
 70
     1
  9
$LTSCALE
 40
10.0
  9
$ATTMODE
 70
     1
  9
$TEXTSIZE
 40
0.0
  9
$TRACEWID
 40
0.05
  9
$TEXTSTYLE
  7
STANDARD
  9
$CLAYER
  8
0
  9
$CELTYPE
  6
BYLAYER
  9
$CECOLOR
 62
   256
  9
$CELTSCALE
 40
1.0
  9
$DISPSILH
 70
     0
  9
$DIMSCALE
 40
1.0
  9
$DIMASZ
 40
0.18
  9
$DIMEXO
 40
0.0625
  9
$DIMDLI
 40
0.38
  9
$DIMRND
 40
0.0
  9
$DIMDLE
 40
0.0
  9
$DIMEXE
 40
0.18
  9
$DIMTP
 40
0.0
  9
$DIMTM
 40
0.0
  9
$DIMTXT
 40
0.18
  9
$DIMCEN
 40
0.09
  9
$DIMTSZ
 40
0.0
  9
$DIMTOL
 70
     0
  9
$DIMLIM
 70
     0
  9
$DIMTIH
 70
     1
  9
$DIMTOH
 70
     1
  9
$DIMSE1
 70
     0
  9
$DIMSE2
 70
     0
  9
$DIMTAD
 70
     0
  9
$DIMZIN
 70
     0
  9
$DIMBLK
  1

  9
$DIMASO
 70
     1
  9
$DIMSHO
 70
     1
  9
$DIMPOST
  1

  9
$DIMAPOST
  1

  9
$DIMALT
 70
     0
  9
$DIMALTD
 70
     2
  9
$DIMALTF
 40
25.4
  9
$DIMLFAC
 40
1.0
  9
$DIMTOFL
 70
     0
  9
$DIMTVP
 40
0.0
  9
$DIMTIX
 70
     0
  9
$DIMSOXD
 70
     0
  9
$DIMSAH
 70
     0
  9
$DIMBLK1
  1

  9
$DIMBLK2
  1

  9
$DIMSTYLE
  2
STANDARD
  9
$DIMCLRD
 70
     0
  9
$DIMCLRE
 70
     0
  9
$DIMCLRT
 70
     0
  9
$DIMTFAC
 40
1.0
  9
$DIMGAP
 40
0.09
  9
$DIMJUST
 70
     0
  9
$DIMSD1
 70
     0
  9
$DIMSD2
 70
     0
  9
$DIMTOLJ
 70
     1
  9
$DIMTZIN
 70
     0
  9
$DIMALTZ
 70
     0
  9
$DIMALTTZ
 70
     0
  9
$DIMUPT
 70
     0
  9
$DIMDEC
 70
     4
  9
$DIMTDEC
 70
     4
  9
$DIMALTU
 70
     2
  9
$DIMALTTD
 70
     2
  9
$DIMTXSTY
  7
STANDARD
  9
$DIMAUNIT
 70
     0
  9
$DIMADEC
 70
     0
  9
$DIMALTRND
 40
0.0
  9
$DIMAZIN
 70
     0
  9
$DIMDSEP
 70
    46
  9
$DIMATFIT
 70
     3
  9
$DIMFRAC
 70
     0
  9
$DIMLDRBLK
  1

  9
$DIMLUNIT
 70
     2
  9
$DIMLWD
 70
    -2
  9
$DIMLWE
 70
    -2
  9
$DIMTMOVE
 70
     2
  9
$DIMFXL
 40
1.0
  9
$DIMFXLON
 70
     0
  9
$DIMJOGANG
 40
0.785398163397
  9
$DIMTFILL
 70
     0
  9
$DIMTFILLCLR
 70
     0
  9
$DIMARCSYM
 70
     0
  9
$DIMLTYPE
  6

  9
$DIMLTEX1
  6

  9
$DIMLTEX2
  6

  9
$DIMTXTDIRECTION
 70
     0
  9
$LUNITS
 70
     2
  9
$LUPREC
 70
     8
  9
$SKETCHINC
 40
0.1
  9
$FILLETRAD
 40
0.0
  9
$AUNITS
 70
     0
  9
$AUPREC
 70
     0
  9
$MENU
  1
acad
  9
$ELEVATION
 40
0.0
  9
$PELEVATION
 40
0.0
  9
$THICKNESS
 40
0.0
  9
$LIMCHECK
 70
     0
  9
$CHAMFERA
 40
0.0
  9
$CHAMFERB
 40
0.0
  9
$CHAMFERC
 40
0.0
  9
$CHAMFERD
 40
0.0
  9
$SKPOLY
 70
     0
  9
$TDCREATE
 40
2455154.62412037
  9
$TDUCREATE
 40
2455154.24912037
  9
$TDUPDATE
 40
2460054.381334988
  9
$TDUUPDATE
 40
2460054.006334988
  9
$TDINDWG
 40
0.0181184954
  9
$TDUSRTIMER
 40
0.0181184954
  9
$USRTIMER
 70
     1
  9
$ANGBASE
 50
0.0
  9
$ANGDIR
 70
     0
  9
$PDMODE
 70
     0
  9
$PDSIZE
 40
0.0
  9
$PLINEWID
 40
0.0
  9
$SPLFRAME
 70
     0
  9
$SPLINETYPE
 70
     6
  9
$SPLINESEGS
 70
     8
  9
$HANDSEED
  5
1BBE
  9
$SURFTAB1
 70
     6
  9
$SURFTAB2
 70
     6
  9
$SURFTYPE
 70
     6
  9
$SURFU
 70
     6
  9
$SURFV
 70
     6
  9
$UCSBASE
  2

  9
$UCSNAME
  2

  9
$UCSORG
 10
0.0
 20
0.0
 30
0.0
  9
$UCSXDIR
 10
1.0
 20
0.0
 30
0.0
  9
$UCSYDIR
 10
0.0
 20
1.0
 30
0.0
  9
$UCSORTHOREF
  2

  9
$UCSORTHOVIEW
 70
     0
  9
$UCSORGTOP
 10
0.0
 20
0.0
 30
0.0
  9
$UCSORGBOTTOM
 10
0.0
 20
0.0
 30
0.0
  9
$UCSORGLEFT
 10
0.0
 20
0.0
 30
0.0
  9
$UCSORGRIGHT
 10
0.0
 20
0.0
 30
0.0
  9
$UCSORGFRONT
 10
0.0
 20
0.0
 30
0.0
  9
$UCSORGBACK
 10
0.0
 20
0.0
 30
0.0
  9
$PUCSBASE
  2

  9
$PUCSNAME
  2

  9
$PUCSORG
 10
0.0
 20
0.0
 30
0.0
  9
$PUCSXDIR
 10
1.0
 20
0.0
 30
0.0
  9
$PUCSYDIR
 10
0.0
 20
1.0
 30
0.0
  9
$PUCSORTHOREF
  2

  9
$PUCSORTHOVIEW
 70
     0
  9
$PUCSORGTOP
 10
0.0
 20
0.0
 30
0.0
  9
$PUCSORGBOTTOM
 10
0.0
 20
0.0
 30
0.0
  9
$PUCSORGLEFT
 10
0.0
 20
0.0
 30
0.0
  9
$PUCSORGRIGHT
 10
0.0
 20
0.0
 30
0.0
  9
$PUCSORGFRONT
 10
0.0
 20
0.0
 30
0.0
  9
$PUCSORGBACK
 10
0.0
 20
0.0
 30
0.0
  9
$USERI1
 70
     0
  9
$USERI2
 70
     0
  9
$USERI3
 70
     0
  9
$USERI4
 70
     0
  9
$USERI5
 70
     0
  9
$USERR1
 40
0.0
  9
$USERR2
 40
0.0
  9
$USERR3
 40
0.0
  9
$USERR4
 40
0.0
  9
$USERR5
 40
0.0
  9
$WORLDVIEW
 70
     1
  9
$SHADEDGE
 70
     3
  9
$SHADEDIF
 70
    70
  9
$TILEMODE
 70
     1
  9
$MAXACTVP
 70
    16
  9
$PINSBASE
 10
0.0
 20
0.0
 30
0.0
  9
$PLIMCHECK
 70
     0
  9
$PEXTMIN
 10
1.000000000000E+20
 20
1.000000000000E+20
 30
1.000000000000E+20
  9
$PEXTMAX
 10
-1.000000000000E+20
 20
-1.000000000000E+20
 30
-1.000000000000E+20
  9
$PLIMMIN
 10
0.0
 20
0.0
  9
$PLIMMAX
 10
12.0
 20
9.0
  9
$UNITMODE
 70
     0
  9
$VISRETAIN
 70
     0
  9
$PLINEGEN
 70
     1
  9
$PSLTSCALE
 70
     0
  9
$TREEDEPTH
 70
  3020
  9
$CMLSTYLE
  2
STANDARD
  9
$CMLJUST
 70
     0
  9
$CMLSCALE
 40
1.0
  9
$PROXYGRAPHICS
 70
     0
  9
$MEASUREMENT
 70
     0
  9
$CELWEIGHT
370
    -1
  9
$ENDCAPS
280
     0
  9
$JOINSTYLE
280
     0
  9
$LWDISPLAY
290
     0
  9
$INSUNITS
 70
     0
  9
$HYPERLINKBASE
  1

  9
$STYLESHEET
  1

  9
$XEDIT
290
     1
  9
$CEPSNTYPE
380
     0
  9
$PSTYLEMODE
290
     1
  9
$FINGERPRINTGUID
  2
{f8f10254-f7f4-428e-8301-585654336388}
  9
$VERSIONGUID
  2
{FAEB1C32-E019-11D5-929B-00C0DF256EC4}
  9
$EXTNAMES
290
     1
  9
$PSVPSCALE
 40
0.0
  9
$OLESTARTUP
290
     0
  9
$SORTENTS
280
   127
  9
$INDEXCTL
280
     0
  9
$HIDETEXT
280
     1
  9
$XCLIPFRAME
280
     2
  9
$HALOGAP
280
     0
  9
$OBSCOLOR
 70
   257
  9
$OBSLTYPE
280
     0
  9
$INTERSECTIONDISPLAY
280
     0
  9
$INTERSECTIONCOLOR
 70
   257
  9
$DIMASSOC
280
     2
  9
$PROJECTNAME
  1

  9
$CAMERADISPLAY
290
     0
  9
$LENSLENGTH
 40
50.0
  9
$CAMERAHEIGHT
 40
0.0
  9
$STEPSPERSEC
 40
24.0
  9
$STEPSIZE
 40
2.0
  9
$3DDWFPREC
 40
2.0
  9
$PSOLWIDTH
 40
0.25
  9
$PSOLHEIGHT
 40
4.0
  9
$LOFTANG1
 40
1.570796326795
  9
$LOFTANG2
 40
1.570796326795
  9
$LOFTMAG1
 40
0.0
  9
$LOFTMAG2
 40
0.0
  9
$LOFTPARAM
 70
     7
  9
$LOFTNORMALS
280
     1
  9
$LATITUDE
 40
37.795
  9
$LONGITUDE
 40
-122.394
  9
$NORTHDIRECTION
 40
0.0
  9
$TIMEZONE
 70
 -8000
  9
$LIGHTGLYPHDISPLAY
280
     1
  9
$TILEMODELIGHTSYNCH
280
     1
  9
$CMATERIAL
347
15E5
  9
$SOLIDHIST
280
     0
  9
$SHOWHIST
280
     1
  9
$DWFFRAME
280
     2
  9
$DGNFRAME
280
     2
  9
$REALWORLDSCALE
290
     1
  9
$INTERFERECOLOR
 62
   256
  9
$CSHADOW
280
     0
  9
$SHADOWPLANELOCATION
 40
0.0
  0
ENDSEC
  0
SECTION
  2
CLASSES
  0
CLASS
  1
LWPOLYLINE
  2
AcDbPolyline
  3
ObjectDBX Classes
 90
        0
 91
        1
280
     0
281
     1
  0
CLASS
  1
IMAGE
  2
AcDbRasterImage
  3
ISM
 90
      127
 91
        5
280
     0
281
     1
  0
CLASS
  1
OLE2FRAME
  2
AcDbOle2Frame
  3
ObjectDBX Classes
 90
        0
 91
        1
280
     0
281
     1
  0
CLASS
  1
HATCH
  2
AcDbHatch
  3
ObjectDBX Classes
 90
        0
 91
        1
280
     0
281
     1
  0
CLASS
  1
DICTIONARYVAR
  2
AcDbDictionaryVar
  3
ObjectDBX Classes
 90
        0
 91
        3
280
     0
281
     0
  0
CLASS
  1
RASTERVARIABLES
  2
AcDbRasterVariables
  3
ISM
 90
        0
 91
        3
280
     0
281
     0
  0
CLASS
  1
IMAGEDEF
  2
AcDbRasterImageDef
  3
ISM
 90
        0
 91
        3
280
     0
281
     0
  0
CLASS
  1
IMAGEDEF_REACTOR
  2
AcDbRasterImageDefReactor
  3
ISM
 90
        1
 91
        3
280
     0
281
     0
  0
CLASS
  1
IDBUFFER
  2
AcDbIdBuffer
  3
ObjectDBX Classes
 90
        0
 91
        3
280
     0
281
     0
  0
CLASS
  1
SPATIAL_FILTER
  2
AcDbSpatialFilter
  3
ObjectDBX Classes
 90
        0
 91
        3
280
     0
281
     0
  0
CLASS
  1
XRECORD
  2
AcDbXrecord
  3
ObjectDBX Classes
 90
        0
 91
        1
280
     0
281
     0
  0
CLASS
  1
SORTENTSTABLE
  2
AcDbSortentsTable
  3
ObjectDBX Classes
 90
        0
 91
        3
280
     0
281
     0
  0
CLASS
  1
LAYER_INDEX
  2
AcDbLayerIndex
  3
ObjectDBX Classes
 90
        0
 91
        3
280
     0
281
     0
  0
CLASS
  1
SPATIAL_INDEX
  2
AcDbSpatialIndex
  3
AutoCAD 2000
 90
        0
 91
        3
280
     0
281
     0
  0
CLASS
  1
OBJECT_PTR
  2
CAseDLPNTableRecord
  3
ASE-LPNTableRecord
 90
        1
 91
        3
280
     0
281
     0
  0
CLASS
  1
ACDBDICTIONARYWDFLT
  2
AcDbDictionaryWithDefault
  3
ObjectDBX Classes
 90
        0
 91
        3
280
     0
281
     0
  0
CLASS
  1
SCALE
  2
AcDbScale
  3
ObjectDBX Classes
 90
     1153
 91
        3
280
     0
281
     0
  0
CLASS
  1
VISUALSTYLE
  2
AcDbVisualStyle
  3
ObjectDBX Classes
 90
     4095
 91
        3
280
     0
281
     0
  0
CLASS
  1
MATERIAL
  2
AcDbMaterial
  3
ObjectDBX Classes
 90
     1153
 91
        3
280
     0
281
     0
  0
CLASS
  1
TABLESTYLE
  2
AcDbTableStyle
  3
ObjectDBX Classes
 90
     4095
 91
        3
280
     0
281
     0
  0
CLASS
  1
MLEADERSTYLE
  2
AcDbMLeaderStyle
  3
ACDB_MLEADERSTYLE_CLASS
 90
     4095
 91
        3
280
     0
281
     0
  0
CLASS
  1
SUN
  2
AcDbSun
  3
SCENEOE
 90
     1153
 91
        3
280
     0
281
     0
  0
CLASS
  1
CELLSTYLEMAP
  2
AcDbCellStyleMap
  3
ObjectDBX Classes
 90
     1152
 91
        3
280
     0
281
     0
  0
CLASS
  1
ACAD_TABLE
  2
AcDbTable
  3
ObjectDBX Classes
 90
     1025
 91
        3
280
     0
281
     1
  0
CLASS
  1
TABLECONTENT
  2
AcDbTableContent
  3
ObjectDBX Classes
 90
     1152
 91
        4
280
     0
281
     0
  0
CLASS
  1
TABLEGEOMETRY
  2
AcDbTableGeometry
  3
ObjectDBX Classes
 90
     1152
 91
        3
280
     0
281
     0
  0
CLASS
  1
FIELDLIST
  2
AcDbFieldList
  3
ObjectDBX Classes
 90
     1152
 91
        3
280
     0
281
     0
  0
ENDSEC
  0
SECTION
  2
TABLES
  0
TABLE
  2
VPORT
  5
7
330
0
100
AcDbSymbolTable
 70
     1
  0
VPORT
  5
15
330
7
100
AcDbSymbolTableRecord
100
AcDbViewportTableRecord
  2
*ACTIVE
 70
     0
 10
0.0
 20
0.0
 11
1.0
 21
1.0
 12
840.0
 22
594.0
 13
0.0
 23
0.0
 14
1.0
 24
1.0
 15
0.0
 25
0.0
 16
0.0
 26
0.0
 36
1.0
 17
0.0
 27
0.0
 37
0.0
 40
1211.76
 41
1.998180163785
 42
50.0
 43
0.0
 44
0.0
 50
0.0
 51
0.0
 71
    16
 72
   100
 73
     1
 74
     1
 75
     0
 76
     0
 77
     0
 78
     0
281
     0
 65
     1
110
0.0
120
0.0
130
0.0
111
1.0
121
0.0
131
0.0
112
0.0
122
1.0
132
0.0
 79
     0
146
0.0
348
15D0
 60
     3
 61
     5
292
     0
282
     1
141
0.0
142
0.0
 63
   250
421
  3355443
361
15ED
  0
ENDTAB
  0
TABLE
  2
LTYPE
  5
4
330
0
100
AcDbSymbolTable
 70
     4
  0
LTYPE
  5
11
330
4
100
AcDbSymbolTableRecord
100
AcDbLinetypeTableRecord
  2
BYBLOCK
 70
     0
  3

 72
    65
 73
     0
 40
0.0
  0
LTYPE
  5
12
330
4
100
AcDbSymbolTableRecord
100
AcDbLinetypeTableRecord
  2
BYLAYER
 70
     0
  3

 72
    65
 73
     0
 40
0.0
  0
LTYPE
  5
13
330
4
100
AcDbSymbolTableRecord
100
AcDbLinetypeTableRecord
  2
CONTINUOUS
 70
     0
  3
Solid line
 72
    65
 73
     0
 40
0.0
  0
LTYPE
  5
103D
330
4
100
AcDbSymbolTableRecord
100
AcDbLinetypeTableRecord
  2
DASHED
 70
     0
  3
__ __ __ __ __ __ __ __ __ __ __ __ _
 72
    65
 73
     2
 40
0.75
 49
0.5
 74
     0
 49
-0.25
 74
     0
  0
LTYPE
  5
144A
330
4
100
AcDbSymbolTableRecord
100
AcDbLinetypeTableRecord
  2
CENTER
 70
     0
  3
____ _ ____ _ ____ _ ____ _ ____ _ __
 72
    65
 73
     4
 40
2.0
 49
1.25
 74
     0
 49
-0.25
 74
     0
 49
0.25
 74
     0
 49
-0.25
 74
     0
  0
LTYPE
  5
1642
330
4
100
AcDbSymbolTableRecord
100
AcDbLinetypeTableRecord
  2
HIDDEN
 70
     0
  3
__ __ __ __ __ __ __ __ __ __ __ __ __ __ __ __
 72
    65
 73
     2
 40
0.375
 49
0.25
 74
     0
 49
-0.125
 74
     0
  0
ENDTAB
  0
TABLE
  2
LAYER
  5
2
102
{ACAD_XDICTIONARY
360
18CB
102
}
330
0
100
AcDbSymbolTable
 70
    18
  0
LAYER
  5
14
330
2
100
AcDbSymbolTableRecord
100
AcDbLayerTableRecord
  2
0
 70
     0
 62
     7
  6
CONTINUOUS
370
    -3
390
15A5
347
15E7
348
0
  0
LAYER
  5
163D
102
{ACAD_XDICTIONARY
360
163E
102
}
330
2
100
AcDbSymbolTableRecord
100
AcDbLayerTableRecord
  2
寸法線
 70
     0
 62
     7
  6
CONTINUOUS
370
     9
390
15A5
347
15E7
348
0
  0
LAYER
  5
1641
330
2
100
AcDbSymbolTableRecord
100
AcDbLayerTableRecord
  2
仮想線
 70
     0
 62
    44
  6
HIDDEN
290
     0
370
     5
390
15A5
347
15E7
348
0
1001
AcAecLayerStandard
1000

1000

1001
AcCmTransparency
1071
        0
  0
LAYER
  5
1645
330
2
100
AcDbSymbolTableRecord
100
AcDbLayerTableRecord
  2
表題欄
 70
     0
 62
     7
  6
CONTINUOUS
370
     9
390
15A5
347
15E7
348
0
1001
AcAecLayerStandard
1000

1000

1001
AcCmTransparency
1071
        0
  0
LAYER
  5
1646
330
2
100
AcDbSymbolTableRecord
100
AcDbLayerTableRecord
  2
輪郭線
 70
     0
 62
    40
  6
CONTINUOUS
370
    15
390
15A5
347
15E7
348
0
1001
AcAecLayerStandard
1000

1000

1001
AcCmTransparency
1071
        0
  0
LAYER
  5
1647
330
2
100
AcDbSymbolTableRecord
100
AcDbLayerTableRecord
  2
文字
 70
     0
 62
     7
  6
CONTINUOUS
370
     9
390
15A5
347
15E7
348
0
1001
AcAecLayerStandard
1000

1000

1001
AcCmTransparency
1071
        0
  0
LAYER
  5
1648
330
2
100
AcDbSymbolTableRecord
100
AcDbLayerTableRecord
  2
構築線
 70
     0
 62
     1
  6
CONTINUOUS
290
     0
370
     0
390
15A5
347
15E7
348
0
1001
AcAecLayerStandard
1000

1000

1001
AcCmTransparency
1071
        0
  0
LAYER
  5
1649
330
2
100
AcDbSymbolTableRecord
100
AcDbLayerTableRecord
  2
図面枠
 70
     0
 62
     7
  6
CONTINUOUS
290
     0
370
     9
390
15A5
347
15E7
348
0
1001
AcAecLayerStandard
1000

1000

1001
AcCmTransparency
1071
        0
  0
LAYER
  5
164A
102
{ACAD_XDICTIONARY
360
164B
102
}
330
2
100
AcDbSymbolTableRecord
100
AcDbLayerTableRecord
  2
部材(積層鋼板)
 70
     0
 62
     7
  6
CONTINUOUS
370
    15
390
15A5
347
15E7
348
0
1001
AcAecLayerStandard
1000

1000

  0
LAYER
  5
164D
330
2
100
AcDbSymbolTableRecord
100
AcDbLayerTableRecord
  2
中心線
 70
     0
 62
    44
  6
CENTER
370
     5
390
15A5
347
15E7
348
0
1001
AcAecLayerStandard
1000

1000

1001
AcCmTransparency
1071
        0
  0
LAYER
  5
164F
330
2
100
AcDbSymbolTableRecord
100
AcDbLayerTableRecord
  2
躯体
 70
     0
 62
     7
  6
CONTINUOUS
370
    13
390
15A5
347
15E7
348
0
1001
AcAecLayerStandard
1000

1000

1001
AcCmTransparency
1071
        0
  0
LAYER
  5
1650
330
2
100
AcDbSymbolTableRecord
100
AcDbLayerTableRecord
  2
IBｼｰﾄ
 70
     0
 62
     7
  6
CONTINUOUS
370
    18
390
15A5
347
15E7
348
0
1001
AcAecLayerStandard
1000

1000

1001
AcCmTransparency
1071
        0
  0
LAYER
  5
1651
330
2
100
AcDbSymbolTableRecord
100
AcDbLayerTableRecord
  2
IBリキッド
 70
     0
 62
     7
  6
CONTINUOUS
370
    13
390
15A5
347
15E7
348
0
1001
AcAecLayerStandard
1000

1000

1001
AcCmTransparency
1071
        0
  0
LAYER
  5
1652
330
2
100
AcDbSymbolTableRecord
100
AcDbLayerTableRecord
  2
部材(ﾋﾞｽ類)
 70
     0
 62
     7
  6
CONTINUOUS
370
    13
390
15A5
347
15E7
348
0
1001
AcAecLayerStandard
1000

1000

1001
AcCmTransparency
1071
        0
  0
LAYER
  5
1653
330
2
100
AcDbSymbolTableRecord
100
AcDbLayerTableRecord
  2
シーリング(IBｼﾘｺｰﾝ)
 70
     0
 62
     7
  6
CONTINUOUS
370
    13
390
15A5
347
15E7
348
0
1001
AcAecLayerStandard
1000

1000

1001
AcCmTransparency
1071
        0
  0
LAYER
  5
1654
330
2
100
AcDbSymbolTableRecord
100
AcDbLayerTableRecord
  2
緩衝フォーム
 70
     0
 62
     7
  6
CONTINUOUS
370
     9
390
15A5
347
15E7
348
0
1001
AcAecLayerStandard
1000

1000

1001
AcCmTransparency
1071
        0
  0
LAYER
  5
1655
330
2
100
AcDbSymbolTableRecord
100
AcDbLayerTableRecord
  2
断熱材
 70
     0
 62
     7
  6
CONTINUOUS
370
     9
390
15A5
347
15E7
348
0
1001
AcAecLayerStandard
1000

1000

1001
AcCmTransparency
1071
        0
  0
LAYER
  5
18D8
330
2
100
AcDbSymbolTableRecord
100
AcDbLayerTableRecord
  2
Defpoints
 70
     0
 62
     7
  6
CONTINUOUS
290
     0
370
    -3
390
15A5
347
15E7
348
0
  0
ENDTAB
  0
TABLE
  2
STYLE
  5
3
330
0
100
AcDbSymbolTable
 70
     4
  0
STYLE
  5
17
330
3
100
AcDbSymbolTableRecord
100
AcDbTextStyleTableRecord
  2
STANDARD
 70
     0
 40
0.0
 41
1.0
 50
0.0
 71
     0
 42
0.0
  3
txt
  4
BIGFONT
  0
STYLE
  5
1E
330
3
100
AcDbSymbolTableRecord
100
AcDbTextStyleTableRecord
  2
TATEGAKI
 70
     4
 40
0.0
 41
1.0
 50
0.0
 71
     0
 42
0.0
  3
txt
  4
BIGFONT
  0
STYLE
  5
165A
330
3
100
AcDbSymbolTableRecord
100
AcDbTextStyleTableRecord
  2
基本スタイル
 70
     0
 40
0.0
 41
1.0
 50
0.0
 71
     0
 42
0.0
  3
msgothic.ttc
  4

1001
ACAD
1000
MS Gothic
1071
    32817
  0
STYLE
  5
165B
330
3
100
AcDbSymbolTableRecord
100
AcDbTextStyleTableRecord
  2
ＭＳ ゴシック
 70
     0
 40
6.0
 41
1.0
 50
0.0
 71
     0
 42
0.0
  3
msgothic.ttc
  4

1001
ACAD
1000
MS Gothic
1071
    32817
  0
ENDTAB
  0
TABLE
  2
VIEW
  5
5
330
0
100
AcDbSymbolTable
 70
     0
  0
ENDTAB
  0
TABLE
  2
UCS
  5
6
330
0
100
AcDbSymbolTable
 70
     0
  0
ENDTAB
  0
TABLE
  2
APPID
  5
8
330
0
100
AcDbSymbolTable
 70
     6
  0
APPID
  5
16
330
8
100
AcDbSymbolTableRecord
100
AcDbRegAppTableRecord
  2
ACAD
 70
     0
  0
APPID
  5
1632
330
8
100
AcDbSymbolTableRecord
100
AcDbRegAppTableRecord
  2
ACAD_MLEADERVER
 70
     0
  0
APPID
  5
1643
330
8
100
AcDbSymbolTableRecord
100
AcDbRegAppTableRecord
  2
AcAecLayerStandard
 70
     0
  0
APPID
  5
1644
330
8
100
AcDbSymbolTableRecord
100
AcDbRegAppTableRecord
  2
AcCmTransparency
 70
     0
  0
APPID
  5
1658
330
8
100
AcDbSymbolTableRecord
100
AcDbRegAppTableRecord
  2
AcadAnnotative
 70
     0
  0
APPID
  5
1659
330
8
100
AcDbSymbolTableRecord
100
AcDbRegAppTableRecord
  2
HATCHBACKGROUNDCOLOR
 70
     0
  0
ENDTAB
  0
TABLE
  2
DIMSTYLE
  5
9
330
0
100
AcDbSymbolTable
 70
     1
100
AcDbDimStyleTable
  0
DIMSTYLE
105
18
330
9
100
AcDbSymbolTableRecord
100
AcDbDimStyleTableRecord
  2
STANDARD
 70
     0
178
     0
289
     0
340
17
  0
ENDTAB
  0
TABLE
  2
BLOCK_RECORD
  5
1
330
0
100
AcDbSymbolTable
 70
    22
  0
BLOCK_RECORD
  5
A
102
{ACAD_XDICTIONARY
360
1B4B
102
}
330
1
100
AcDbSymbolTableRecord
100
AcDbBlockTableRecord
  2
*MODEL_SPACE
340
15C9
 70
     0
280
     1
281
     0
  0
BLOCK_RECORD
  5
B
330
1
100
AcDbSymbolTableRecord
100
AcDbBlockTableRecord
  2
*PAPER_SPACE
340
15CA
 70
     0
280
     1
281
     0
  0
BLOCK_RECORD
  5
168A
102
{ACAD_XDICTIONARY
360
168B
102
}
330
1
100
AcDbSymbolTableRecord
100
AcDbBlockTableRecord
  2
囲い文字1
340
0
102
{BLKREFS
331
1689
331
18D1
331
1AE7
331
1B0C
331
1B14
331
1B2C
331
1B3C
331
1BA5
102
}
 70
     4
280
     1
281
     0
1001
AcadAnnotative
1000
AnnotativeData
1002
{
1070
     1
1070
     0
1002
}
1001
ACAD
1000
DesignCenter Data
1002
{
1070
     1
1070
     4
1002
}
  0
BLOCK_RECORD
  5
1696
102
{ACAD_XDICTIONARY
360
1697
102
}
330
1
100
AcDbSymbolTableRecord
100
AcDbBlockTableRecord
  2
囲い文字2
340
0
102
{BLKREFS
331
1695
331
18D3
331
1AE9
331
1B0E
331
1B16
331
1B2E
331
1B40
331
1BA7
102
}
 70
     4
280
     1
281
     0
1001
AcadAnnotative
1000
AnnotativeData
1002
{
1070
     1
1070
     0
1002
}
1001
ACAD
1000
DesignCenter Data
1002
{
1070
     1
1070
     4
1002
}
  0
BLOCK_RECORD
  5
16A2
102
{ACAD_XDICTIONARY
360
16A3
102
}
330
1
100
AcDbSymbolTableRecord
100
AcDbBlockTableRecord
  2
囲い文字3
340
0
102
{BLKREFS
331
16A1
331
18D5
331
1AEB
331
1B10
331
1B18
331
1B30
331
1B44
331
1BA9
102
}
 70
     4
280
     1
281
     0
1001
AcadAnnotative
1000
AnnotativeData
1002
{
1070
     1
1070
     0
1002
}
1001
ACAD
1000
DesignCenter Data
1002
{
1070
     1
1070
     4
1002
}
  0
BLOCK_RECORD
  5
16AE
102
{ACAD_XDICTIONARY
360
16AF
102
}
330
1
100
AcDbSymbolTableRecord
100
AcDbBlockTableRecord
  2
囲い文字4
340
0
102
{BLKREFS
331
16AD
331
18D7
331
1AED
331
1B12
331
1B1A
331
1B32
331
1B48
331
1BAB
102
}
 70
     4
280
     1
281
     0
1001
AcadAnnotative
1000
AnnotativeData
1002
{
1070
     1
1070
     0
1002
}
1001
ACAD
1000
DesignCenter Data
1002
{
1070
     1
1070
     4
1002
}
  0
BLOCK_RECORD
  5
1687
330
1
100
AcDbSymbolTableRecord
100
AcDbBlockTableRecord
  2
*U6
340
0
102
{BLKREFS
331
1686
102
}
 70
     0
280
     1
281
     0
  0
BLOCK_RECORD
  5
1693
330
1
100
AcDbSymbolTableRecord
100
AcDbBlockTableRecord
  2
*U7
340
0
102
{BLKREFS
331
1692
102
}
 70
     0
280
     1
281
     0
  0
BLOCK_RECORD
  5
169F
330
1
100
AcDbSymbolTableRecord
100
AcDbBlockTableRecord
  2
*U8
340
0
102
{BLKREFS
331
169E
102
}
 70
     0
280
     1
281
     0
  0
BLOCK_RECORD
  5
16AB
330
1
100
AcDbSymbolTableRecord
100
AcDbBlockTableRecord
  2
*U9
340
0
102
{BLKREFS
331
16AA
102
}
 70
     0
280
     1
281
     0
  0
BLOCK_RECORD
  5
16C3
102
{ACAD_XDICTIONARY
360
16C4
102
}
330
1
100
AcDbSymbolTableRecord
100
AcDbBlockTableRecord
  2
表題欄(定義)
340
0
102
{BLKREFS
331
190E
102
}
 70
     4
280
     1
281
     0
1001
AcadAnnotative
1000
AnnotativeData
1002
{
1070
     1
1070
     0
1002
}
1001
ACAD
1000
DesignCenter Data
1002
{
1070
     1
1070
     4
1002
}
  0
BLOCK_RECORD
  5
1AE5
330
1
100
AcDbSymbolTableRecord
100
AcDbBlockTableRecord
  2
*T16
340
0
102
{BLKREFS
331
190D
102
}
 70
     0
280
     1
281
     0
  0
BLOCK_RECORD
  5
1B0B
330
1
100
AcDbSymbolTableRecord
100
AcDbBlockTableRecord
  2
*U21
340
0
102
{BLKREFS
331
18DD
102
}
 70
     0
280
     1
281
     0
  0
BLOCK_RECORD
  5
1B0D
330
1
100
AcDbSymbolTableRecord
100
AcDbBlockTableRecord
  2
*U22
340
0
102
{BLKREFS
331
18DE
102
}
 70
     0
280
     1
281
     0
  0
BLOCK_RECORD
  5
1B0F
330
1
100
AcDbSymbolTableRecord
100
AcDbBlockTableRecord
  2
*U23
340
0
102
{BLKREFS
331
18DF
102
}
 70
     0
280
     1
281
     0
  0
BLOCK_RECORD
  5
1B11
330
1
100
AcDbSymbolTableRecord
100
AcDbBlockTableRecord
  2
*U24
340
0
102
{BLKREFS
331
18E0
102
}
 70
     0
280
     1
281
     0
  0
BLOCK_RECORD
  5
1B3B
330
1
100
AcDbSymbolTableRecord
100
AcDbBlockTableRecord
  2
*U33
340
0
102
{BLKREFS
331
1AF2
102
}
 70
     0
280
     1
281
     0
  0
BLOCK_RECORD
  5
1B3F
330
1
100
AcDbSymbolTableRecord
100
AcDbBlockTableRecord
  2
*U34
340
0
102
{BLKREFS
331
1AF3
102
}
 70
     0
280
     1
281
     0
  0
BLOCK_RECORD
  5
1B43
330
1
100
AcDbSymbolTableRecord
100
AcDbBlockTableRecord
  2
*U35
340
0
102
{BLKREFS
331
1AF4
102
}
 70
     0
280
     1
281
     0
  0
BLOCK_RECORD
  5
1B47
330
1
100
AcDbSymbolTableRecord
100
AcDbBlockTableRecord
  2
*U36
340
0
102
{BLKREFS
331
1AF5
102
}
 70
     0
280
     1
281
     0
  0
BLOCK_RECORD
  5
1BA4
330
1
100
AcDbSymbolTableRecord
100
AcDbBlockTableRecord
  2
*U37
340
0
 70
     0
280
     1
281
     0
  0
BLOCK_RECORD
  5
1BA6
330
1
100
AcDbSymbolTableRecord
100
AcDbBlockTableRecord
  2
*U38
340
0
 70
     0
280
     1
281
     0
  0
BLOCK_RECORD
  5
1BA8
330
1
100
AcDbSymbolTableRecord
100
AcDbBlockTableRecord
  2
*U39
340
0
 70
     0
280
     1
281
     0
  0
BLOCK_RECORD
  5
1BAA
330
1
100
AcDbSymbolTableRecord
100
AcDbBlockTableRecord
  2
*U40
340
0
 70
     0
280
     1
281
     0
  0
ENDTAB
  0
ENDSEC
  0
SECTION
  2
BLOCKS
  0
BLOCK
  5
D
330
A
100
AcDbEntity
  8
0
100
AcDbBlockBegin
  2
*MODEL_SPACE
 70
     0
 10
0.0
 20
0.0
 30
0.0
  3
*MODEL_SPACE
  1

  0
ENDBLK
  5
E
330
A
100
AcDbEntity
  8
0
100
AcDbBlockEnd
  0
BLOCK
  5
F
330
B
100
AcDbEntity
 67
     1
  8
0
100
AcDbBlockBegin
  2
*PAPER_SPACE
 70
     0
 10
0.0
 20
0.0
 30
0.0
  3
*PAPER_SPACE
  1

  0
ENDBLK
  5
10
330
B
100
AcDbEntity
 67
     1
  8
0
100
AcDbBlockEnd
  0
BLOCK
  5
18F0
330
168A
100
AcDbEntity
  8
0
100
AcDbBlockBegin
  2
囲い文字1
 70
     0
 10
0.0
 20
0.0
 30
0.0
  3
囲い文字1
  1

  0
TEXT
  5
168E
330
168A
100
AcDbEntity
  8
文字
 62
     5
100
AcDbText
 10
-0.150726441143
 20
-12.80598100318
 30
0.0
 40
1.9
  1
1
  7
ＭＳ ゴシック
 72
     1
 11
0.467005208226
 21
-11.85598100318
 31
0.0
100
AcDbText
 73
     2
  0
LWPOLYLINE
  5
168F
330
168A
100
AcDbEntity
  8
文字
 62
     5
100
AcDbPolyline
 90
        3
 70
     1
 43
0.05
 10
-1.207936290659
 20
-13.006522891064
 10
0.467005208226
 20
-10.105439115294
 10
2.14194670711
 20
-13.006522891064
  0
ENDBLK
  5
18F1
330
168A
100
AcDbEntity
  8
0
100
AcDbBlockEnd
  0
BLOCK
  5
18F4
330
1696
100
AcDbEntity
  8
0
100
AcDbBlockBegin
  2
囲い文字2
 70
     0
 10
0.0
 20
0.0
 30
0.0
  3
囲い文字2
  1

  0
TEXT
  5
169A
330
1696
100
AcDbEntity
  8
文字
 62
     5
100
AcDbText
 10
-7.36181652199
 20
15.833311817329
 30
0.0
 40
1.9
  1
2
  7
ＭＳ ゴシック
 72
     1
 11
-6.744084872622
 21
16.783311817329
 31
0.0
100
AcDbText
 73
     2
  0
LWPOLYLINE
  5
169B
330
1696
100
AcDbEntity
  8
文字
 62
     5
100
AcDbPolyline
 90
        3
 70
     1
 43
0.05
 10
-8.419026371506
 20
15.632769929445
 10
-6.744084872622
 20
18.533853705216
 10
-5.069143373737
 20
15.632769929445
  0
ENDBLK
  5
18F5
330
1696
100
AcDbEntity
  8
0
100
AcDbBlockEnd
  0
BLOCK
  5
18F8
330
16A2
100
AcDbEntity
  8
0
100
AcDbBlockBegin
  2
囲い文字3
 70
     0
 10
0.0
 20
0.0
 30
0.0
  3
囲い文字3
  1

  0
TEXT
  5
16A6
330
16A2
100
AcDbEntity
  8
文字
 62
     5
100
AcDbText
 10
-3.138684270054
 20
7.425323742515
 30
0.0
 40
1.9
  1
3
  7
ＭＳ ゴシック
 72
     1
 11
-2.520952620685
 21
8.375323742515
 31
0.0
100
AcDbText
 73
     2
  0
LWPOLYLINE
  5
16A7
330
16A2
100
AcDbEntity
  8
文字
 62
     5
100
AcDbPolyline
 90
        3
 70
     1
 43
0.05
 10
-4.19589411957
 20
7.224781854631
 10
-2.520952620685
 20
10.125865630402
 10
-0.846011121801
 20
7.224781854631
  0
ENDBLK
  5
18F9
330
16A2
100
AcDbEntity
  8
0
100
AcDbBlockEnd
  0
BLOCK
  5
18FC
330
16AE
100
AcDbEntity
  8
0
100
AcDbBlockBegin
  2
囲い文字4
 70
     0
 10
0.0
 20
0.0
 30
0.0
  3
囲い文字4
  1

  0
TEXT
  5
16B2
330
16AE
100
AcDbEntity
  8
文字
 62
     5
100
AcDbText
 10
-3.448589732188
 20
5.51332470249
 30
0.0
 40
1.9
  1
4
  7
ＭＳ ゴシック
 72
     1
 11
-2.83085808282
 21
6.46332470249
 31
0.0
100
AcDbText
 73
     2
  0
LWPOLYLINE
  5
16B3
330
16AE
100
AcDbEntity
  8
文字
 62
     5
100
AcDbPolyline
 90
        3
 70
     1
 43
0.05
 10
-4.505799581704
 20
5.312782814606
 10
-2.83085808282
 20
8.213866590377
 10
-1.155916583935
 20
5.312782814606
  0
ENDBLK
  5
18FD
330
16AE
100
AcDbEntity
  8
0
100
AcDbBlockEnd
  0
BLOCK
  5
18EE
330
1687
100
AcDbEntity
  8
0
100
AcDbBlockBegin
  2
*U6
 70
     1
 10
0.0
 20
0.0
 30
0.0
  3
*U6
  1

  0
INSERT
  5
1689
330
1687
100
AcDbEntity
  8
構築線
100
AcDbBlockReference
  2
囲い文字1
 10
4.163741498082
 20
44.833324013919
 30
0.0
 41
3.446987668374
 42
3.446987668374
 43
3.446987668374
  0
ENDBLK
  5
18EF
330
1687
100
AcDbEntity
  8
0
100
AcDbBlockEnd
  0
BLOCK
  5
18F2
330
1693
100
AcDbEntity
  8
0
100
AcDbBlockBegin
  2
*U7
 70
     1
 10
0.0
 20
0.0
 30
0.0
  3
*U7
  1

  0
INSERT
  5
1695
330
1693
100
AcDbEntity
  8
構築線
100
AcDbBlockReference
  2
囲い文字2
 10
29.020280082295
 20
-53.885965169321
 30
0.0
 41
3.446987668374
 42
3.446987668374
 43
3.446987668374
  0
ENDBLK
  5
18F3
330
1693
100
AcDbEntity
  8
0
100
AcDbBlockEnd
  0
BLOCK
  5
18F6
330
169F
100
AcDbEntity
  8
0
100
AcDbBlockBegin
  2
*U8
 70
     1
 10
0.0
 20
0.0
 30
0.0
  3
*U8
  1

  0
INSERT
  5
16A1
330
169F
100
AcDbEntity
  8
構築線
100
AcDbBlockReference
  2
囲い文字3
 10
14.463195287959
 20
-24.903733959604
 30
0.0
 41
3.446987668374
 42
3.446987668374
 43
3.446987668374
  0
ENDBLK
  5
18F7
330
169F
100
AcDbEntity
  8
0
100
AcDbBlockEnd
  0
BLOCK
  5
18FA
330
16AB
100
AcDbEntity
  8
0
100
AcDbBlockBegin
  2
*U9
 70
     1
 10
0.0
 20
0.0
 30
0.0
  3
*U9
  1

  0
INSERT
  5
16AD
330
16AB
100
AcDbEntity
  8
構築線
100
AcDbBlockReference
  2
囲い文字4
 10
15.531435594298
 20
-18.313096846695
 30
0.0
 41
3.446987668374
 42
3.446987668374
 43
3.446987668374
  0
ENDBLK
  5
18FB
330
16AB
100
AcDbEntity
  8
0
100
AcDbBlockEnd
  0
BLOCK
  5
18FE
330
16C3
100
AcDbEntity
  8
0
100
AcDbBlockBegin
  2
表題欄(定義)
 70
     2
 10
0.0
 20
0.0
 30
0.0
  3
表題欄(定義)
  1

  0
LINE
  5
16C7
330
16C3
100
AcDbEntity
  8
表題欄
100
AcDbLine
 10
-10.971098027232
 20
-50.087425312518
 30
0.0
 11
-10.971098027232
 21
-12.587447994505
 31
0.0
  0
ATTDEF
  5
16C8
330
16C3
100
AcDbEntity
  8
表題欄
100
AcDbText
 10
26.845498819392
 20
-41.087447994505
 30
0.0
 40
1.5
  1

  7
ＭＳ ゴシック
 72
     1
 11
26.845498819392
 21
-40.337447994505
 31
0.0
100
AcDbAttributeDefinition
  3
備考
  2
REMARKS
 70
     0
 74
     2
280
     0
  0
ATTDEF
  5
16C9
330
16C3
100
AcDbEntity
  8
表題欄
100
AcDbText
 10
12.466401972768
 20
-41.087447994505
 30
0.0
 40
1.5
  1

  7
ＭＳ ゴシック
 72
     1
 11
12.466401972768
 21
-40.337447994505
 31
0.0
100
AcDbAttributeDefinition
  3
縮尺
  2
SCALE
 70
     0
 74
     2
280
     0
  0
ATTDEF
  5
16CA
330
16C3
100
AcDbEntity
  8
表題欄
100
AcDbText
 10
13.631096545734
 20
-33.587447994505
 30
0.0
 40
1.5
  1

  7
ＭＳ ゴシック
 72
     1
 11
13.631096545734
 21
-32.837447994505
 31
0.0
100
AcDbAttributeDefinition
  3
図番
  2
DRAWING　NO.
 70
     0
 74
     2
280
     0
  0
ATTDEF
  5
16CB
330
16C3
100
AcDbEntity
  8
表題欄
100
AcDbText
 10
11.68036502141
 20
-26.087447994505
 30
0.0
 40
1.5
  1

  7
ＭＳ ゴシック
 72
     1
 11
11.68036502141
 21
-25.337447994505
 31
0.0
100
AcDbAttributeDefinition
  3
部位
  2
POSITION
 70
     0
 74
     2
280
     0
  0
ATTDEF
  5
16CC
330
16C3
100
AcDbEntity
  8
表題欄
100
AcDbText
 10
9.729633497089
 20
-18.587447994505
 30
0.0
 40
1.5
  1

  7
ＭＳ ゴシック
 72
     1
 11
9.729633497089
 21
-17.837447994505
 31
0.0
100
AcDbAttributeDefinition
  3
名称
  2
NAME
 70
     0
 74
     2
280
     0
  0
ATTDEF
  5
16CD
330
16C3
100
AcDbEntity
  8
表題欄
100
AcDbText
 10
-3.158598027232
 20
-48.587447994505
 30
0.0
 40
1.5
  1

  7
ＭＳ ゴシック
 72
     1
 11
-3.158598027232
 21
-47.837447994505
 31
0.0
100
AcDbAttributeDefinition
  3
製図
  2
DRAWING
 70
     0
 74
     2
280
     0
  0
ATTDEF
  5
16CE
330
16C3
100
AcDbEntity
  8
表題欄
100
AcDbText
 10
-3.158598027232
 20
-41.087447994505
 30
0.0
 40
1.5
  1

  7
ＭＳ ゴシック
 72
     1
 11
-3.158598027232
 21
-40.337447994505
 31
0.0
100
AcDbAttributeDefinition
  3
設計
  2
DESIGNED
 70
     0
 74
     2
280
     0
  0
ATTDEF
  5
16CF
330
16C3
100
AcDbEntity
  8
表題欄
100
AcDbText
 10
-3.158598027232
 20
-33.587447994505
 30
0.0
 40
1.5
  1

  7
ＭＳ ゴシック
 72
     1
 11
-3.158598027232
 21
-32.837447994505
 31
0.0
100
AcDbAttributeDefinition
  3
検図
  2
CHECKED
 70
     0
 74
     2
280
     0
  0
TEXT
  5
16D0
330
16C3
100
AcDbEntity
  8
表題欄
100
AcDbText
 10
-10.456568854787
 20
-22.337436653514
 30
0.0
 40
1.5
  1
出 図  ISSUE
  7
ＭＳ ゴシック
 72
     1
 11
-4.604374281822
 21
-21.587436653514
 31
0.0
100
AcDbText
 73
     2
  0
ATTDEF
  5
16D1
330
16C3
100
AcDbEntity
  8
表題欄
100
AcDbText
 10
-3.158598027232
 20
-26.087447994505
 30
0.0
 40
1.5
  1

  7
ＭＳ ゴシック
 72
     1
 11
-3.158598027232
 21
-25.337447994505
 31
0.0
100
AcDbAttributeDefinition
  3
出図
  2
ISSUE
 70
     0
 74
     2
280
     0
  0
ATTDEF
  5
16D2
330
16C3
100
AcDbEntity
  8
表題欄
100
AcDbText
 10
-3.158598027232
 20
-18.587447994505
 30
0.0
 40
1.5
  1

  7
ＭＳ ゴシック
 72
     1
 11
-3.158598027232
 21
-17.837447994505
 31
0.0
100
AcDbAttributeDefinition
  3
初版作成日
  2
DATE
 70
     0
 74
     2
280
     0
  0
LINE
  5
16D3
330
16C3
100
AcDbEntity
  8
仮想線
100
AcDbLine
 10
7.778901972768
 20
-12.587447994505
 30
0.0
 11
7.778901972768
 21
-50.087447994505
 31
0.0
  0
LINE
  5
16D4
330
16C3
100
AcDbEntity
  8
仮想線
100
AcDbLine
 10
7.778901972768
 20
-17.743697994505
 30
0.0
 11
-10.971098027232
 21
-17.743697994505
 31
0.0
  0
LINE
  5
16D5
330
16C3
100
AcDbEntity
  8
仮想線
100
AcDbLine
 10
-3.158598027232
 20
-12.587447994505
 30
0.0
 11
-3.158598027232
 21
-50.087447994505
 31
0.0
  0
TEXT
  5
16D6
330
16C3
100
AcDbEntity
  8
表題欄
100
AcDbText
 10
20.901158756562
 20
-37.337436653514
 30
0.0
 40
1.5
  1
備 考   REMARKS
  7
ＭＳ ゴシック
 72
     1
 11
28.216401972768
 21
-36.587436653514
 31
0.0
100
AcDbText
 73
     2
  0
LINE
  5
16D7
330
16C3
100
AcDbEntity
  8
表題欄
100
AcDbLine
 10
20.278901972768
 20
-35.087447994505
 30
0.0
 11
20.278901972768
 21
-42.587447994505
 31
0.0
  0
TEXT
  5
16D8
330
16C3
100
AcDbEntity
  8
表題欄
100
AcDbText
 10
5.364207399803
 20
-37.337413971523
 30
0.0
 40
1.5
  1
縮 尺  SCALE
  7
ＭＳ ゴシック
 72
     1
 11
11.216401972768
 21
-36.587413971523
 31
0.0
100
AcDbText
 73
     2
  0
TEXT
  5
16D9
330
16C3
100
AcDbEntity
  8
表題欄
100
AcDbText
 10
5.313110113321
 20
-29.837413971523
 30
0.0
 40
1.5
  1
図 番  DRAWING No.
  7
ＭＳ ゴシック
 72
     1
 11
14.091401972768
 21
-29.087413971523
 31
0.0
100
AcDbText
 73
     2
  0
TEXT
  5
16DA
330
16C3
100
AcDbEntity
  8
表題欄
100
AcDbText
 10
5.276158756562
 20
-22.337436653514
 30
0.0
 40
1.5
  1
部 位  POSITION
  7
ＭＳ ゴシック
 72
     1
 11
12.591401972768
 21
-21.587436653514
 31
0.0
100
AcDbText
 73
     2
  0
TEXT
  5
16DB
330
16C3
100
AcDbEntity
  8
表題欄
100
AcDbText
 10
5.351890280883
 20
-14.837413971523
 30
0.0
 40
1.5
  1
名 称  NAME
  7
ＭＳ ゴシック
 72
     1
 11
10.716401972768
 21
-14.087413971523
 31
0.0
100
AcDbText
 73
     2
  0
LINE
  5
16DC
330
16C3
100
AcDbEntity
  8
仮想線
100
AcDbLine
 10
-10.971098027232
 20
-45.587447994505
 30
0.0
 11
4.653901972768
 21
-45.587447994505
 31
0.0
  0
TEXT
  5
16DD
330
16C3
100
AcDbEntity
  8
表題欄
100
AcDbText
 10
-10.236158362358
 20
-44.837436653514
 30
0.0
 40
1.5
  1
製 図  DRAWING
  7
ＭＳ ゴシック
 72
     1
 11
-3.408598027232
 21
-44.087436653514
 31
0.0
100
AcDbText
 73
     2
  0
LINE
  5
16DE
330
16C3
100
AcDbEntity
  8
仮想線
100
AcDbLine
 10
-10.971098027232
 20
-38.087447994505
 30
0.0
 11
4.653901972768
 21
-38.087447994505
 31
0.0
  0
TEXT
  5
16DF
330
16C3
100
AcDbEntity
  8
表題欄
100
AcDbText
 10
-10.348841243438
 20
-37.337436653514
 30
0.0
 40
1.5
  1
設 計  DESIGNED
  7
ＭＳ ゴシック
 72
     1
 11
-3.033598027232
 21
-36.587436653514
 31
0.0
100
AcDbText
 73
     2
  0
LINE
  5
16E0
330
16C3
100
AcDbEntity
  8
仮想線
100
AcDbLine
 10
-10.971098027232
 20
-30.587447994505
 30
0.0
 11
4.653901972768
 21
-30.587447994505
 31
0.0
  0
TEXT
  5
16E1
330
16C3
100
AcDbEntity
  8
表題欄
100
AcDbText
 10
-10.486158362358
 20
-29.837436653514
 30
0.0
 40
1.5
  1
検 図  CHECKED
  7
ＭＳ ゴシック
 72
     1
 11
-3.658598027232
 21
-29.087436653514
 31
0.0
100
AcDbText
 73
     2
  0
LINE
  5
16E2
330
16C3
100
AcDbEntity
  8
仮想線
100
AcDbLine
 10
-10.971098027232
 20
-23.087447994505
 30
0.0
 11
4.653901972768
 21
-23.087447994505
 31
0.0
  0
LINE
  5
16E3
330
16C3
100
AcDbEntity
  8
表題欄
100
AcDbLine
 10
-10.971098027232
 20
-20.087447994505
 30
0.0
 11
54.653901972768
 21
-20.087447994505
 31
0.0
  0
LINE
  5
16E4
330
16C3
100
AcDbEntity
  8
仮想線
100
AcDbLine
 10
-10.971098027232
 20
-15.587447994505
 30
0.0
 11
4.653901972768
 21
-15.587447994505
 31
0.0
  0
LINE
  5
16E5
330
16C3
100
AcDbEntity
  8
表題欄
100
AcDbLine
 10
-10.971098027232
 20
-42.587447994505
 30
0.0
 11
54.653901972768
 21
-42.587447994505
 31
0.0
  0
LINE
  5
16E6
330
16C3
100
AcDbEntity
  8
表題欄
100
AcDbLine
 10
-10.971098027232
 20
-35.087447994505
 30
0.0
 11
54.653901972768
 21
-35.087447994505
 31
0.0
  0
LINE
  5
16E7
330
16C3
100
AcDbEntity
  8
表題欄
100
AcDbLine
 10
-10.971098027232
 20
-27.587447994505
 30
0.0
 11
54.653901972768
 21
-27.587447994505
 31
0.0
  0
LINE
  5
16E8
330
16C3
100
AcDbEntity
  8
表題欄
100
AcDbLine
 10
-10.971098027232
 20
-20.087447994505
 30
0.0
 11
4.653901972768
 21
-20.087447994505
 31
0.0
  0
LINE
  5
16E9
330
16C3
100
AcDbEntity
  8
表題欄
100
AcDbLine
 10
4.653901972768
 20
-12.587425312518
 30
0.0
 11
4.653901972768
 21
-50.087402630532
 31
0.0
  0
LINE
  5
16EA
330
16C3
100
AcDbEntity
  8
表題欄
100
AcDbLine
 10
54.653901972768
 20
-12.587425312518
 30
0.0
 11
54.653901972768
 21
-50.087402630532
 31
0.0
  0
LINE
  5
16EB
330
16C3
100
AcDbEntity
  8
表題欄
100
AcDbLine
 10
-10.971098027232
 20
-50.087425312518
 30
0.0
 11
54.653901972768
 21
-50.087425312518
 31
0.0
  0
LINE
  5
16EC
330
16C3
100
AcDbEntity
  8
表題欄
100
AcDbLine
 10
-10.971098027232
 20
-12.587447994505
 30
0.0
 11
-10.971098027232
 21
-50.087425312518
 31
0.0
  0
LINE
  5
16ED
330
16C3
100
AcDbEntity
  8
表題欄
100
AcDbLine
 10
-10.971098027232
 20
-12.587447994505
 30
0.0
 11
54.653901972768
 21
-12.587447994505
 31
0.0
  0
TEXT
  5
16EE
330
16C3
100
AcDbEntity
  8
表題欄
100
AcDbText
 10
12.197265287505
 20
-45.694515786829
 30
0.0
 40
2.5
  1
HAYAKAWA RUBER.CO.,LTD
  7
ＭＳ ゴシック
 72
     1
 11
30.078970927119
 21
-44.444515786829
 31
0.0
100
AcDbText
 73
     2
  0
TEXT
  5
16EF
330
16C3
100
AcDbEntity
  8
表題欄
100
AcDbText
 10
16.892502341332
 20
-49.236756287726
 30
0.0
 40
2.5
  1
早川ゴム株式会社
  7
ＭＳ ゴシック
 72
     1
 11
29.897379170143
 21
-47.986756287726
 31
0.0
100
AcDbText
 73
     2
  0
TEXT
  5
16F0
330
16C3
100
AcDbEntity
  8
表題欄
100
AcDbText
 10
-10.723841243438
 20
-14.837436653514
 30
0.0
 40
1.5
  1
初版作成日 DATE
  7
ＭＳ ゴシック
 72
     1
 11
-3.408598027232
 21
-14.087436653514
 31
0.0
100
AcDbText
 73
     2
  0
TEXT
  5
16F1
330
16C3
100
AcDbEntity
  8
表題欄
100
AcDbText
 10
12.829009282394
 20
-48.774815337686
 30
0.0
 40
1.296537313423
  1
早
  7
ＭＳ ゴシック
 72
     4
 11
13.672074685644
 21
-48.192370633613
 31
0.0
100
AcDbText
  0
CIRCLE
  5
16F2
330
16C3
100
AcDbEntity
  8
表題欄
100
AcDbCircle
 10
13.672074685644
 20
-48.192370633613
 30
0.0
 40
1.243443373654526
  0
CIRCLE
  5
16F3
330
16C3
100
AcDbEntity
  8
表題欄
100
AcDbCircle
 10
14.251608110648
 20
-47.888691940232
 30
0.0
 40
1.899437983206664
  0
ENDBLK
  5
18FF
330
16C3
100
AcDbEntity
  8
0
100
AcDbBlockEnd
  0
BLOCK
  5
1B01
330
1AE5
100
AcDbEntity
  8
0
100
AcDbBlockBegin
  2
*T16
 70
     1
 10
0.0
 20
0.0
 30
0.0
  3
*T16
  1

  0
MTEXT
  5
1AEE
330
1AE5
100
AcDbEntity
  8
表題欄
 62
     0
100
AcDbMText
 10
18.75
 20
6.875
 30
0.0
 40
7.5
 41
33.75
 46
0.0
 71
     5
 72
     5
  1
符号
  7
ＭＳ ゴシック
 73
     1
 44
1.0
  0
MTEXT
  5
1AEF
330
1AE5
100
AcDbEntity
  8
表題欄
 62
     0
100
AcDbMText
 10
62.5
 20
6.875
 30
0.0
 40
7.5
 41
46.25
 46
0.0
 71
     5
 72
     5
  1
日付
  7
ＭＳ ゴシック
 73
     1
 44
1.0
  0
MTEXT
  5
1AF0
330
1AE5
100
AcDbEntity
  8
表題欄
 62
     0
100
AcDbMText
 10
106.25
 20
6.875
 30
0.0
 40
7.5
 41
33.75
 46
0.0
 71
     5
 72
     5
  1
訂正者
  7
ＭＳ ゴシック
 73
     1
 44
1.0
  0
MTEXT
  5
1AF1
330
1AE5
100
AcDbEntity
  8
表題欄
 62
     0
100
AcDbMText
 10
287.5
 20
6.875
 30
0.0
 40
7.5
 41
321.25
 46
0.0
 71
     5
 72
     5
  1
訂正概要
  7
ＭＳ ゴシック
 73
     1
 44
1.0
  0
INSERT
  5
1AF2
330
1AE5
100
AcDbEntity
  8
表題欄
 62
     0
100
AcDbBlockReference
  2
*U37
 10
12.976497308098
 20
15.625
 30
0.0
  0
INSERT
  5
1AF3
330
1AE5
100
AcDbEntity
  8
表題欄
 62
     0
100
AcDbBlockReference
  2
*U38
 10
12.976497308098
 20
29.375
 30
0.0
  0
INSERT
  5
1AF4
330
1AE5
100
AcDbEntity
  8
表題欄
 62
     0
100
AcDbBlockReference
  2
*U39
 10
12.976497308098
 20
43.125
 30
0.0
  0
INSERT
  5
1AF5
330
1AE5
100
AcDbEntity
  8
表題欄
 62
     0
100
AcDbBlockReference
  2
*U40
 10
12.976497308098
 20
56.875
 30
0.0
  0
LINE
  5
1AF6
330
1AE5
100
AcDbEntity
  8
表題欄
  6
ByBlock
 62
     0
370
    -2
100
AcDbLine
 10
0.0
 20
0.0
 30
0.0
 11
450.0
 21
0.0
 31
0.0
  0
LINE
  5
1AF7
330
1AE5
100
AcDbEntity
  8
表題欄
  6
ByBlock
 62
     0
370
    -2
100
AcDbLine
 10
0.0
 20
0.0
 30
0.0
 11
0.0
 21
68.75
 31
0.0
  0
LINE
  5
1AF8
330
1AE5
100
AcDbEntity
  8
表題欄
  6
ByBlock
 62
     0
370
    -2
100
AcDbLine
 10
37.5
 20
0.0
 30
0.0
 11
37.5
 21
68.75
 31
0.0
  0
LINE
  5
1AF9
330
1AE5
100
AcDbEntity
  8
表題欄
  6
ByBlock
 62
     0
370
    -2
100
AcDbLine
 10
87.5
 20
0.0
 30
0.0
 11
87.5
 21
68.75
 31
0.0
  0
LINE
  5
1AFA
330
1AE5
100
AcDbEntity
  8
表題欄
  6
ByBlock
 62
     0
370
    -2
100
AcDbLine
 10
125.0
 20
0.0
 30
0.0
 11
125.0
 21
68.75
 31
0.0
  0
LINE
  5
1AFB
330
1AE5
100
AcDbEntity
  8
表題欄
  6
ByBlock
 62
     0
370
    -2
100
AcDbLine
 10
450.0
 20
0.0
 30
0.0
 11
450.0
 21
68.75
 31
0.0
  0
LINE
  5
1AFC
330
1AE5
100
AcDbEntity
  8
表題欄
  6
ByBlock
 62
     0
370
    -2
100
AcDbLine
 10
0.0
 20
13.75
 30
0.0
 11
450.0
 21
13.75
 31
0.0
  0
LINE
  5
1AFD
330
1AE5
100
AcDbEntity
  8
表題欄
  6
ByBlock
 62
     0
370
    -2
100
AcDbLine
 10
0.0
 20
27.5
 30
0.0
 11
450.0
 21
27.5
 31
0.0
  0
LINE
  5
1AFE
330
1AE5
100
AcDbEntity
  8
表題欄
  6
ByBlock
 62
     0
370
    -2
100
AcDbLine
 10
0.0
 20
41.25
 30
0.0
 11
450.0
 21
41.25
 31
0.0
  0
LINE
  5
1AFF
330
1AE5
100
AcDbEntity
  8
表題欄
  6
ByBlock
 62
     0
370
    -2
100
AcDbLine
 10
0.0
 20
55.0
 30
0.0
 11
450.0
 21
55.0
 31
0.0
  0
LINE
  5
1B00
330
1AE5
100
AcDbEntity
  8
表題欄
  6
ByBlock
 62
     0
370
    -2
100
AcDbLine
 10
0.0
 20
68.75
 30
0.0
 11
450.0
 21
68.75
 31
0.0
  0
ENDBLK
  5
1B02
330
1AE5
100
AcDbEntity
  8
0
100
AcDbBlockEnd
  0
BLOCK
  5
1B1B
330
1B0B
100
AcDbEntity
  8
0
100
AcDbBlockBegin
  2
*U21
 70
     1
 10
0.0
 20
0.0
 30
0.0
  3
*U21
  1

  0
INSERT
  5
1B0C
330
1B0B
100
AcDbEntity
  8
0
100
AcDbBlockReference
  2
囲い文字1
 10
4.163741498082
 20
44.833324013919
 30
0.0
 41
3.446987668374
 42
3.446987668374
 43
3.446987668374
  0
ENDBLK
  5
1B1C
330
1B0B
100
AcDbEntity
  8
0
100
AcDbBlockEnd
  0
BLOCK
  5
1B1D
330
1B0D
100
AcDbEntity
  8
0
100
AcDbBlockBegin
  2
*U22
 70
     1
 10
0.0
 20
0.0
 30
0.0
  3
*U22
  1

  0
INSERT
  5
1B0E
330
1B0D
100
AcDbEntity
  8
0
100
AcDbBlockReference
  2
囲い文字2
 10
29.020280082295
 20
-53.885965169321
 30
0.0
 41
3.446987668374
 42
3.446987668374
 43
3.446987668374
  0
ENDBLK
  5
1B1E
330
1B0D
100
AcDbEntity
  8
0
100
AcDbBlockEnd
  0
BLOCK
  5
1B1F
330
1B0F
100
AcDbEntity
  8
0
100
AcDbBlockBegin
  2
*U23
 70
     1
 10
0.0
 20
0.0
 30
0.0
  3
*U23
  1

  0
INSERT
  5
1B10
330
1B0F
100
AcDbEntity
  8
0
100
AcDbBlockReference
  2
囲い文字3
 10
14.463195287959
 20
-24.903733959604
 30
0.0
 41
3.446987668374
 42
3.446987668374
 43
3.446987668374
  0
ENDBLK
  5
1B20
330
1B0F
100
AcDbEntity
  8
0
100
AcDbBlockEnd
  0
BLOCK
  5
1B21
330
1B11
100
AcDbEntity
  8
0
100
AcDbBlockBegin
  2
*U24
 70
     1
 10
0.0
 20
0.0
 30
0.0
  3
*U24
  1

  0
INSERT
  5
1B12
330
1B11
100
AcDbEntity
  8
0
100
AcDbBlockReference
  2
囲い文字4
 10
15.531435594298
 20
-18.313096846695
 30
0.0
 41
3.446987668374
 42
3.446987668374
 43
3.446987668374
  0
ENDBLK
  5
1B22
330
1B11
100
AcDbEntity
  8
0
100
AcDbBlockEnd
  0
BLOCK
  5
1B3D
330
1B3B
100
AcDbEntity
  8
0
100
AcDbBlockBegin
  2
*U33
 70
     1
 10
0.0
 20
0.0
 30
0.0
  3
*U33
  1

  0
INSERT
  5
1B3C
330
1B3B
100
AcDbEntity
  8
0
100
AcDbBlockReference
  2
囲い文字1
 10
4.163741498082
 20
44.833324013919
 30
0.0
 41
3.446987668374
 42
3.446987668374
 43
3.446987668374
  0
ENDBLK
  5
1B3E
330
1B3B
100
AcDbEntity
  8
0
100
AcDbBlockEnd
  0
BLOCK
  5
1B41
330
1B3F
100
AcDbEntity
  8
0
100
AcDbBlockBegin
  2
*U34
 70
     1
 10
0.0
 20
0.0
 30
0.0
  3
*U34
  1

  0
INSERT
  5
1B40
330
1B3F
100
AcDbEntity
  8
0
100
AcDbBlockReference
  2
囲い文字2
 10
29.020280082295
 20
-53.885965169321
 30
0.0
 41
3.446987668374
 42
3.446987668374
 43
3.446987668374
  0
ENDBLK
  5
1B42
330
1B3F
100
AcDbEntity
  8
0
100
AcDbBlockEnd
  0
BLOCK
  5
1B45
330
1B43
100
AcDbEntity
  8
0
100
AcDbBlockBegin
  2
*U35
 70
     1
 10
0.0
 20
0.0
 30
0.0
  3
*U35
  1

  0
INSERT
  5
1B44
330
1B43
100
AcDbEntity
  8
0
100
AcDbBlockReference
  2
囲い文字3
 10
14.463195287959
 20
-24.903733959604
 30
0.0
 41
3.446987668374
 42
3.446987668374
 43
3.446987668374
  0
ENDBLK
  5
1B46
330
1B43
100
AcDbEntity
  8
0
100
AcDbBlockEnd
  0
BLOCK
  5
1B49
330
1B47
100
AcDbEntity
  8
0
100
AcDbBlockBegin
  2
*U36
 70
     1
 10
0.0
 20
0.0
 30
0.0
  3
*U36
  1

  0
INSERT
  5
1B48
330
1B47
100
AcDbEntity
  8
0
100
AcDbBlockReference
  2
囲い文字4
 10
15.531435594298
 20
-18.313096846695
 30
0.0
 41
3.446987668374
 42
3.446987668374
 43
3.446987668374
  0
ENDBLK
  5
1B4A
330
1B47
100
AcDbEntity
  8
0
100
AcDbBlockEnd
  0
BLOCK
  5
1BAC
330
1BA4
100
AcDbEntity
  8
0
100
AcDbBlockBegin
  2
*U37
 70
     1
 10
0.0
 20
0.0
 30
0.0
  3
*U37
  1

  0
INSERT
  5
1BA5
330
1BA4
100
AcDbEntity
  8
0
100
AcDbBlockReference
  2
囲い文字1
 10
4.163741498082
 20
44.833324013919
 30
0.0
 41
3.446987668374
 42
3.446987668374
 43
3.446987668374
  0
ENDBLK
  5
1BAD
330
1BA4
100
AcDbEntity
  8
0
100
AcDbBlockEnd
  0
BLOCK
  5
1BAE
330
1BA6
100
AcDbEntity
  8
0
100
AcDbBlockBegin
  2
*U38
 70
     1
 10
0.0
 20
0.0
 30
0.0
  3
*U38
  1

  0
INSERT
  5
1BA7
330
1BA6
100
AcDbEntity
  8
0
100
AcDbBlockReference
  2
囲い文字2
 10
29.020280082295
 20
-53.885965169321
 30
0.0
 41
3.446987668374
 42
3.446987668374
 43
3.446987668374
  0
ENDBLK
  5
1BAF
330
1BA6
100
AcDbEntity
  8
0
100
AcDbBlockEnd
  0
BLOCK
  5
1BB0
330
1BA8
100
AcDbEntity
  8
0
100
AcDbBlockBegin
  2
*U39
 70
     1
 10
0.0
 20
0.0
 30
0.0
  3
*U39
  1

  0
INSERT
  5
1BA9
330
1BA8
100
AcDbEntity
  8
0
100
AcDbBlockReference
  2
囲い文字3
 10
14.463195287959
 20
-24.903733959604
 30
0.0
 41
3.446987668374
 42
3.446987668374
 43
3.446987668374
  0
ENDBLK
  5
1BB1
330
1BA8
100
AcDbEntity
  8
0
100
AcDbBlockEnd
  0
BLOCK
  5
1BB2
330
1BAA
100
AcDbEntity
  8
0
100
AcDbBlockBegin
  2
*U40
 70
     1
 10
0.0
 20
0.0
 30
0.0
  3
*U40
  1

  0
INSERT
  5
1BAB
330
1BAA
100
AcDbEntity
  8
0
100
AcDbBlockReference
  2
囲い文字4
 10
15.531435594298
 20
-18.313096846695
 30
0.0
 41
3.446987668374
 42
3.446987668374
 43
3.446987668374
  0
ENDBLK
  5
1BB3
330
1BAA
100
AcDbEntity
  8
0
100
AcDbBlockEnd
  0
ENDSEC
  0
SECTION
  2
ENTITIES
  0
LWPOLYLINE
  5
190A
330
A
100
AcDbEntity
  8
輪郭線
100
AcDbPolyline
 90
        4
 70
     1
 43
0.0
 10
1640.0
 20
1148.0
 10
40.0
 20
1148.0
 10
40.0
 20
40.0
 10
1640.0
 20
40.0
  0
LWPOLYLINE
  5
190B
330
A
100
AcDbEntity
  8
図面枠
100
AcDbPolyline
 90
        4
 70
     1
 43
0.0
 10
1680.0
 20
0.0
 10
1680.0
 20
1188.0
 10
0.0
 20
1188.0
 10
0.0
 20
0.0
  0
TEXT
  5
190C
330
A
100
AcDbEntity
  8
文字
100
AcDbText
 10
1381.016085259772
 20
201.201143699771
 30
0.0
 40
12.0
  1
＊防水部材の厚みはフリースケール
  7
ＭＳ ゴシック
 72
     1
 11
1505.862902816356
 21
207.201143699771
 31
0.0
100
AcDbText
 73
     2
  0
ACAD_TABLE
  5
190D
102
{ACAD_XDICTIONARY
360
1BB7
102
}
330
A
100
AcDbEntity
  8
表題欄
160
               344
310
5801000002000000CC000000260000000000000000FC8C400000000000004440000000000000000000000000000000000000000000000000000000000000F03F000000000000F03F0000000000000000000000000000000041006300440062005400610062006C006500000009000000000000000000000000000000000000
310
000000F03F0000000000000000000000000000F03F00000000000000000000000000000000000000000000000000000000000000000000000000000000740078007400000042004900470046004F004E00540000008400000006000000050000000000000000FC8C4000000000000044400000000000000000000000000086
310
95400000000000004440000000000000000000000000008695400000000000305B4000000000000000000000000000FC8C400000000000305B4000000000000000000000000000FC8C4000000000000044400000000000000000
100
AcDbBlockReference
  2
*T16
 10
927.5
 20
40.0
 30
0.0
100
AcDbTable
342
1660
343
1AE5
 11
1.0
 21
0.0
 31
0.0
 90
        6
 91
        5
 92
        4
 93
       24
 94
        0
 95
        0
 96
        0
 40
1.875
 41
1.875
141
13.75
141
13.75
141
13.75
141
13.75
141
13.75
142
37.5
142
50.0
142
37.5
142
325.0
171
     1
172
     0
173
     0
174
     0
175
     1
176
     1
 91
       32
178
     0
145
0.0
140
7.5
 92
        0
301
CELL_VALUE
 93
        0
 90
        4
  1
符号
 94
        0
300

302
符号
304
ACVALUE_END
171
     1
172
     0
173
     0
174
     0
175
     1
176
     1
 91
       32
178
     0
145
0.0
140
7.5
 92
        0
301
CELL_VALUE
 93
        0
 90
        4
  1
日付
 94
        0
300

302
日付
304
ACVALUE_END
171
     1
172
     0
173
     0
174
     0
175
     1
176
     1
 91
       32
178
     0
145
0.0
140
7.5
 92
        0
301
CELL_VALUE
 93
        0
 90
        4
  1
訂正者
 94
        0
300

302
訂正者
304
ACVALUE_END
171
     1
172
     0
173
     0
174
     0
175
     1
176
     1
 91
       32
178
     0
145
0.0
140
7.5
 92
        0
301
CELL_VALUE
 93
        0
 90
        4
  1
訂正概要
 94
        0
300

302
訂正概要
304
ACVALUE_END
171
     1
172
     0
173
     0
174
     0
175
     1
176
     1
 91
       32
178
     0
145
0.0
140
7.5
 92
        0
301
CELL_VALUE
 93
        0
 90
        4
  1

 94
        0
300

302

304
ACVALUE_END
171
     1
172
     0
173
     0
174
     0
175
     1
176
     1
 91
       32
178
     0
145
0.0
140
7.5
 92
        0
301
CELL_VALUE
 93
        0
 90
        4
  1

 94
        0
300

302

304
ACVALUE_END
171
     1
172
     0
173
     0
174
     0
175
     1
176
     1
 91
       32
178
     0
145
0.0
140
7.5
 92
        0
301
CELL_VALUE
 93
        0
 90
        4
  1

 94
        0
300

302

304
ACVALUE_END
171
     1
172
     0
173
     0
174
     0
175
     1
176
     1
 91
       33
178
     0
145
0.0
170
     4
140
7.5
 92
        0
301
CELL_VALUE
 93
        0
 90
        4
  1

 94
        0
300

302

304
ACVALUE_END
171
     1
172
     0
173
     0
174
     0
175
     1
176
     1
 91
       33
178
     0
145
0.0
170
     5
140
7.5
 92
        0
301
CELL_VALUE
 93
        0
 90
        4
  1

 94
        0
300

302

304
ACVALUE_END
171
     1
172
     0
173
     0
174
     0
175
     1
176
     1
 91
       33
178
     0
145
0.0
170
     5
140
7.5
 92
        0
301
CELL_VALUE
 93
        0
 90
        4
  1

 94
        0
300

302

304
ACVALUE_END
171
     1
172
     0
173
     0
174
     0
175
     1
176
     1
 91
       33
178
     0
145
0.0
170
     5
140
7.5
 92
        0
301
CELL_VALUE
 93
        0
 90
        4
  1

 94
        0
300

302

304
ACVALUE_END
171
     1
172
     0
173
     0
174
     0
175
     1
176
     1
 91
       33
178
     0
145
0.0
170
     4
140
7.5
 92
        0
301
CELL_VALUE
 93
        0
 90
        4
  1

 94
        0
300

302

304
ACVALUE_END
171
     1
172
     0
173
     0
174
     0
175
     1
176
     1
 91
       33
178
     0
145
0.0
170
     5
140
7.5
 92
        0
301
CELL_VALUE
 93
        0
 90
        4
  1

 94
        0
300

302

304
ACVALUE_END
171
     1
172
     0
173
     0
174
     0
175
     1
176
     1
 91
       33
178
     0
145
0.0
170
     5
140
7.5
 92
        0
301
CELL_VALUE
 93
        0
 90
        4
  1

 94
        0
300

302

304
ACVALUE_END
171
     1
172
     0
173
     0
174
     0
175
     1
176
     1
 91
       33
178
     0
145
0.0
170
     5
140
7.5
 92
        0
301
CELL_VALUE
 93
        0
 90
        4
  1

 94
        0
300

302

304
ACVALUE_END
171
     1
172
     0
173
     0
174
     0
175
     1
176
     1
 91
       33
178
     0
145
0.0
170
     4
140
7.5
 92
        0
301
CELL_VALUE
 93
        0
 90
        4
  1

 94
        0
300

302

304
ACVALUE_END
171
     1
172
     0
173
     0
174
     0
175
     1
176
     1
 91
       33
178
     0
145
0.0
170
     5
140
7.5
 92
        0
301
CELL_VALUE
 93
        0
 90
        4
  1

 94
        0
300

302

304
ACVALUE_END
171
     1
172
     0
173
     0
174
     0
175
     1
176
     1
 91
       33
178
     0
145
0.0
170
     5
140
7.5
 92
        0
301
CELL_VALUE
 93
        0
 90
        4
  1

 94
        0
300

302

304
ACVALUE_END
171
     1
172
     0
173
     0
174
     0
175
     1
176
     1
 91
       33
178
     0
145
0.0
170
     5
140
7.5
 92
        0
301
CELL_VALUE
 93
        0
 90
        4
  1

 94
        0
300

302

304
ACVALUE_END
171
     1
172
     0
173
     0
174
     0
175
     1
176
     1
 91
       33
178
     0
145
0.0
170
     4
140
7.5
 92
        0
301
CELL_VALUE
 93
        0
 90
        4
  1

 94
        0
300

302

304
ACVALUE_END
  0
INSERT
  5
190E
330
A
100
AcDbEntity
  8
表題欄
100
AcDbBlockReference
 66
     1
  2
表題欄(定義)
 10
1421.384392108914
 20
240.349701250074
 30
0.0
 41
4.0
 42
4.0
 43
4.0
  0
ATTRIB
  5
190F
102
{ACAD_XDICTIONARY
360
1910
102
}
330
190E
100
AcDbEntity
  8
表題欄
100
AcDbText
 10
1518.100000000006
 20
75.999909272054
 30
0.0
 40
6.0
  1

  7
ＭＳ ゴシック
100
AcDbAttribute
  2
REMARKS
 70
     0
280
     0
1001
AcadAnnotative
1000
AnnotativeData
1002
{
1070
     1
1070
     0
1002
}
  0
ATTRIB
  5
1913
102
{ACAD_XDICTIONARY
360
1914
102
}
330
190E
100
AcDbEntity
  8
表題欄
100
AcDbText
 10
1456.505610854062
 20
75.999909272054
 30
0.0
 40
6.0
  1
A3-1:4
  7
ＭＳ ゴシック
 72
     1
 11
1468.209999999992
 21
78.999909272054
 31
0.0
100
AcDbAttribute
  2
SCALE
 70
     0
 74
     2
280
     0
1001
AcadAnnotative
1000
AnnotativeData
1002
{
1070
     1
1070
     0
1002
}
  0
ATTRIB
  5
1917
102
{ACAD_XDICTIONARY
360
1918
102
}
330
190E
100
AcDbEntity
  8
表題欄
100
AcDbText
 10
1454.5
 20
108.999909272054
 30
0.0
 40
6.0
  1
HD-PH02
  7
ＭＳ ゴシック
100
AcDbAttribute
  2
DRAWING　NO.
 70
     0
280
     0
1001
AcadAnnotative
1000
AnnotativeData
1002
{
1070
     1
1070
     0
1002
}
  0
ATTRIB
  5
191B
102
{ACAD_XDICTIONARY
360
191C
102
}
330
190E
100
AcDbEntity
  8
表題欄
100
AcDbText
 10
1454.5
 20
138.999909272054
 30
0.0
 40
6.0
  1
屋上取合い 塔屋 立上り アゴ埋め ♯10
  7
ＭＳ ゴシック
100
AcDbAttribute
  2
POSITION
 70
     0
280
     0
1001
AcadAnnotative
1000
AnnotativeData
1002
{
1070
     1
1070
     0
1002
}
  0
ATTRIB
  5
191F
102
{ACAD_XDICTIONARY
360
1920
102
}
330
190E
100
AcDbEntity
  8
表題欄
100
AcDbText
 10
1454.5
 20
168.999909272054
 30
0.0
 40
6.0
  1
RC下地 非断熱屋根 HD/NHD工法
  7
ＭＳ ゴシック
100
AcDbAttribute
  2
NAME
 70
     0
280
     0
1001
AcadAnnotative
1000
AnnotativeData
1002
{
1070
     1
1070
     0
1002
}
  0
ATTRIB
  5
1923
102
{ACAD_XDICTIONARY
360
1924
102
}
330
190E
100
AcDbEntity
  8
表題欄
100
AcDbText
 10
1398.996342378392
 20
45.999909272054
 30
0.0
 40
6.0
  1
小 山
  7
ＭＳ ゴシック
 72
     1
 11
1408.75
 21
48.999909272054
 31
0.0
100
AcDbAttribute
  2
DRAWING
 70
     0
 74
     2
280
     0
1001
AcadAnnotative
1000
AnnotativeData
1002
{
1070
     1
1070
     0
1002
}
  0
ATTRIB
  5
1927
330
190E
100
AcDbEntity
  8
表題欄
100
AcDbText
 10
1408.75
 20
75.999909272054
 30
0.0
 40
6.0
  1

  7
ＭＳ ゴシック
 72
     1
 11
1408.75
 21
78.999909272054
 31
0.0
100
AcDbAttribute
  2
DESIGNED
 70
     0
 74
     2
280
     0
  0
ATTRIB
  5
1928
102
{ACAD_XDICTIONARY
360
1929
102
}
330
190E
100
AcDbEntity
  8
表題欄
100
AcDbText
 10
1408.75
 20
105.999909272054
 30
0.0
 40
6.0
  1

  7
ＭＳ ゴシック
 72
     1
 11
1408.75
 21
108.999909272054
 31
0.0
100
AcDbAttribute
  2
CHECKED
 70
     0
 74
     2
280
     0
1001
AcadAnnotative
1000
AnnotativeData
1002
{
1070
     1
1070
     0
1002
}
  0
ATTRIB
  5
192C
102
{ACAD_XDICTIONARY
360
192D
102
}
330
190E
100
AcDbEntity
  8
表題欄
100
AcDbText
 10
1393.144147805427
 20
135.999909272054
 30
0.0
 40
6.0
  1
20220204
  7
ＭＳ ゴシック
 72
     1
 11
1408.75
 21
138.999909272054
 31
0.0
100
AcDbAttribute
  2
ISSUE
 70
     0
 74
     2
280
     0
1001
AcadAnnotative
1000
AnnotativeData
1002
{
1070
     1
1070
     0
1002
}
  0
ATTRIB
  5
1930
102
{ACAD_XDICTIONARY
360
1931
102
}
330
190E
100
AcDbEntity
  8
表題欄
100
AcDbText
 10
1393.144147805427
 20
165.999909272054
 30
0.0
 40
6.0
  1
20200226
  7
ＭＳ ゴシック
 72
     1
 11
1408.75
 21
168.999909272054
 31
0.0
100
AcDbAttribute
  2
DATE
 70
     0
 74
     2
280
     0
1001
AcadAnnotative
1000
AnnotativeData
1002
{
1070
     1
1070
     0
1002
}
  0
SEQEND
  5
1934
330
190E
100
AcDbEntity
  8
表題欄
  0
LINE
  5
1935
330
A
100
AcDbEntity
  8
IBｼｰﾄ
100
AcDbLine
 10
924.031484806794
 20
372.036634324401
 30
0.0
 11
924.031484806794
 21
858.137473459803
 31
0.0
  0
LINE
  5
1936
330
A
100
AcDbEntity
  8
IBｼｰﾄ
100
AcDbLine
 10
857.196630194325
 20
316.397477629522
 30
0.0
 11
419.364818139788
 21
316.397477629522
 31
0.0
  0
LINE
  5
1937
330
A
100
AcDbEntity
  8
IBｼｰﾄ
100
AcDbLine
 10
919.031484806794
 20
373.856485495699
 30
0.0
 11
919.031484806794
 21
862.893719558098
 31
0.0
  0
LINE
  5
1938
330
A
100
AcDbEntity
  8
IBｼｰﾄ
100
AcDbLine
 10
855.856884232166
 20
321.397477629522
 30
0.0
 11
419.364818139788
 21
321.397477629522
 31
0.0
  0
LWPOLYLINE
  5
1939
330
A
100
AcDbEntity
  8
部材(ﾋﾞｽ類)
100
AcDbPolyline
 90
       32
 70
     0
 43
0.0
 10
889.769761667209
 20
262.368453567949
 10
889.736583791644
 20
262.368453567949
 42
0.126825768809
 10
889.55877135403
 20
263.058188651303
 10
888.83125023538
 20
264.375440361844
 42
-0.256490137263
 10
888.82474919621
 20
264.950288956294
 10
890.411294865655
 20
267.918701532435
 42
0.253636490355
 10
890.40486458072
 20
269.057217095098
 10
888.957144214073
 20
272.070905949804
 42
-0.218900263645
 10
888.95055544161
 20
272.458960941105
 10
890.321435721708
 20
275.625087424014
 42
0.209095404736
 10
890.317953727441
 20
276.582211642984
 10
889.050220428791
 20
279.534832615813
 42
-0.199072424679
 10
889.046074849612
 20
279.865164195748
 10
889.61713519218
 20
281.293015736439
 42
0.099854070822
 10
889.72869837613
 20
281.846076842994
 10
889.72869837613
 20
282.656146878129
 42
3.867768794258
 10
889.098318740027
 20
282.656146878129
 10
889.098318740027
 20
281.846076842994
 42
-0.095438157436
 10
889.04133929481
 20
281.550280838703
 10
888.460973796289
 20
280.099760368721
 42
0.206638844849
 10
888.483331898227
 20
279.258446607302
 10
889.831308570458
 20
276.350853661337
 42
-0.21270382653
 10
889.838575642294
 20
275.864792851382
 10
888.470412659401
 20
272.666400231159
 42
0.20973763421
 10
888.478322188545
 20
271.813260911338
 10
889.856707785948
 20
268.749352367377
 42
-0.270363890763
 10
889.818221652909
 20
268.148730457069
 10
888.271550339501
 20
265.227701529795
 42
0.248644858073
 10
888.272043849109
 20
264.108939132871
 10
888.997543904698
 20
262.741684715023
 42
-0.122570027372
 10
889.090433324513
 20
262.368453567949
 10
889.057255448948
 20
262.368453567949
  0
LWPOLYLINE
  5
193A
330
A
100
AcDbEntity
  8
部材(ﾋﾞｽ類)
100
AcDbPolyline
 90
       32
 70
     0
 43
0.0
 10
889.749967866461
 20
260.665768695028
 10
889.769761667209
 20
262.368453567949
 42
0.126825813089
 10
889.587813933613
 20
263.07422922484
 10
888.860206716345
 20
264.391636283093
 42
-0.256544899034
 10
888.854009895993
 20
264.934649810668
 10
890.440553213964
 20
267.903057987198
 42
0.251254532285
 10
890.439191399637
 20
269.063538883522
 10
888.987048232899
 20
272.085276791331
 42
-0.218900263645
 10
888.98093008704
 20
272.445613568962
 10
890.351882151619
 20
275.611904619502
 42
0.209095404736
 10
890.348303435167
 20
276.59561562258
 10
889.080707019399
 20
279.54792227671
 42
-0.199109332435
 10
889.07690132907
 20
279.852896227057
 10
889.657413909881
 20
281.303784104464
 42
0.095438169349
 10
889.761876251723
 20
281.846076842994
 10
889.761876251723
 20
282.636925436513
 42
3.649823686132
 10
889.065140864433
 20
282.636925436513
 10
889.065140864433
 20
281.846076842994
 42
-0.105213986763
 10
888.999033336469
 20
281.535397052372
 10
888.429871384025
 20
280.11133869781
 42
0.206444475481
 10
888.453231454216
 20
279.244491869795
 10
889.801208126446
 20
276.336898923837
 42
-0.212703826529
 10
889.808071472071
 20
275.877841492198
 10
888.439908489177
 20
272.679448871982
 42
0.209737634211
 10
888.448065191129
 20
271.799648948414
 10
889.826736346266
 20
268.73510565982
 42
-0.271504379566
 10
889.789728989825
 20
268.165820643902
 10
888.242229147785
 20
265.243226965256
 42
0.248644858073
 10
888.242736366024
 20
264.093387835077
 10
888.968236421613
 20
262.726133417229
 42
-0.122570027372
 10
889.057255448948
 20
262.368453567949
 10
889.077049249667
 20
260.665768695028
  0
LWPOLYLINE
  5
193B
330
A
100
AcDbEntity
  8
部材(ﾋﾞｽ類)
100
AcDbPolyline
 90
        4
 70
     0
 43
0.0
 10
889.090433324513
 20
260.665768695028
 10
889.090433324513
 20
261.642961928934
 10
889.736583791644
 20
261.642961928934
 10
889.736583791644
 20
260.665768695028
  0
LINE
  5
193C
330
A
100
AcDbEntity
  8
部材(ﾋﾞｽ類)
100
AcDbLine
 10
892.413508558064
 20
308.5490206381
 30
0.0
 11
886.413508558093
 21
308.5490206381
 31
0.0
  0
LINE
  5
193D
330
A
100
AcDbEntity
  8
部材(ﾋﾞｽ類)
100
AcDbLine
 10
884.916348954925
 20
310.064144297015
 30
0.0
 11
893.910668161203
 21
310.064144297015
 31
0.0
  0
LINE
  5
193E
330
A
100
AcDbEntity
  8
部材(ﾋﾞｽ類)
100
AcDbLine
 10
884.913508558064
 20
319.564144295524
 30
0.0
 11
893.913508558064
 21
319.564144295524
 31
0.0
  0
LINE
  5
193F
330
A
100
AcDbEntity
  8
部材(ﾋﾞｽ類)
100
AcDbLine
 10
891.083508558077
 20
316.734144295529
 30
0.0
 11
887.74350855808
 21
316.734144295529
 31
0.0
  0
LINE
  5
1940
330
A
100
AcDbEntity
  8
部材(ﾋﾞｽ類)
100
AcDbLine
 10
890.58661314554
 20
260.665768695028
 30
0.0
 11
887.576049095485
 21
259.614545621756
 31
0.0
  0
LINE
  5
1941
330
A
100
AcDbEntity
  8
部材(ﾋﾞｽ類)
100
AcDbLine
 10
890.300226352236
 20
260.665768695028
 30
0.0
 11
887.576049095485
 21
259.714545621755
 31
0.0
  0
LINE
  5
1942
330
A
100
AcDbEntity
  8
部材(ﾋﾞｽ類)
100
AcDbLine
 10
890.706511304714
 20
260.665768695028
 30
0.0
 11
888.496894737968
 21
259.261066097788
 31
0.0
  0
LINE
  5
1943
330
A
100
AcDbEntity
  8
部材(ﾋﾞｽ類)
100
AcDbLine
 10
890.361866351304
 20
257.78929376982
 30
0.0
 11
888.721926871949
 21
257.217532913019
 31
0.0
  0
LINE
  5
1944
330
A
100
AcDbEntity
  8
部材(ﾋﾞｽ類)
100
AcDbLine
 10
890.361866351304
 20
257.889293769818
 30
0.0
 11
888.721926871949
 21
257.317532913024
 31
0.0
  0
LINE
  5
1945
330
A
100
AcDbEntity
  8
部材(ﾋﾞｽ類)
100
AcDbLine
 10
889.886910037167
 20
257.606975122617
 30
0.0
 11
889.081435438595
 21
257.079530504008
 31
0.0
  0
LINE
  5
1946
330
A
100
AcDbEntity
  8
部材(ﾋﾞｽ類)
100
AcDbLine
 10
890.046941066452
 20
258.204219054664
 30
0.0
 11
888.955166512082
 21
257.55077255315
 31
0.0
  0
LINE
  5
1947
330
A
100
AcDbEntity
  8
部材(ﾋﾞｽ類)
100
AcDbLine
 10
888.120505811443
 20
260.665768695028
 30
0.0
 11
888.20646565716
 21
260.344962183415
 31
0.0
  0
LWPOLYLINE
  5
1948
330
A
100
AcDbEntity
  8
部材(ﾋﾞｽ類)
100
AcDbPolyline
 90
        4
 70
     0
 43
0.0
 10
886.502400159749
 20
275.45473052669
 10
886.502400159749
 20
275.205841365416
 10
886.804621839343
 20
274.441394345049
 10
886.840180921281
 20
273.232507624809
  0
LWPOLYLINE
  5
1949
330
A
100
AcDbEntity
  8
部材(ﾋﾞｽ類)
100
AcDbPolyline
 90
        4
 70
     0
 43
0.0
 10
886.893513440999
 20
269.41028625067
 10
886.875740003685
 20
270.619172969047
 10
886.502400159749
 20
271.419172969792
 10
886.502400159749
 20
271.614729610417
  0
LWPOLYLINE
  5
194A
330
A
100
AcDbEntity
  8
部材(ﾋﾞｽ類)
100
AcDbPolyline
 90
        4
 70
     0
 43
0.0
 10
886.502400159749
 20
267.792506710772
 10
886.502400159749
 20
267.614729610417
 10
886.946845960716
 20
266.77917510565
 10
886.964631604875
 20
265.57028533626
  0
LWPOLYLINE
  5
194B
330
A
100
AcDbEntity
  8
部材(ﾋﾞｽ類)
100
AcDbPolyline
 90
       58
 70
     1
 43
0.0
 10
894.438950375479
 20
280.78510501358
 10
891.791113349958
 20
277.319600531446
 10
891.791113349958
 20
281.809019417771
 42
-0.355962003442
 10
891.956131426297
 20
282.011441035975
 10
892.164440986584
 20
282.057908577182
 10
892.235546943615
 20
282.093464606711
 10
892.306652900646
 20
282.093464606711
 10
892.377771064988
 20
282.129020638102
 10
892.395544502302
 20
282.129020638102
 10
892.395544502302
 20
308.46617792562
 42
-0.19891236738
 10
892.454123146046
 20
308.607599281859
 10
893.910668161203
 20
310.064144297015
 10
893.910668161203
 20
310.665768695028
 10
884.916348954925
 20
310.665768695028
 10
884.916348954925
 20
310.064144297015
 10
886.37289397011
 20
308.607599281859
 42
-0.19891236738
 10
886.431472613855
 20
308.46617792562
 10
886.431472613855
 20
282.129020638102
 10
886.449246051168
 20
282.129020638102
 10
886.52036421551
 20
282.093464606711
 10
886.591470172541
 20
282.093464606711
 10
886.662576129573
 20
282.057908577182
 10
886.870885689859
 20
282.011441035975
 42
-0.355962003442
 10
887.035903766198
 20
281.809019417771
 10
887.035903766198
 20
277.319600531446
 10
884.388066740677
 20
280.78510501358
 42
0.982770495282
 10
883.665251988481
 20
280.252470705047
 10
886.413508558093
 20
276.054730527809
 10
886.502400159749
 20
274.454730528181
 10
887.569062757218
 20
274.454730528181
 10
887.569062757218
 20
272.232507626301
 10
886.413508558093
 20
272.232507626301
 10
886.502400159749
 20
270.614729611909
 10
887.515742444812
 20
270.614729611909
 10
887.44463648778
 20
268.410286252161
 10
886.413508558093
 20
268.410286252161
 10
886.502400159749
 20
266.792506712263
 10
887.373518323904
 20
266.792506712263
 10
887.302400159562
 20
264.570285337752
 10
886.413508558093
 20
264.570285337752
 10
886.521441203688
 20
262.429834253002
 10
887.163508558093
 20
260.665768695028
 10
891.663508558064
 20
260.665768695028
 10
892.305575912469
 20
262.429834253009
 10
892.413508558064
 20
264.570285337752
 10
891.524616956594
 20
264.570285337752
 10
891.453498792253
 20
266.792506712263
 10
892.324616956408
 20
266.792506712263
 10
892.413508558064
 20
268.410286252161
 10
891.382380628376
 20
268.410286252161
 10
891.311274671345
 20
270.614729611909
 10
892.324616956408
 20
270.614729611909
 10
892.413508558064
 20
272.232507626301
 10
891.257954358938
 20
272.232507626301
 10
891.257954358938
 20
274.454730528181
 10
892.324616956408
 20
274.454730528181
 10
892.413508558064
 20
276.054730527809
 10
895.161765127676
 20
280.252470705047
 42
0.982770495282
  0
LWPOLYLINE
  5
194C
330
A
100
AcDbEntity
  8
部材(ﾋﾞｽ類)
100
AcDbPolyline
 90
        4
 70
     0
 43
0.0
 10
892.324616956408
 20
267.792506710772
 10
892.324616956408
 20
267.614729610417
 10
891.880171155441
 20
266.77917510565
 10
891.862385511282
 20
265.57028533626
  0
LWPOLYLINE
  5
194D
330
A
100
AcDbEntity
  8
部材(ﾋﾞｽ類)
100
AcDbPolyline
 90
        4
 70
     0
 43
0.0
 10
891.933503675158
 20
269.41028625067
 10
891.951277112472
 20
270.619172969047
 10
892.324616956408
 20
271.419172969792
 10
892.324616956408
 20
271.614729610417
  0
LWPOLYLINE
  5
194E
330
A
100
AcDbEntity
  8
部材(ﾋﾞｽ類)
100
AcDbPolyline
 90
        4
 70
     0
 43
0.0
 10
892.324616956408
 20
275.45473052669
 10
892.324616956408
 20
275.205841365416
 10
892.022395276814
 20
274.441394345049
 10
891.986836194876
 20
273.232507624809
  0
LWPOLYLINE
  5
194F
330
A
100
AcDbEntity
  8
部材(ﾋﾞｽ類)
100
AcDbPolyline
 90
        7
 70
     0
 43
0.0
 10
889.761876251723
 20
281.916890391454
 10
891.257804851484
 20
281.916854217649
 10
891.257804851484
 20
276.054598358227
 10
891.524467449141
 20
276.054598358227
 10
891.524467449141
 20
276.8075200741
 42
-0.13354901382
 10
891.593330508214
 20
277.060741199122
 10
891.791113349958
 20
277.319600531446
  0
LWPOLYLINE
  5
1950
330
A
100
AcDbEntity
  8
部材(ﾋﾞｽ類)
100
AcDbPolyline
 90
        7
 70
     0
 43
0.0
 10
889.065141573054
 20
281.91689010938
 10
887.569212264643
 20
281.916854217649
 10
887.569212264643
 20
276.054598358227
 10
887.302549666987
 20
276.054598358227
 10
887.302549666987
 20
276.8075200741
 42
0.13354901382
 10
887.233686607942
 20
277.060741199122
 10
887.035903766198
 20
277.319600531446
  0
LWPOLYLINE
  5
1951
330
A
100
AcDbEntity
  8
部材(ﾋﾞｽ類)
100
AcDbPolyline
 90
       10
 70
     0
 43
0.0
 10
887.74350855808
 20
310.064144297015
 10
887.74350855808
 20
316.319930733152
 42
0.19891236738
 10
887.450615339272
 20
317.027037514337
 10
884.913508558064
 20
319.564144295524
 10
884.913508558064
 20
319.864144295527
 10
893.913508558064
 20
319.864144295527
 10
893.913508558064
 20
319.564144295524
 10
891.376401776884
 20
317.027037514337
 42
0.19891236738
 10
891.083508558077
 20
316.319930733152
 10
891.083508558077
 20
310.064144297015
  0
LWPOLYLINE
  5
1952
330
A
100
AcDbEntity
  8
部材(ﾋﾞｽ類)
100
AcDbPolyline
 90
       15
 70
     0
 43
0.0
 10
888.627988749737
 20
260.665768695028
 10
888.20646565716
 20
260.344962183415
 10
887.576049095485
 20
259.714545621755
 10
887.576049095485
 20
259.614545621756
 10
888.496894737968
 20
259.261066097788
 10
888.955166512082
 20
257.55077255315
 10
888.721926871949
 20
257.317532913024
 10
888.721926871949
 20
257.217532913019
 10
889.081435438595
 20
257.079530504008
 10
889.413508558064
 20
255.84021675025
 10
889.886910037167
 20
257.606975122617
 10
890.361866351304
 20
257.78929376982
 10
890.361866351304
 20
257.889293769818
 10
890.046941066452
 20
258.204219054664
 10
890.706511304714
 20
260.665768695028
  0
LINE
  5
1953
330
A
100
AcDbEntity
  8
中心線
 48
0.25
100
AcDbLine
 10
889.413508558064
 20
255.496113980967
 30
0.0
 11
889.413508558064
 21
322.194296603862
 31
0.0
  0
LINE
  5
1954
330
A
100
AcDbEntity
  8
寸法線
100
AcDbLine
 10
677.198151473276
 20
315.397477629522
 30
0.0
 11
607.259870585869
 21
436.535522073893
 31
0.0
  0
LINE
  5
1955
330
A
100
AcDbEntity
  8
寸法線
100
AcDbLine
 10
607.259870585869
 20
436.535522073893
 30
0.0
 11
595.259870585869
 21
436.535522073893
 31
0.0
  0
TEXT
  5
1956
330
A
100
AcDbEntity
  8
文字
100
AcDbText
 10
372.237361046111
 20
432.697033667369
 30
0.0
 40
12.0
  1
サンタックIB-HWCシート 1.5㎜
  7
基本スタイル
 72
     2
 11
590.719291770132
 21
432.697033667369
 31
0.0
100
AcDbText
1001
AcadAnnotative
1000
AnnotativeData
1002
{
1070
     1
1070
     0
1002
}
  0
LWPOLYLINE
  5
1957
330
A
100
AcDbEntity
  8
寸法線
100
AcDbPolyline
 90
        3
 70
     0
 43
0.0
 10
672.955531844374
 20
319.640139374729
 10
677.198151473276
 20
315.397477629522
 10
675.645265968662
 20
321.193040294998
  0
LINE
  5
1958
330
A
100
AcDbEntity
  8
寸法線
100
AcDbLine
 10
622.656783328392
 20
409.866981234107
 30
0.0
 11
610.656783328392
 21
409.866981234107
 31
0.0
  0
TEXT
  5
1959
330
A
100
AcDbEntity
  8
文字
100
AcDbText
 10
465.663534761498
 20
406.028492827587
 30
0.0
 40
12.0
  1
緩衝フォーム 1.0㎜
  7
基本スタイル
 72
     2
 11
606.116204512655
 21
406.028492827587
 31
0.0
100
AcDbText
1001
AcadAnnotative
1000
AnnotativeData
1002
{
1070
     1
1070
     0
1002
}
  0
LINE
  5
195A
330
A
100
AcDbEntity
  8
寸法線
100
AcDbLine
 10
865.461121918604
 20
436.535522073893
 30
0.0
 11
853.461121918604
 21
436.535522073893
 31
0.0
  0
TEXT
  5
195B
330
A
100
AcDbEntity
  8
文字
100
AcDbText
 10
739.679577740857
 20
432.697033667369
 30
0.0
 40
12.0
  1
IB積層鋼鈑♯10
  7
基本スタイル
 72
     2
 11
848.920543102868
 21
432.697033667369
 31
0.0
100
AcDbText
1001
AcadAnnotative
1000
AnnotativeData
1002
{
1070
     1
1070
     0
1002
}
  0
LWPOLYLINE
  5
195C
330
A
100
AcDbEntity
  8
寸法線
100
AcDbPolyline
 90
        3
 70
     0
 43
0.0
 10
861.991521353965
 20
334.732729362181
 10
866.234140982867
 20
330.490067616974
 10
864.681255478253
 20
336.285630282451
  0
LINE
  5
195D
330
A
100
AcDbEntity
  8
寸法線
100
AcDbLine
 10
866.234140982867
 20
330.49006761697
 30
0.0
 11
820.406383848493
 21
409.866981234107
 31
0.0
  0
LWPOLYLINE
  5
195E
330
A
100
AcDbEntity
  8
寸法線
100
AcDbPolyline
 90
        3
 70
     0
 43
0.0
 10
913.093048480693
 20
350.927804280452
 10
917.335668109594
 20
346.685142535245
 10
915.78278260498
 20
352.480705200721
  0
LINE
  5
195F
330
A
100
AcDbEntity
  8
寸法線
100
AcDbLine
 10
820.406383848493
 20
409.866981234107
 30
0.0
 11
808.406383848493
 21
409.866981234107
 31
0.0
  0
TEXT
  5
1960
330
A
100
AcDbEntity
  8
文字
100
AcDbText
 10
725.836544059891
 20
406.028492827587
 30
0.0
 40
12.0
  1
IBリキッド
  7
基本スタイル
 72
     2
 11
803.865805032756
 21
406.028492827587
 31
0.0
100
AcDbText
1001
AcadAnnotative
1000
AnnotativeData
1002
{
1070
     1
1070
     0
1002
}
  0
LINE
  5
1961
330
A
100
AcDbEntity
  8
寸法線
100
AcDbLine
 10
917.335668109594
 20
346.685142535245
 30
0.0
 11
865.461121918604
 21
436.535522073893
 31
0.0
  0
LINE
  5
1962
330
A
100
AcDbEntity
  8
躯体
100
AcDbLine
 10
1019.364818139788
 20
683.064144288586
 30
0.0
 11
1019.364818139788
 21
311.064144296521
 31
0.0
  0
LINE
  5
1963
330
A
100
AcDbEntity
  8
躯体
100
AcDbLine
 10
1019.364818139788
 20
311.064144296521
 30
0.0
 11
419.364818139788
 21
311.064144296521
 31
0.0
  0
LINE
  5
1964
330
A
100
AcDbEntity
  8
躯体
100
AcDbLine
 10
1019.364818139788
 20
683.064144288586
 30
0.0
 11
994.654627561045
 21
683.064144288586
 31
0.0
  0
LINE
  5
1965
330
A
100
AcDbEntity
  8
躯体
100
AcDbLine
 10
969.654627561045
 20
683.064144288586
 30
0.0
 11
929.364818139788
 21
683.064144288586
 31
0.0
  0
LINE
  5
1966
330
A
100
AcDbEntity
  8
躯体
100
AcDbLine
 10
969.654627561045
 20
683.064144288586
 30
0.0
 11
969.654627561045
 21
703.064144288586
 31
0.0
  0
LINE
  5
1967
330
A
100
AcDbEntity
  8
躯体
100
AcDbLine
 10
989.654627561045
 20
703.064144288586
 30
0.0
 11
969.654627561045
 21
703.064144288586
 31
0.0
  0
LINE
  5
1968
330
A
100
AcDbEntity
  8
躯体
100
AcDbLine
 10
989.654627561045
 20
703.064144288586
 30
0.0
 11
994.654627561045
 21
683.064144288586
 31
0.0
  0
LINE
  5
1969
330
A
100
AcDbEntity
  8
躯体
100
AcDbLine
 10
929.364818139788
 20
853.06414428859
 30
0.0
 11
929.364818139788
 21
683.064144288586
 31
0.0
  0
LINE
  5
196A
330
A
100
AcDbEntity
  8
躯体
100
AcDbLine
 10
723.651525945694
 20
311.064144296521
 30
0.0
 11
557.002632318472
 21
161.064144296521
 31
0.0
  0
LINE
  5
196B
330
A
100
AcDbEntity
  8
躯体
100
AcDbLine
 10
719.364818139788
 20
311.064144296521
 30
0.0
 11
552.817065400333
 21
161.064144296521
 31
0.0
  0
LINE
  5
196C
330
A
100
AcDbEntity
  8
躯体
100
AcDbLine
 10
715.08732515297
 20
311.064144296521
 30
0.0
 11
548.371188815363
 21
161.064144296524
 31
0.0
  0
LINE
  5
196D
330
A
100
AcDbEntity
  8
断熱材
 62
     4
370
    -1
100
AcDbLine
 10
990.864818140544
 20
682.064144288586
 30
0.0
 11
981.086193230731
 21
680.980604133965
 31
0.0
  0
ARC
  5
196E
330
A
100
AcDbEntity
  8
断熱材
 62
     4
100
AcDbCircle
 10
981.262095055339
 20
679.102741250204
 30
0.0
 40
1.886083365637118
100
AcDbArc
 50
95.351354122312
 51
264.648645877688
  0
ARC
  5
196F
330
A
100
AcDbEntity
  8
断熱材
 62
     4
100
AcDbCircle
 10
1015.46754122572
 20
673.179935173433
 30
0.0
 40
1.886083365637118
100
AcDbArc
 50
275.351354122312
 51
84.648645877688
  0
LINE
  5
1970
330
A
100
AcDbEntity
  8
断熱材
 62
     4
370
    -1
100
AcDbLine
 10
1015.643443050329
 20
671.302072289669
 30
0.0
 11
981.086193230731
 21
669.134991980438
 31
0.0
  0
LINE
  5
1971
330
A
100
AcDbEntity
  8
断熱材
 62
     4
370
    -1
100
AcDbLine
 10
1015.643443050329
 20
675.057798057202
 30
0.0
 11
981.086193230731
 21
677.224878366429
 31
0.0
  0
ARC
  5
1972
330
A
100
AcDbEntity
  8
断熱材
 62
     4
100
AcDbCircle
 10
981.262095055339
 20
667.257129096663
 30
0.0
 40
1.886083365637118
100
AcDbArc
 50
95.351354122312
 51
264.648645877688
  0
LINE
  5
1973
330
A
100
AcDbEntity
  8
断熱材
 62
     4
370
    -1
100
AcDbLine
 10
1015.643443050329
 20
663.212185903667
 30
0.0
 11
981.086193230731
 21
665.379266212902
 31
0.0
  0
ARC
  5
1974
330
A
100
AcDbEntity
  8
断熱材
 62
     4
100
AcDbCircle
 10
1015.46754122572
 20
661.334323019899
 30
0.0
 40
1.886083365637118
100
AcDbArc
 50
275.351354122312
 51
84.648645877688
  0
LINE
  5
1975
330
A
100
AcDbEntity
  8
断熱材
 62
     4
370
    -1
100
AcDbLine
 10
1015.643443050329
 20
659.456460136134
 30
0.0
 11
981.086193230731
 21
657.289379826896
 31
0.0
  0
ARC
  5
1976
330
A
100
AcDbEntity
  8
断熱材
 62
     4
100
AcDbCircle
 10
981.262095055339
 20
655.411516943135
 30
0.0
 40
1.886083365637118
100
AcDbArc
 50
95.351354122312
 51
264.648645877688
  0
ARC
  5
1977
330
A
100
AcDbEntity
  8
断熱材
 62
     4
100
AcDbCircle
 10
1015.46754122572
 20
649.488710866372
 30
0.0
 40
1.886083365637118
100
AcDbArc
 50
275.351354122312
 51
84.648645877688
  0
LINE
  5
1978
330
A
100
AcDbEntity
  8
断熱材
 62
     4
370
    -1
100
AcDbLine
 10
1015.643443050329
 20
647.610847982607
 30
0.0
 11
981.086193230731
 21
645.443767673369
 31
0.0
  0
LINE
  5
1979
330
A
100
AcDbEntity
  8
断熱材
 62
     4
370
    -1
100
AcDbLine
 10
1015.643443050329
 20
651.36657375014
 30
0.0
 11
981.086193230731
 21
653.533654059367
 31
0.0
  0
ARC
  5
197A
330
A
100
AcDbEntity
  8
断熱材
 62
     4
100
AcDbCircle
 10
981.262095055339
 20
643.565904789601
 30
0.0
 40
1.886083365637118
100
AcDbArc
 50
95.351354122312
 51
264.648645877688
  0
ARC
  5
197B
330
A
100
AcDbEntity
  8
断熱材
 62
     4
100
AcDbCircle
 10
1015.46754122572
 20
637.64309871283
 30
0.0
 40
1.886083365637118
100
AcDbArc
 50
275.351354122312
 51
84.648645877688
  0
LINE
  5
197C
330
A
100
AcDbEntity
  8
断熱材
 62
     4
370
    -1
100
AcDbLine
 10
1015.643443050329
 20
635.765235829065
 30
0.0
 11
981.086193230731
 21
633.598155519834
 31
0.0
  0
LINE
  5
197D
330
A
100
AcDbEntity
  8
断熱材
 62
     4
370
    -1
100
AcDbLine
 10
1015.643443050329
 20
639.520961596598
 30
0.0
 11
981.086193230731
 21
641.688041905833
 31
0.0
  0
ARC
  5
197E
330
A
100
AcDbEntity
  8
断熱材
 62
     4
100
AcDbCircle
 10
981.262095055339
 20
631.720292636066
 30
0.0
 40
1.886083365637118
100
AcDbArc
 50
95.351354122312
 51
264.648645877688
  0
ARC
  5
197F
330
A
100
AcDbEntity
  8
断熱材
 62
     4
100
AcDbCircle
 10
1015.46754122572
 20
625.797486559302
 30
0.0
 40
1.886083365637118
100
AcDbArc
 50
275.351354122312
 51
84.648645877688
  0
LINE
  5
1980
330
A
100
AcDbEntity
  8
断熱材
 62
     4
370
    -1
100
AcDbLine
 10
1015.643443050329
 20
623.919623675538
 30
0.0
 11
981.086193230731
 21
621.7525433663
 31
0.0
  0
LINE
  5
1981
330
A
100
AcDbEntity
  8
断熱材
 62
     4
370
    -1
100
AcDbLine
 10
1015.643443050329
 20
627.67534944307
 30
0.0
 11
981.086193230731
 21
629.842429752305
 31
0.0
  0
ARC
  5
1982
330
A
100
AcDbEntity
  8
断熱材
 62
     4
100
AcDbCircle
 10
981.262095055339
 20
619.874680482531
 30
0.0
 40
1.886083365637118
100
AcDbArc
 50
95.351354122312
 51
264.648645877688
  0
ARC
  5
1983
330
A
100
AcDbEntity
  8
断熱材
 62
     4
100
AcDbCircle
 10
1015.46754122572
 20
613.951874405768
 30
0.0
 40
1.886083365637118
100
AcDbArc
 50
275.351354122312
 51
84.648645877688
  0
LINE
  5
1984
330
A
100
AcDbEntity
  8
断熱材
 62
     4
370
    -1
100
AcDbLine
 10
1015.643443050329
 20
615.829737289536
 30
0.0
 11
981.086193230731
 21
617.996817598763
 31
0.0
  0
LINE
  5
1985
330
A
100
AcDbEntity
  8
断熱材
100
AcDbLine
 10
1018.364818140777
 20
682.064144288586
 30
0.0
 11
1018.364818140777
 21
312.064144296521
 31
0.0
  0
LINE
  5
1986
330
A
100
AcDbEntity
  8
断熱材
100
AcDbLine
 10
978.364818140282
 20
312.064144296521
 30
0.0
 11
978.364818140282
 21
682.064144288586
 31
0.0
  0
LINE
  5
1987
330
A
100
AcDbEntity
  8
断熱材
100
AcDbLine
 10
978.364818140282
 20
682.064144288586
 30
0.0
 11
1018.364818140777
 21
682.064144288586
 31
0.0
  0
LINE
  5
1988
330
A
100
AcDbEntity
  8
断熱材
 62
     4
370
    -1
100
AcDbLine
 10
1015.643443050329
 20
612.074011522003
 30
0.0
 11
981.086193230731
 21
609.906931212772
 31
0.0
  0
ARC
  5
1989
330
A
100
AcDbEntity
  8
断熱材
 62
     4
100
AcDbCircle
 10
981.262095055339
 20
608.029068328997
 30
0.0
 40
1.886083365637118
100
AcDbArc
 50
95.351354122312
 51
264.648645877688
  0
LINE
  5
198A
330
A
100
AcDbEntity
  8
断熱材
 62
     4
370
    -1
100
AcDbLine
 10
1015.643443050329
 20
603.984125136001
 30
0.0
 11
981.086193230731
 21
606.151205445236
 31
0.0
  0
ARC
  5
198B
330
A
100
AcDbEntity
  8
断熱材
 62
     4
100
AcDbCircle
 10
1015.46754122572
 20
602.106262252233
 30
0.0
 40
1.886083365637118
100
AcDbArc
 50
275.351354122312
 51
84.648645877688
  0
LINE
  5
198C
330
A
100
AcDbEntity
  8
断熱材
 62
     4
370
    -1
100
AcDbLine
 10
1015.643443050329
 20
600.228399368469
 30
0.0
 11
981.086193230731
 21
598.061319059234
 31
0.0
  0
ARC
  5
198D
330
A
100
AcDbEntity
  8
断熱材
 62
     4
100
AcDbCircle
 10
981.262095055339
 20
596.183456175473
 30
0.0
 40
1.886083365637118
100
AcDbArc
 50
95.351354122312
 51
264.648645877688
  0
ARC
  5
198E
330
A
100
AcDbEntity
  8
断熱材
 62
     4
100
AcDbCircle
 10
1015.46754122572
 20
590.260650098709
 30
0.0
 40
1.886083365637118
100
AcDbArc
 50
275.351354122312
 51
84.648645877688
  0
LINE
  5
198F
330
A
100
AcDbEntity
  8
断熱材
 62
     4
370
    -1
100
AcDbLine
 10
1015.643443050329
 20
588.382787214941
 30
0.0
 11
981.086193230731
 21
586.215706905707
 31
0.0
  0
LINE
  5
1990
330
A
100
AcDbEntity
  8
断熱材
 62
     4
370
    -1
100
AcDbLine
 10
1015.643443050329
 20
592.138512982474
 30
0.0
 11
981.086193230731
 21
594.305593291705
 31
0.0
  0
ARC
  5
1991
330
A
100
AcDbEntity
  8
断熱材
 62
     4
100
AcDbCircle
 10
981.262095055339
 20
584.337844021939
 30
0.0
 40
1.886083365637118
100
AcDbArc
 50
95.351354122312
 51
264.648645877688
  0
ARC
  5
1992
330
A
100
AcDbEntity
  8
断熱材
 62
     4
100
AcDbCircle
 10
1015.46754122572
 20
578.415037945168
 30
0.0
 40
1.886083365637118
100
AcDbArc
 50
275.351354122312
 51
84.648645877688
  0
LINE
  5
1993
330
A
100
AcDbEntity
  8
断熱材
 62
     4
370
    -1
100
AcDbLine
 10
1015.643443050329
 20
576.537175061399
 30
0.0
 11
981.086193230731
 21
574.370094752172
 31
0.0
  0
LINE
  5
1994
330
A
100
AcDbEntity
  8
断熱材
 62
     4
370
    -1
100
AcDbLine
 10
1015.643443050329
 20
580.292900828932
 30
0.0
 11
981.086193230731
 21
582.45998113817
 31
0.0
  0
ARC
  5
1995
330
A
100
AcDbEntity
  8
断熱材
 62
     4
100
AcDbCircle
 10
981.262095055339
 20
572.492231868404
 30
0.0
 40
1.886083365637118
100
AcDbArc
 50
95.351354122312
 51
264.648645877688
  0
ARC
  5
1996
330
A
100
AcDbEntity
  8
断熱材
 62
     4
100
AcDbCircle
 10
1015.46754122572
 20
566.56942579164
 30
0.0
 40
1.886083365637118
100
AcDbArc
 50
275.351354122312
 51
84.648645877688
  0
LINE
  5
1997
330
A
100
AcDbEntity
  8
断熱材
 62
     4
370
    -1
100
AcDbLine
 10
1015.643443050329
 20
564.691562907872
 30
0.0
 11
981.086193230731
 21
562.524482598637
 31
0.0
  0
LINE
  5
1998
330
A
100
AcDbEntity
  8
断熱材
 62
     4
370
    -1
100
AcDbLine
 10
1015.643443050329
 20
568.447288675405
 30
0.0
 11
981.086193230731
 21
570.614368984643
 31
0.0
  0
ARC
  5
1999
330
A
100
AcDbEntity
  8
断熱材
 62
     4
100
AcDbCircle
 10
981.262095055339
 20
560.646619714869
 30
0.0
 40
1.886083365637118
100
AcDbArc
 50
95.351354122312
 51
264.648645877688
  0
ARC
  5
199A
330
A
100
AcDbEntity
  8
断熱材
 62
     4
100
AcDbCircle
 10
1015.46754122572
 20
554.723813638106
 30
0.0
 40
1.886083365637118
100
AcDbArc
 50
275.351354122312
 51
84.648645877688
  0
LINE
  5
199B
330
A
100
AcDbEntity
  8
断熱材
 62
     4
370
    -1
100
AcDbLine
 10
1015.643443050329
 20
556.60167652187
 30
0.0
 11
981.086193230731
 21
558.768756831101
 31
0.0
  0
LINE
  5
199C
330
A
100
AcDbEntity
  8
断熱材
 62
     4
370
    -1
100
AcDbLine
 10
1015.643443050329
 20
552.845950754338
 30
0.0
 11
981.086193230731
 21
550.67887044511
 31
0.0
  0
ARC
  5
199D
330
A
100
AcDbEntity
  8
断熱材
 62
     4
100
AcDbCircle
 10
981.262095055339
 20
548.801007561335
 30
0.0
 40
1.886083365637118
100
AcDbArc
 50
95.351354122312
 51
264.648645877688
  0
LINE
  5
199E
330
A
100
AcDbEntity
  8
断熱材
 62
     4
370
    -1
100
AcDbLine
 10
1015.643443050329
 20
544.756064368336
 30
0.0
 11
981.086193230731
 21
546.923144677574
 31
0.0
  0
ARC
  5
199F
330
A
100
AcDbEntity
  8
断熱材
 62
     4
100
AcDbCircle
 10
1015.46754122572
 20
542.878201484571
 30
0.0
 40
1.886083365637118
100
AcDbArc
 50
275.351354122312
 51
84.648645877688
  0
LINE
  5
19A0
330
A
100
AcDbEntity
  8
断熱材
 62
     4
370
    -1
100
AcDbLine
 10
1015.643443050329
 20
541.000338600803
 30
0.0
 11
981.086193230731
 21
538.833258291568
 31
0.0
  0
ARC
  5
19A1
330
A
100
AcDbEntity
  8
断熱材
 62
     4
100
AcDbCircle
 10
981.262095055339
 20
536.955395407807
 30
0.0
 40
1.886083365637118
100
AcDbArc
 50
95.351354122312
 51
264.648645877688
  0
ARC
  5
19A2
330
A
100
AcDbEntity
  8
断熱材
 62
     4
100
AcDbCircle
 10
1015.46754122572
 20
531.032589331044
 30
0.0
 40
1.886083365637118
100
AcDbArc
 50
275.351354122312
 51
84.648645877688
  0
LINE
  5
19A3
330
A
100
AcDbEntity
  8
断熱材
 62
     4
370
    -1
100
AcDbLine
 10
1015.643443050329
 20
529.154726447276
 30
0.0
 11
981.086193230731
 21
526.987646138041
 31
0.0
  0
LINE
  5
19A4
330
A
100
AcDbEntity
  8
断熱材
 62
     4
370
    -1
100
AcDbLine
 10
1015.643443050329
 20
532.910452214808
 30
0.0
 11
981.086193230731
 21
535.077532524039
 31
0.0
  0
ARC
  5
19A5
330
A
100
AcDbEntity
  8
断熱材
 62
     4
100
AcDbCircle
 10
981.262095055339
 20
525.109783254273
 30
0.0
 40
1.886083365637118
100
AcDbArc
 50
95.351354122312
 51
264.648645877688
  0
ARC
  5
19A6
330
A
100
AcDbEntity
  8
断熱材
 62
     4
100
AcDbCircle
 10
1015.46754122572
 20
519.186977177502
 30
0.0
 40
1.886083365637118
100
AcDbArc
 50
275.351354122312
 51
84.648645877688
  0
LINE
  5
19A7
330
A
100
AcDbEntity
  8
断熱材
 62
     4
370
    -1
100
AcDbLine
 10
1015.643443050329
 20
517.309114293734
 30
0.0
 11
981.086193230731
 21
515.142033984506
 31
0.0
  0
LINE
  5
19A8
330
A
100
AcDbEntity
  8
断熱材
 62
     4
370
    -1
100
AcDbLine
 10
1015.643443050329
 20
521.064840061266
 30
0.0
 11
981.086193230731
 21
523.231920370505
 31
0.0
  0
ARC
  5
19A9
330
A
100
AcDbEntity
  8
断熱材
 62
     4
100
AcDbCircle
 10
981.262095055339
 20
513.264171100738
 30
0.0
 40
1.886083365637118
100
AcDbArc
 50
95.351354122312
 51
264.648645877688
  0
ARC
  5
19AA
330
A
100
AcDbEntity
  8
断熱材
 62
     4
100
AcDbCircle
 10
1015.46754122572
 20
507.341365023975
 30
0.0
 40
1.886083365637118
100
AcDbArc
 50
275.351354122312
 51
84.648645877688
  0
LINE
  5
19AB
330
A
100
AcDbEntity
  8
断熱材
 62
     4
370
    -1
100
AcDbLine
 10
1015.643443050329
 20
505.463502140206
 30
0.0
 11
981.086193230731
 21
503.296421830972
 31
0.0
  0
LINE
  5
19AC
330
A
100
AcDbEntity
  8
断熱材
 62
     4
370
    -1
100
AcDbLine
 10
1015.643443050329
 20
509.219227907739
 30
0.0
 11
981.086193230731
 21
511.386308216977
 31
0.0
  0
ARC
  5
19AD
330
A
100
AcDbEntity
  8
断熱材
 62
     4
100
AcDbCircle
 10
981.262095055339
 20
501.418558947204
 30
0.0
 40
1.886083365637118
100
AcDbArc
 50
95.351354122312
 51
264.648645877688
  0
ARC
  5
19AE
330
A
100
AcDbEntity
  8
断熱材
 62
     4
100
AcDbCircle
 10
1015.46754122572
 20
495.49575287044
 30
0.0
 40
1.886083365637118
100
AcDbArc
 50
275.351354122312
 51
84.648645877688
  0
LINE
  5
19AF
330
A
100
AcDbEntity
  8
断熱材
 62
     4
370
    -1
100
AcDbLine
 10
1015.643443050329
 20
497.373615754204
 30
0.0
 11
981.086193230731
 21
499.540696063435
 31
0.0
  0
LINE
  5
19B0
330
A
100
AcDbEntity
  8
断熱材
 62
     4
370
    -1
100
AcDbLine
 10
1015.643443050329
 20
493.617889986672
 30
0.0
 11
981.086193230731
 21
491.450809677444
 31
0.0
  0
ARC
  5
19B1
330
A
100
AcDbEntity
  8
断熱材
 62
     4
100
AcDbCircle
 10
981.262095055339
 20
489.572946793669
 30
0.0
 40
1.886083365637118
100
AcDbArc
 50
95.351354122312
 51
264.648645877688
  0
LINE
  5
19B2
330
A
100
AcDbEntity
  8
断熱材
 62
     4
370
    -1
100
AcDbLine
 10
1015.643443050329
 20
485.52800360067
 30
0.0
 11
981.086193230731
 21
487.695083909908
 31
0.0
  0
ARC
  5
19B3
330
A
100
AcDbEntity
  8
断熱材
 62
     4
100
AcDbCircle
 10
1015.46754122572
 20
483.650140716905
 30
0.0
 40
1.886083365637118
100
AcDbArc
 50
275.351354122312
 51
84.648645877688
  0
LINE
  5
19B4
330
A
100
AcDbEntity
  8
断熱材
 62
     4
370
    -1
100
AcDbLine
 10
1015.643443050329
 20
481.772277833137
 30
0.0
 11
981.086193230731
 21
479.605197523902
 31
0.0
  0
ARC
  5
19B5
330
A
100
AcDbEntity
  8
断熱材
 62
     4
100
AcDbCircle
 10
981.262095055339
 20
477.727334640142
 30
0.0
 40
1.886083365637118
100
AcDbArc
 50
95.351354122312
 51
264.648645877688
  0
ARC
  5
19B6
330
A
100
AcDbEntity
  8
断熱材
 62
     4
100
AcDbCircle
 10
1015.46754122572
 20
471.804528563378
 30
0.0
 40
1.886083365637118
100
AcDbArc
 50
275.351354122312
 51
84.648645877688
  0
LINE
  5
19B7
330
A
100
AcDbEntity
  8
断熱材
 62
     4
370
    -1
100
AcDbLine
 10
1015.643443050329
 20
469.92666567961
 30
0.0
 11
981.086193230731
 21
467.759585370375
 31
0.0
  0
LINE
  5
19B8
330
A
100
AcDbEntity
  8
断熱材
 62
     4
370
    -1
100
AcDbLine
 10
1015.643443050329
 20
473.682391447142
 30
0.0
 11
981.086193230731
 21
475.849471756374
 31
0.0
  0
ARC
  5
19B9
330
A
100
AcDbEntity
  8
断熱材
 62
     4
100
AcDbCircle
 10
981.262095055339
 20
465.881722486607
 30
0.0
 40
1.886083365637118
100
AcDbArc
 50
95.351354122312
 51
264.648645877688
  0
ARC
  5
19BA
330
A
100
AcDbEntity
  8
断熱材
 62
     4
100
AcDbCircle
 10
1015.46754122572
 20
459.958916409836
 30
0.0
 40
1.886083365637118
100
AcDbArc
 50
275.351354122312
 51
84.648645877688
  0
LINE
  5
19BB
330
A
100
AcDbEntity
  8
断熱材
 62
     4
370
    -1
100
AcDbLine
 10
1015.643443050329
 20
458.081053526068
 30
0.0
 11
981.086193230731
 21
455.913973216841
 31
0.0
  0
LINE
  5
19BC
330
A
100
AcDbEntity
  8
断熱材
 62
     4
370
    -1
100
AcDbLine
 10
1015.643443050329
 20
461.836779293601
 30
0.0
 11
981.086193230731
 21
464.003859602839
 31
0.0
  0
ARC
  5
19BD
330
A
100
AcDbEntity
  8
断熱材
 62
     4
100
AcDbCircle
 10
981.262095055339
 20
454.036110333072
 30
0.0
 40
1.886083365637118
100
AcDbArc
 50
95.351354122312
 51
264.648645877688
  0
ARC
  5
19BE
330
A
100
AcDbEntity
  8
断熱材
 62
     4
100
AcDbCircle
 10
1015.46754122572
 20
448.113304256309
 30
0.0
 40
1.886083365637118
100
AcDbArc
 50
275.351354122312
 51
84.648645877688
  0
LINE
  5
19BF
330
A
100
AcDbEntity
  8
断熱材
 62
     4
370
    -1
100
AcDbLine
 10
1015.643443050329
 20
446.235441372541
 30
0.0
 11
981.086193230731
 21
444.068361063306
 31
0.0
  0
LINE
  5
19C0
330
A
100
AcDbEntity
  8
断熱材
 62
     4
370
    -1
100
AcDbLine
 10
1015.643443050329
 20
449.991167140073
 30
0.0
 11
981.086193230731
 21
452.158247449312
 31
0.0
  0
ARC
  5
19C1
330
A
100
AcDbEntity
  8
断熱材
 62
     4
100
AcDbCircle
 10
981.262095055339
 20
442.190498179538
 30
0.0
 40
1.886083365637118
100
AcDbArc
 50
95.351354122312
 51
264.648645877688
  0
ARC
  5
19C2
330
A
100
AcDbEntity
  8
断熱材
 62
     4
100
AcDbCircle
 10
1015.46754122572
 20
436.267692102774
 30
0.0
 40
1.886083365637118
100
AcDbArc
 50
275.351354122312
 51
84.648645877688
  0
LINE
  5
19C3
330
A
100
AcDbEntity
  8
断熱材
 62
     4
370
    -1
100
AcDbLine
 10
1015.643443050329
 20
438.145554986539
 30
0.0
 11
981.086193230731
 21
440.31263529577
 31
0.0
  0
LINE
  5
19C4
330
A
100
AcDbEntity
  8
断熱材
 62
     4
370
    -1
100
AcDbLine
 10
1015.643443050329
 20
434.389829219006
 30
0.0
 11
981.086193230731
 21
432.222748909779
 31
0.0
  0
ARC
  5
19C5
330
A
100
AcDbEntity
  8
断熱材
 62
     4
100
AcDbCircle
 10
981.262095055339
 20
430.344886026003
 30
0.0
 40
1.886083365637118
100
AcDbArc
 50
95.351354122312
 51
264.648645877688
  0
LINE
  5
19C6
330
A
100
AcDbEntity
  8
断熱材
 62
     4
370
    -1
100
AcDbLine
 10
1015.643443050329
 20
426.299942833004
 30
0.0
 11
981.086193230731
 21
428.467023142242
 31
0.0
  0
ARC
  5
19C7
330
A
100
AcDbEntity
  8
断熱材
 62
     4
100
AcDbCircle
 10
1015.46754122572
 20
424.42207994924
 30
0.0
 40
1.886083365637118
100
AcDbArc
 50
275.351354122312
 51
84.648645877688
  0
LINE
  5
19C8
330
A
100
AcDbEntity
  8
断熱材
 62
     4
370
    -1
100
AcDbLine
 10
1015.643443050329
 20
422.544217065471
 30
0.0
 11
981.086193230731
 21
420.377136756237
 31
0.0
  0
ARC
  5
19C9
330
A
100
AcDbEntity
  8
断熱材
 62
     4
100
AcDbCircle
 10
981.262095055339
 20
418.499273872476
 30
0.0
 40
1.886083365637118
100
AcDbArc
 50
95.351354122312
 51
264.648645877688
  0
ARC
  5
19CA
330
A
100
AcDbEntity
  8
断熱材
 62
     4
100
AcDbCircle
 10
1015.46754122572
 20
412.576467795712
 30
0.0
 40
1.886083365637118
100
AcDbArc
 50
275.351354122312
 51
84.648645877688
  0
LINE
  5
19CB
330
A
100
AcDbEntity
  8
断熱材
 62
     4
370
    -1
100
AcDbLine
 10
1015.643443050329
 20
410.698604911944
 30
0.0
 11
981.086193230731
 21
408.531524602709
 31
0.0
  0
LINE
  5
19CC
330
A
100
AcDbEntity
  8
断熱材
 62
     4
370
    -1
100
AcDbLine
 10
1015.643443050329
 20
414.454330679477
 30
0.0
 11
981.086193230731
 21
416.621410988708
 31
0.0
  0
ARC
  5
19CD
330
A
100
AcDbEntity
  8
断熱材
 62
     4
100
AcDbCircle
 10
981.262095055339
 20
406.653661718941
 30
0.0
 40
1.886083365637118
100
AcDbArc
 50
95.351354122312
 51
264.648645877688
  0
ARC
  5
19CE
330
A
100
AcDbEntity
  8
断熱材
 62
     4
100
AcDbCircle
 10
1015.46754122572
 20
400.73085564217
 30
0.0
 40
1.886083365637118
100
AcDbArc
 50
275.351354122312
 51
84.648645877688
  0
LINE
  5
19CF
330
A
100
AcDbEntity
  8
断熱材
 62
     4
370
    -1
100
AcDbLine
 10
1015.643443050329
 20
398.852992758402
 30
0.0
 11
981.086193230731
 21
396.685912449175
 31
0.0
  0
LINE
  5
19D0
330
A
100
AcDbEntity
  8
断熱材
 62
     4
370
    -1
100
AcDbLine
 10
1015.643443050329
 20
402.608718525935
 30
0.0
 11
981.086193230731
 21
404.775798835173
 31
0.0
  0
ARC
  5
19D1
330
A
100
AcDbEntity
  8
断熱材
 62
     4
100
AcDbCircle
 10
981.262095055339
 20
394.808049565407
 30
0.0
 40
1.886083365637118
100
AcDbArc
 50
95.351354122312
 51
264.648645877688
  0
ARC
  5
19D2
330
A
100
AcDbEntity
  8
断熱材
 62
     4
100
AcDbCircle
 10
1015.46754122572
 20
388.885243488643
 30
0.0
 40
1.886083365637118
100
AcDbArc
 50
275.351354122312
 51
84.648645877688
  0
LINE
  5
19D3
330
A
100
AcDbEntity
  8
断熱材
 62
     4
370
    -1
100
AcDbLine
 10
1015.643443050329
 20
387.007380604875
 30
0.0
 11
981.086193230731
 21
384.84030029564
 31
0.0
  0
LINE
  5
19D4
330
A
100
AcDbEntity
  8
断熱材
 62
     4
370
    -1
100
AcDbLine
 10
1015.643443050329
 20
390.763106372407
 30
0.0
 11
981.086193230731
 21
392.930186681646
 31
0.0
  0
ARC
  5
19D5
330
A
100
AcDbEntity
  8
断熱材
 62
     4
100
AcDbCircle
 10
981.262095055339
 20
382.962437411872
 30
0.0
 40
1.886083365637118
100
AcDbArc
 50
95.351354122312
 51
264.648645877688
  0
ARC
  5
19D6
330
A
100
AcDbEntity
  8
断熱材
 62
     4
100
AcDbCircle
 10
1015.46754122572
 20
377.039631335108
 30
0.0
 40
1.886083365637118
100
AcDbArc
 50
275.351354122312
 51
84.648645877688
  0
LINE
  5
19D7
330
A
100
AcDbEntity
  8
断熱材
 62
     4
370
    -1
100
AcDbLine
 10
1015.643443050329
 20
378.917494218873
 30
0.0
 11
981.086193230731
 21
381.084574528104
 31
0.0
  0
LINE
  5
19D8
330
A
100
AcDbEntity
  8
断熱材
 62
     4
370
    -1
100
AcDbLine
 10
1015.643443050329
 20
375.16176845134
 30
0.0
 11
981.086193230731
 21
372.994688142113
 31
0.0
  0
ARC
  5
19D9
330
A
100
AcDbEntity
  8
断熱材
 62
     4
100
AcDbCircle
 10
981.262095055339
 20
371.116825258337
 30
0.0
 40
1.886083365637118
100
AcDbArc
 50
95.351354122312
 51
264.648645877688
  0
LINE
  5
19DA
330
A
100
AcDbEntity
  8
断熱材
 62
     4
370
    -1
100
AcDbLine
 10
1015.643443050329
 20
367.071882065338
 30
0.0
 11
981.086193230731
 21
369.238962374577
 31
0.0
  0
ARC
  5
19DB
330
A
100
AcDbEntity
  8
断熱材
 62
     4
100
AcDbCircle
 10
1015.46754122572
 20
365.194019181574
 30
0.0
 40
1.886083365637118
100
AcDbArc
 50
275.351354122312
 51
84.648645877688
  0
LINE
  5
19DC
330
A
100
AcDbEntity
  8
断熱材
 62
     4
370
    -1
100
AcDbLine
 10
1015.643443050329
 20
363.316156297806
 30
0.0
 11
981.086193230731
 21
361.149075988571
 31
0.0
  0
ARC
  5
19DD
330
A
100
AcDbEntity
  8
断熱材
 62
     4
100
AcDbCircle
 10
981.262095055339
 20
359.27121310481
 30
0.0
 40
1.886083365637118
100
AcDbArc
 50
95.351354122312
 51
264.648645877688
  0
ARC
  5
19DE
330
A
100
AcDbEntity
  8
断熱材
 62
     4
100
AcDbCircle
 10
1015.46754122572
 20
353.348407028046
 30
0.0
 40
1.886083365637118
100
AcDbArc
 50
275.351354122312
 51
84.648645877688
  0
LINE
  5
19DF
330
A
100
AcDbEntity
  8
断熱材
 62
     4
370
    -1
100
AcDbLine
 10
1015.643443050329
 20
351.470544144278
 30
0.0
 11
981.086193230731
 21
349.303463835044
 31
0.0
  0
LINE
  5
19E0
330
A
100
AcDbEntity
  8
断熱材
 62
     4
370
    -1
100
AcDbLine
 10
1015.643443050329
 20
355.226269911811
 30
0.0
 11
981.086193230731
 21
357.393350221042
 31
0.0
  0
ARC
  5
19E1
330
A
100
AcDbEntity
  8
断熱材
 62
     4
100
AcDbCircle
 10
981.262095055339
 20
347.425600951276
 30
0.0
 40
1.886083365637118
100
AcDbArc
 50
95.351354122312
 51
264.648645877688
  0
ARC
  5
19E2
330
A
100
AcDbEntity
  8
断熱材
 62
     4
100
AcDbCircle
 10
1015.46754122572
 20
341.502794874505
 30
0.0
 40
1.886083365637118
100
AcDbArc
 50
275.351354122312
 51
84.648645877688
  0
LINE
  5
19E3
330
A
100
AcDbEntity
  8
断熱材
 62
     4
370
    -1
100
AcDbLine
 10
1015.643443050329
 20
339.624931990737
 30
0.0
 11
981.086193230731
 21
337.457851681509
 31
0.0
  0
LINE
  5
19E4
330
A
100
AcDbEntity
  8
断熱材
 62
     4
370
    -1
100
AcDbLine
 10
1015.643443050329
 20
343.380657758269
 30
0.0
 11
981.086193230731
 21
345.547738067507
 31
0.0
  0
ARC
  5
19E5
330
A
100
AcDbEntity
  8
断熱材
 62
     4
100
AcDbCircle
 10
981.262095055339
 20
335.579988797741
 30
0.0
 40
1.886083365637118
100
AcDbArc
 50
95.351354122312
 51
264.648645877688
  0
LINE
  5
19E6
330
A
100
AcDbEntity
  8
断熱材
 62
     4
370
    -1
100
AcDbLine
 10
1015.643443050329
 20
331.535045604742
 30
0.0
 11
981.086193230731
 21
333.70212591398
 31
0.0
  0
LINE
  5
19E7
330
A
100
AcDbEntity
  8
断熱材
 62
     4
370
    -1
100
AcDbLine
 10
941.86481814002
 20
682.064144288586
 30
0.0
 11
932.086193230236
 21
680.980604133965
 31
0.0
  0
ARC
  5
19E8
330
A
100
AcDbEntity
  8
断熱材
 62
     4
100
AcDbCircle
 10
932.262095054844
 20
679.102741250204
 30
0.0
 40
1.886083365637118
100
AcDbArc
 50
95.351354122312
 51
264.648645877688
  0
ARC
  5
19E9
330
A
100
AcDbEntity
  8
断熱材
 62
     4
100
AcDbCircle
 10
966.467541225225
 20
673.179935173433
 30
0.0
 40
1.886083365637118
100
AcDbArc
 50
275.351354122312
 51
84.648645877688
  0
LINE
  5
19EA
330
A
100
AcDbEntity
  8
断熱材
 62
     4
370
    -1
100
AcDbLine
 10
966.643443049834
 20
671.302072289669
 30
0.0
 11
932.086193230236
 21
669.134991980438
 31
0.0
  0
LINE
  5
19EB
330
A
100
AcDbEntity
  8
断熱材
 62
     4
370
    -1
100
AcDbLine
 10
966.643443049834
 20
675.057798057202
 30
0.0
 11
932.086193230236
 21
677.224878366429
 31
0.0
  0
ARC
  5
19EC
330
A
100
AcDbEntity
  8
断熱材
 62
     4
100
AcDbCircle
 10
932.262095054844
 20
667.257129096663
 30
0.0
 40
1.886083365637118
100
AcDbArc
 50
95.351354122312
 51
264.648645877688
  0
LINE
  5
19ED
330
A
100
AcDbEntity
  8
断熱材
 62
     4
370
    -1
100
AcDbLine
 10
966.643443049834
 20
663.212185903667
 30
0.0
 11
932.086193230236
 21
665.379266212902
 31
0.0
  0
ARC
  5
19EE
330
A
100
AcDbEntity
  8
断熱材
 62
     4
100
AcDbCircle
 10
966.467541225225
 20
661.334323019899
 30
0.0
 40
1.886083365637118
100
AcDbArc
 50
275.351354122312
 51
84.648645877688
  0
LINE
  5
19EF
330
A
100
AcDbEntity
  8
断熱材
 62
     4
370
    -1
100
AcDbLine
 10
966.643443049834
 20
659.456460136134
 30
0.0
 11
932.086193230236
 21
657.289379826896
 31
0.0
  0
ARC
  5
19F0
330
A
100
AcDbEntity
  8
断熱材
 62
     4
100
AcDbCircle
 10
932.262095054844
 20
655.411516943135
 30
0.0
 40
1.886083365637118
100
AcDbArc
 50
95.351354122312
 51
264.648645877688
  0
ARC
  5
19F1
330
A
100
AcDbEntity
  8
断熱材
 62
     4
100
AcDbCircle
 10
966.467541225225
 20
649.488710866372
 30
0.0
 40
1.886083365637118
100
AcDbArc
 50
275.351354122312
 51
84.648645877688
  0
LINE
  5
19F2
330
A
100
AcDbEntity
  8
断熱材
 62
     4
370
    -1
100
AcDbLine
 10
966.643443049834
 20
647.610847982607
 30
0.0
 11
932.086193230236
 21
645.443767673369
 31
0.0
  0
LINE
  5
19F3
330
A
100
AcDbEntity
  8
断熱材
 62
     4
370
    -1
100
AcDbLine
 10
966.643443049834
 20
651.36657375014
 30
0.0
 11
932.086193230236
 21
653.533654059367
 31
0.0
  0
ARC
  5
19F4
330
A
100
AcDbEntity
  8
断熱材
 62
     4
100
AcDbCircle
 10
932.262095054844
 20
643.565904789601
 30
0.0
 40
1.886083365637118
100
AcDbArc
 50
95.351354122312
 51
264.648645877688
  0
ARC
  5
19F5
330
A
100
AcDbEntity
  8
断熱材
 62
     4
100
AcDbCircle
 10
966.467541225225
 20
637.64309871283
 30
0.0
 40
1.886083365637118
100
AcDbArc
 50
275.351354122312
 51
84.648645877688
  0
LINE
  5
19F6
330
A
100
AcDbEntity
  8
断熱材
 62
     4
370
    -1
100
AcDbLine
 10
966.643443049834
 20
635.765235829065
 30
0.0
 11
932.086193230236
 21
633.598155519834
 31
0.0
  0
LINE
  5
19F7
330
A
100
AcDbEntity
  8
断熱材
 62
     4
370
    -1
100
AcDbLine
 10
966.643443049834
 20
639.520961596598
 30
0.0
 11
932.086193230236
 21
641.688041905833
 31
0.0
  0
ARC
  5
19F8
330
A
100
AcDbEntity
  8
断熱材
 62
     4
100
AcDbCircle
 10
932.262095054844
 20
631.720292636066
 30
0.0
 40
1.886083365637118
100
AcDbArc
 50
95.351354122312
 51
264.648645877688
  0
ARC
  5
19F9
330
A
100
AcDbEntity
  8
断熱材
 62
     4
100
AcDbCircle
 10
966.467541225225
 20
625.797486559302
 30
0.0
 40
1.886083365637118
100
AcDbArc
 50
275.351354122312
 51
84.648645877688
  0
LINE
  5
19FA
330
A
100
AcDbEntity
  8
断熱材
 62
     4
370
    -1
100
AcDbLine
 10
966.643443049834
 20
623.919623675538
 30
0.0
 11
932.086193230236
 21
621.7525433663
 31
0.0
  0
LINE
  5
19FB
330
A
100
AcDbEntity
  8
断熱材
 62
     4
370
    -1
100
AcDbLine
 10
966.643443049834
 20
627.67534944307
 30
0.0
 11
932.086193230236
 21
629.842429752305
 31
0.0
  0
ARC
  5
19FC
330
A
100
AcDbEntity
  8
断熱材
 62
     4
100
AcDbCircle
 10
932.262095054844
 20
619.874680482531
 30
0.0
 40
1.886083365637118
100
AcDbArc
 50
95.351354122312
 51
264.648645877688
  0
ARC
  5
19FD
330
A
100
AcDbEntity
  8
断熱材
 62
     4
100
AcDbCircle
 10
966.467541225225
 20
613.951874405768
 30
0.0
 40
1.886083365637118
100
AcDbArc
 50
275.351354122312
 51
84.648645877688
  0
LINE
  5
19FE
330
A
100
AcDbEntity
  8
断熱材
 62
     4
370
    -1
100
AcDbLine
 10
966.643443049834
 20
615.829737289536
 30
0.0
 11
932.086193230236
 21
617.996817598763
 31
0.0
  0
LINE
  5
19FF
330
A
100
AcDbEntity
  8
断熱材
100
AcDbLine
 10
969.364818140282
 20
682.064144288586
 30
0.0
 11
969.364818140282
 21
312.064144296521
 31
0.0
  0
LINE
  5
1A00
330
A
100
AcDbEntity
  8
断熱材
100
AcDbLine
 10
969.364818140282
 20
682.064144288586
 30
0.0
 11
969.364818140282
 21
312.064144296521
 31
0.0
  0
LINE
  5
1A01
330
A
100
AcDbEntity
  8
断熱材
100
AcDbLine
 10
929.364818139788
 20
312.064144296521
 30
0.0
 11
929.364818139788
 21
682.064144288586
 31
0.0
  0
LINE
  5
1A02
330
A
100
AcDbEntity
  8
断熱材
100
AcDbLine
 10
929.364818139788
 20
682.064144288586
 30
0.0
 11
969.364818140282
 21
682.064144288586
 31
0.0
  0
LINE
  5
1A03
330
A
100
AcDbEntity
  8
断熱材
 62
     4
370
    -1
100
AcDbLine
 10
966.643443049834
 20
612.074011522003
 30
0.0
 11
932.086193230236
 21
609.906931212772
 31
0.0
  0
ARC
  5
1A04
330
A
100
AcDbEntity
  8
断熱材
 62
     4
100
AcDbCircle
 10
932.262095054844
 20
608.029068328997
 30
0.0
 40
1.886083365637118
100
AcDbArc
 50
95.351354122312
 51
264.648645877688
  0
LINE
  5
1A05
330
A
100
AcDbEntity
  8
断熱材
 62
     4
370
    -1
100
AcDbLine
 10
966.643443049834
 20
603.984125136001
 30
0.0
 11
932.086193230236
 21
606.151205445236
 31
0.0
  0
ARC
  5
1A06
330
A
100
AcDbEntity
  8
断熱材
 62
     4
100
AcDbCircle
 10
966.467541225225
 20
602.106262252233
 30
0.0
 40
1.886083365637118
100
AcDbArc
 50
275.351354122312
 51
84.648645877688
  0
LINE
  5
1A07
330
A
100
AcDbEntity
  8
断熱材
 62
     4
370
    -1
100
AcDbLine
 10
966.643443049834
 20
600.228399368469
 30
0.0
 11
932.086193230236
 21
598.061319059234
 31
0.0
  0
ARC
  5
1A08
330
A
100
AcDbEntity
  8
断熱材
 62
     4
100
AcDbCircle
 10
932.262095054844
 20
596.183456175473
 30
0.0
 40
1.886083365637118
100
AcDbArc
 50
95.351354122312
 51
264.648645877688
  0
ARC
  5
1A09
330
A
100
AcDbEntity
  8
断熱材
 62
     4
100
AcDbCircle
 10
966.467541225225
 20
590.260650098709
 30
0.0
 40
1.886083365637118
100
AcDbArc
 50
275.351354122312
 51
84.648645877688
  0
LINE
  5
1A0A
330
A
100
AcDbEntity
  8
断熱材
 62
     4
370
    -1
100
AcDbLine
 10
966.643443049834
 20
588.382787214941
 30
0.0
 11
932.086193230236
 21
586.215706905707
 31
0.0
  0
LINE
  5
1A0B
330
A
100
AcDbEntity
  8
断熱材
 62
     4
370
    -1
100
AcDbLine
 10
966.643443049834
 20
592.138512982474
 30
0.0
 11
932.086193230236
 21
594.305593291705
 31
0.0
  0
ARC
  5
1A0C
330
A
100
AcDbEntity
  8
断熱材
 62
     4
100
AcDbCircle
 10
932.262095054844
 20
584.337844021939
 30
0.0
 40
1.886083365637118
100
AcDbArc
 50
95.351354122312
 51
264.648645877688
  0
ARC
  5
1A0D
330
A
100
AcDbEntity
  8
断熱材
 62
     4
100
AcDbCircle
 10
966.467541225225
 20
578.415037945168
 30
0.0
 40
1.886083365637118
100
AcDbArc
 50
275.351354122312
 51
84.648645877688
  0
LINE
  5
1A0E
330
A
100
AcDbEntity
  8
断熱材
 62
     4
370
    -1
100
AcDbLine
 10
966.643443049834
 20
576.537175061399
 30
0.0
 11
932.086193230236
 21
574.370094752172
 31
0.0
  0
LINE
  5
1A0F
330
A
100
AcDbEntity
  8
断熱材
 62
     4
370
    -1
100
AcDbLine
 10
966.643443049834
 20
580.292900828932
 30
0.0
 11
932.086193230236
 21
582.45998113817
 31
0.0
  0
ARC
  5
1A10
330
A
100
AcDbEntity
  8
断熱材
 62
     4
100
AcDbCircle
 10
932.262095054844
 20
572.492231868404
 30
0.0
 40
1.886083365637118
100
AcDbArc
 50
95.351354122312
 51
264.648645877688
  0
ARC
  5
1A11
330
A
100
AcDbEntity
  8
断熱材
 62
     4
100
AcDbCircle
 10
966.467541225225
 20
566.56942579164
 30
0.0
 40
1.886083365637118
100
AcDbArc
 50
275.351354122312
 51
84.648645877688
  0
LINE
  5
1A12
330
A
100
AcDbEntity
  8
断熱材
 62
     4
370
    -1
100
AcDbLine
 10
966.643443049834
 20
564.691562907872
 30
0.0
 11
932.086193230236
 21
562.524482598637
 31
0.0
  0
LINE
  5
1A13
330
A
100
AcDbEntity
  8
断熱材
 62
     4
370
    -1
100
AcDbLine
 10
966.643443049834
 20
568.447288675405
 30
0.0
 11
932.086193230236
 21
570.614368984643
 31
0.0
  0
ARC
  5
1A14
330
A
100
AcDbEntity
  8
断熱材
 62
     4
100
AcDbCircle
 10
932.262095054844
 20
560.646619714869
 30
0.0
 40
1.886083365637118
100
AcDbArc
 50
95.351354122312
 51
264.648645877688
  0
ARC
  5
1A15
330
A
100
AcDbEntity
  8
断熱材
 62
     4
100
AcDbCircle
 10
966.467541225225
 20
554.723813638106
 30
0.0
 40
1.886083365637118
100
AcDbArc
 50
275.351354122312
 51
84.648645877688
  0
LINE
  5
1A16
330
A
100
AcDbEntity
  8
断熱材
 62
     4
370
    -1
100
AcDbLine
 10
966.643443049834
 20
556.60167652187
 30
0.0
 11
932.086193230236
 21
558.768756831101
 31
0.0
  0
LINE
  5
1A17
330
A
100
AcDbEntity
  8
断熱材
 62
     4
370
    -1
100
AcDbLine
 10
966.643443049834
 20
552.845950754338
 30
0.0
 11
932.086193230236
 21
550.67887044511
 31
0.0
  0
ARC
  5
1A18
330
A
100
AcDbEntity
  8
断熱材
 62
     4
100
AcDbCircle
 10
932.262095054844
 20
548.801007561335
 30
0.0
 40
1.886083365637118
100
AcDbArc
 50
95.351354122312
 51
264.648645877688
  0
LINE
  5
1A19
330
A
100
AcDbEntity
  8
断熱材
 62
     4
370
    -1
100
AcDbLine
 10
966.643443049834
 20
544.756064368336
 30
0.0
 11
932.086193230236
 21
546.923144677574
 31
0.0
  0
ARC
  5
1A1A
330
A
100
AcDbEntity
  8
断熱材
 62
     4
100
AcDbCircle
 10
966.467541225225
 20
542.878201484571
 30
0.0
 40
1.886083365637118
100
AcDbArc
 50
275.351354122312
 51
84.648645877688
  0
LINE
  5
1A1B
330
A
100
AcDbEntity
  8
断熱材
 62
     4
370
    -1
100
AcDbLine
 10
966.643443049834
 20
541.000338600803
 30
0.0
 11
932.086193230236
 21
538.833258291568
 31
0.0
  0
ARC
  5
1A1C
330
A
100
AcDbEntity
  8
断熱材
 62
     4
100
AcDbCircle
 10
932.262095054844
 20
536.955395407807
 30
0.0
 40
1.886083365637118
100
AcDbArc
 50
95.351354122312
 51
264.648645877688
  0
ARC
  5
1A1D
330
A
100
AcDbEntity
  8
断熱材
 62
     4
100
AcDbCircle
 10
966.467541225225
 20
531.032589331044
 30
0.0
 40
1.886083365637118
100
AcDbArc
 50
275.351354122312
 51
84.648645877688
  0
LINE
  5
1A1E
330
A
100
AcDbEntity
  8
断熱材
 62
     4
370
    -1
100
AcDbLine
 10
966.643443049834
 20
529.154726447276
 30
0.0
 11
932.086193230236
 21
526.987646138041
 31
0.0
  0
LINE
  5
1A1F
330
A
100
AcDbEntity
  8
断熱材
 62
     4
370
    -1
100
AcDbLine
 10
966.643443049834
 20
532.910452214808
 30
0.0
 11
932.086193230236
 21
535.077532524039
 31
0.0
  0
ARC
  5
1A20
330
A
100
AcDbEntity
  8
断熱材
 62
     4
100
AcDbCircle
 10
932.262095054844
 20
525.109783254273
 30
0.0
 40
1.886083365637118
100
AcDbArc
 50
95.351354122312
 51
264.648645877688
  0
ARC
  5
1A21
330
A
100
AcDbEntity
  8
断熱材
 62
     4
100
AcDbCircle
 10
966.467541225225
 20
519.186977177502
 30
0.0
 40
1.886083365637118
100
AcDbArc
 50
275.351354122312
 51
84.648645877688
  0
LINE
  5
1A22
330
A
100
AcDbEntity
  8
断熱材
 62
     4
370
    -1
100
AcDbLine
 10
966.643443049834
 20
517.309114293734
 30
0.0
 11
932.086193230236
 21
515.142033984506
 31
0.0
  0
LINE
  5
1A23
330
A
100
AcDbEntity
  8
断熱材
 62
     4
370
    -1
100
AcDbLine
 10
966.643443049834
 20
521.064840061266
 30
0.0
 11
932.086193230236
 21
523.231920370505
 31
0.0
  0
ARC
  5
1A24
330
A
100
AcDbEntity
  8
断熱材
 62
     4
100
AcDbCircle
 10
932.262095054844
 20
513.264171100738
 30
0.0
 40
1.886083365637118
100
AcDbArc
 50
95.351354122312
 51
264.648645877688
  0
ARC
  5
1A25
330
A
100
AcDbEntity
  8
断熱材
 62
     4
100
AcDbCircle
 10
966.467541225225
 20
507.341365023975
 30
0.0
 40
1.886083365637118
100
AcDbArc
 50
275.351354122312
 51
84.648645877688
  0
LINE
  5
1A26
330
A
100
AcDbEntity
  8
断熱材
 62
     4
370
    -1
100
AcDbLine
 10
966.643443049834
 20
505.463502140206
 30
0.0
 11
932.086193230236
 21
503.296421830972
 31
0.0
  0
LINE
  5
1A27
330
A
100
AcDbEntity
  8
断熱材
 62
     4
370
    -1
100
AcDbLine
 10
966.643443049834
 20
509.219227907739
 30
0.0
 11
932.086193230236
 21
511.386308216977
 31
0.0
  0
ARC
  5
1A28
330
A
100
AcDbEntity
  8
断熱材
 62
     4
100
AcDbCircle
 10
932.262095054844
 20
501.418558947204
 30
0.0
 40
1.886083365637118
100
AcDbArc
 50
95.351354122312
 51
264.648645877688
  0
ARC
  5
1A29
330
A
100
AcDbEntity
  8
断熱材
 62
     4
100
AcDbCircle
 10
966.467541225225
 20
495.49575287044
 30
0.0
 40
1.886083365637118
100
AcDbArc
 50
275.351354122312
 51
84.648645877688
  0
LINE
  5
1A2A
330
A
100
AcDbEntity
  8
断熱材
 62
     4
370
    -1
100
AcDbLine
 10
966.643443049834
 20
497.373615754204
 30
0.0
 11
932.086193230236
 21
499.540696063435
 31
0.0
  0
LINE
  5
1A2B
330
A
100
AcDbEntity
  8
断熱材
 62
     4
370
    -1
100
AcDbLine
 10
966.643443049834
 20
493.617889986672
 30
0.0
 11
932.086193230236
 21
491.450809677444
 31
0.0
  0
ARC
  5
1A2C
330
A
100
AcDbEntity
  8
断熱材
 62
     4
100
AcDbCircle
 10
932.262095054844
 20
489.572946793669
 30
0.0
 40
1.886083365637118
100
AcDbArc
 50
95.351354122312
 51
264.648645877688
  0
LINE
  5
1A2D
330
A
100
AcDbEntity
  8
断熱材
 62
     4
370
    -1
100
AcDbLine
 10
966.643443049834
 20
485.52800360067
 30
0.0
 11
932.086193230236
 21
487.695083909908
 31
0.0
  0
ARC
  5
1A2E
330
A
100
AcDbEntity
  8
断熱材
 62
     4
100
AcDbCircle
 10
966.467541225225
 20
483.650140716905
 30
0.0
 40
1.886083365637118
100
AcDbArc
 50
275.351354122312
 51
84.648645877688
  0
LINE
  5
1A2F
330
A
100
AcDbEntity
  8
断熱材
 62
     4
370
    -1
100
AcDbLine
 10
966.643443049834
 20
481.772277833137
 30
0.0
 11
932.086193230236
 21
479.605197523902
 31
0.0
  0
ARC
  5
1A30
330
A
100
AcDbEntity
  8
断熱材
 62
     4
100
AcDbCircle
 10
932.262095054844
 20
477.727334640142
 30
0.0
 40
1.886083365637118
100
AcDbArc
 50
95.351354122312
 51
264.648645877688
  0
ARC
  5
1A31
330
A
100
AcDbEntity
  8
断熱材
 62
     4
100
AcDbCircle
 10
966.467541225225
 20
471.804528563378
 30
0.0
 40
1.886083365637118
100
AcDbArc
 50
275.351354122312
 51
84.648645877688
  0
LINE
  5
1A32
330
A
100
AcDbEntity
  8
断熱材
 62
     4
370
    -1
100
AcDbLine
 10
966.643443049834
 20
469.92666567961
 30
0.0
 11
932.086193230236
 21
467.759585370375
 31
0.0
  0
LINE
  5
1A33
330
A
100
AcDbEntity
  8
断熱材
 62
     4
370
    -1
100
AcDbLine
 10
966.643443049834
 20
473.682391447142
 30
0.0
 11
932.086193230236
 21
475.849471756374
 31
0.0
  0
ARC
  5
1A34
330
A
100
AcDbEntity
  8
断熱材
 62
     4
100
AcDbCircle
 10
932.262095054844
 20
465.881722486607
 30
0.0
 40
1.886083365637118
100
AcDbArc
 50
95.351354122312
 51
264.648645877688
  0
ARC
  5
1A35
330
A
100
AcDbEntity
  8
断熱材
 62
     4
100
AcDbCircle
 10
966.467541225225
 20
459.958916409836
 30
0.0
 40
1.886083365637118
100
AcDbArc
 50
275.351354122312
 51
84.648645877688
  0
LINE
  5
1A36
330
A
100
AcDbEntity
  8
断熱材
 62
     4
370
    -1
100
AcDbLine
 10
966.643443049834
 20
458.081053526068
 30
0.0
 11
932.086193230236
 21
455.913973216841
 31
0.0
  0
LINE
  5
1A37
330
A
100
AcDbEntity
  8
断熱材
 62
     4
370
    -1
100
AcDbLine
 10
966.643443049834
 20
461.836779293601
 30
0.0
 11
932.086193230236
 21
464.003859602839
 31
0.0
  0
ARC
  5
1A38
330
A
100
AcDbEntity
  8
断熱材
 62
     4
100
AcDbCircle
 10
932.262095054844
 20
454.036110333072
 30
0.0
 40
1.886083365637118
100
AcDbArc
 50
95.351354122312
 51
264.648645877688
  0
ARC
  5
1A39
330
A
100
AcDbEntity
  8
断熱材
 62
     4
100
AcDbCircle
 10
966.467541225225
 20
448.113304256309
 30
0.0
 40
1.886083365637118
100
AcDbArc
 50
275.351354122312
 51
84.648645877688
  0
LINE
  5
1A3A
330
A
100
AcDbEntity
  8
断熱材
 62
     4
370
    -1
100
AcDbLine
 10
966.643443049834
 20
446.235441372541
 30
0.0
 11
932.086193230236
 21
444.068361063306
 31
0.0
  0
LINE
  5
1A3B
330
A
100
AcDbEntity
  8
断熱材
 62
     4
370
    -1
100
AcDbLine
 10
966.643443049834
 20
449.991167140073
 30
0.0
 11
932.086193230236
 21
452.158247449312
 31
0.0
  0
ARC
  5
1A3C
330
A
100
AcDbEntity
  8
断熱材
 62
     4
100
AcDbCircle
 10
932.262095054844
 20
442.190498179538
 30
0.0
 40
1.886083365637118
100
AcDbArc
 50
95.351354122312
 51
264.648645877688
  0
ARC
  5
1A3D
330
A
100
AcDbEntity
  8
断熱材
 62
     4
100
AcDbCircle
 10
966.467541225225
 20
436.267692102774
 30
0.0
 40
1.886083365637118
100
AcDbArc
 50
275.351354122312
 51
84.648645877688
  0
LINE
  5
1A3E
330
A
100
AcDbEntity
  8
断熱材
 62
     4
370
    -1
100
AcDbLine
 10
966.643443049834
 20
438.145554986539
 30
0.0
 11
932.086193230236
 21
440.31263529577
 31
0.0
  0
LINE
  5
1A3F
330
A
100
AcDbEntity
  8
断熱材
 62
     4
370
    -1
100
AcDbLine
 10
966.643443049834
 20
434.389829219006
 30
0.0
 11
932.086193230236
 21
432.222748909779
 31
0.0
  0
ARC
  5
1A40
330
A
100
AcDbEntity
  8
断熱材
 62
     4
100
AcDbCircle
 10
932.262095054844
 20
430.344886026003
 30
0.0
 40
1.886083365637118
100
AcDbArc
 50
95.351354122312
 51
264.648645877688
  0
LINE
  5
1A41
330
A
100
AcDbEntity
  8
断熱材
 62
     4
370
    -1
100
AcDbLine
 10
966.643443049834
 20
426.299942833004
 30
0.0
 11
932.086193230236
 21
428.467023142242
 31
0.0
  0
ARC
  5
1A42
330
A
100
AcDbEntity
  8
断熱材
 62
     4
100
AcDbCircle
 10
966.467541225225
 20
424.42207994924
 30
0.0
 40
1.886083365637118
100
AcDbArc
 50
275.351354122312
 51
84.648645877688
  0
LINE
  5
1A43
330
A
100
AcDbEntity
  8
断熱材
 62
     4
370
    -1
100
AcDbLine
 10
966.643443049834
 20
422.544217065471
 30
0.0
 11
932.086193230236
 21
420.377136756237
 31
0.0
  0
ARC
  5
1A44
330
A
100
AcDbEntity
  8
断熱材
 62
     4
100
AcDbCircle
 10
932.262095054844
 20
418.499273872476
 30
0.0
 40
1.886083365637118
100
AcDbArc
 50
95.351354122312
 51
264.648645877688
  0
ARC
  5
1A45
330
A
100
AcDbEntity
  8
断熱材
 62
     4
100
AcDbCircle
 10
966.467541225225
 20
412.576467795712
 30
0.0
 40
1.886083365637118
100
AcDbArc
 50
275.351354122312
 51
84.648645877688
  0
LINE
  5
1A46
330
A
100
AcDbEntity
  8
断熱材
 62
     4
370
    -1
100
AcDbLine
 10
966.643443049834
 20
410.698604911944
 30
0.0
 11
932.086193230236
 21
408.531524602709
 31
0.0
  0
LINE
  5
1A47
330
A
100
AcDbEntity
  8
断熱材
 62
     4
370
    -1
100
AcDbLine
 10
966.643443049834
 20
414.454330679477
 30
0.0
 11
932.086193230236
 21
416.621410988708
 31
0.0
  0
ARC
  5
1A48
330
A
100
AcDbEntity
  8
断熱材
 62
     4
100
AcDbCircle
 10
932.262095054844
 20
406.653661718941
 30
0.0
 40
1.886083365637118
100
AcDbArc
 50
95.351354122312
 51
264.648645877688
  0
ARC
  5
1A49
330
A
100
AcDbEntity
  8
断熱材
 62
     4
100
AcDbCircle
 10
966.467541225225
 20
400.73085564217
 30
0.0
 40
1.886083365637118
100
AcDbArc
 50
275.351354122312
 51
84.648645877688
  0
LINE
  5
1A4A
330
A
100
AcDbEntity
  8
断熱材
 62
     4
370
    -1
100
AcDbLine
 10
966.643443049834
 20
398.852992758402
 30
0.0
 11
932.086193230236
 21
396.685912449175
 31
0.0
  0
LINE
  5
1A4B
330
A
100
AcDbEntity
  8
断熱材
 62
     4
370
    -1
100
AcDbLine
 10
966.643443049834
 20
402.608718525935
 30
0.0
 11
932.086193230236
 21
404.775798835173
 31
0.0
  0
ARC
  5
1A4C
330
A
100
AcDbEntity
  8
断熱材
 62
     4
100
AcDbCircle
 10
932.262095054844
 20
394.808049565407
 30
0.0
 40
1.886083365637118
100
AcDbArc
 50
95.351354122312
 51
264.648645877688
  0
ARC
  5
1A4D
330
A
100
AcDbEntity
  8
断熱材
 62
     4
100
AcDbCircle
 10
966.467541225225
 20
388.885243488643
 30
0.0
 40
1.886083365637118
100
AcDbArc
 50
275.351354122312
 51
84.648645877688
  0
LINE
  5
1A4E
330
A
100
AcDbEntity
  8
断熱材
 62
     4
370
    -1
100
AcDbLine
 10
966.643443049834
 20
387.007380604875
 30
0.0
 11
932.086193230236
 21
384.84030029564
 31
0.0
  0
LINE
  5
1A4F
330
A
100
AcDbEntity
  8
断熱材
 62
     4
370
    -1
100
AcDbLine
 10
966.643443049834
 20
390.763106372407
 30
0.0
 11
932.086193230236
 21
392.930186681646
 31
0.0
  0
ARC
  5
1A50
330
A
100
AcDbEntity
  8
断熱材
 62
     4
100
AcDbCircle
 10
932.262095054844
 20
382.962437411872
 30
0.0
 40
1.886083365637118
100
AcDbArc
 50
95.351354122312
 51
264.648645877688
  0
ARC
  5
1A51
330
A
100
AcDbEntity
  8
断熱材
 62
     4
100
AcDbCircle
 10
966.467541225225
 20
377.039631335108
 30
0.0
 40
1.886083365637118
100
AcDbArc
 50
275.351354122312
 51
84.648645877688
  0
LINE
  5
1A52
330
A
100
AcDbEntity
  8
断熱材
 62
     4
370
    -1
100
AcDbLine
 10
966.643443049834
 20
378.917494218873
 30
0.0
 11
932.086193230236
 21
381.084574528104
 31
0.0
  0
LINE
  5
1A53
330
A
100
AcDbEntity
  8
断熱材
 62
     4
370
    -1
100
AcDbLine
 10
966.643443049834
 20
375.16176845134
 30
0.0
 11
932.086193230236
 21
372.994688142113
 31
0.0
  0
ARC
  5
1A54
330
A
100
AcDbEntity
  8
断熱材
 62
     4
100
AcDbCircle
 10
932.262095054844
 20
371.116825258337
 30
0.0
 40
1.886083365637118
100
AcDbArc
 50
95.351354122312
 51
264.648645877688
  0
LINE
  5
1A55
330
A
100
AcDbEntity
  8
断熱材
 62
     4
370
    -1
100
AcDbLine
 10
966.643443049834
 20
367.071882065338
 30
0.0
 11
932.086193230236
 21
369.238962374577
 31
0.0
  0
ARC
  5
1A56
330
A
100
AcDbEntity
  8
断熱材
 62
     4
100
AcDbCircle
 10
966.467541225225
 20
365.194019181574
 30
0.0
 40
1.886083365637118
100
AcDbArc
 50
275.351354122312
 51
84.648645877688
  0
LINE
  5
1A57
330
A
100
AcDbEntity
  8
断熱材
 62
     4
370
    -1
100
AcDbLine
 10
966.643443049834
 20
363.316156297806
 30
0.0
 11
932.086193230236
 21
361.149075988571
 31
0.0
  0
ARC
  5
1A58
330
A
100
AcDbEntity
  8
断熱材
 62
     4
100
AcDbCircle
 10
932.262095054844
 20
359.27121310481
 30
0.0
 40
1.886083365637118
100
AcDbArc
 50
95.351354122312
 51
264.648645877688
  0
ARC
  5
1A59
330
A
100
AcDbEntity
  8
断熱材
 62
     4
100
AcDbCircle
 10
966.467541225225
 20
353.348407028046
 30
0.0
 40
1.886083365637118
100
AcDbArc
 50
275.351354122312
 51
84.648645877688
  0
LINE
  5
1A5A
330
A
100
AcDbEntity
  8
断熱材
 62
     4
370
    -1
100
AcDbLine
 10
966.643443049834
 20
351.470544144278
 30
0.0
 11
932.086193230236
 21
349.303463835044
 31
0.0
  0
LINE
  5
1A5B
330
A
100
AcDbEntity
  8
断熱材
 62
     4
370
    -1
100
AcDbLine
 10
966.643443049834
 20
355.226269911811
 30
0.0
 11
932.086193230236
 21
357.393350221042
 31
0.0
  0
ARC
  5
1A5C
330
A
100
AcDbEntity
  8
断熱材
 62
     4
100
AcDbCircle
 10
932.262095054844
 20
347.425600951276
 30
0.0
 40
1.886083365637118
100
AcDbArc
 50
95.351354122312
 51
264.648645877688
  0
ARC
  5
1A5D
330
A
100
AcDbEntity
  8
断熱材
 62
     4
100
AcDbCircle
 10
966.467541225225
 20
341.502794874505
 30
0.0
 40
1.886083365637118
100
AcDbArc
 50
275.351354122312
 51
84.648645877688
  0
LINE
  5
1A5E
330
A
100
AcDbEntity
  8
断熱材
 62
     4
370
    -1
100
AcDbLine
 10
966.643443049834
 20
339.624931990737
 30
0.0
 11
932.086193230236
 21
337.457851681509
 31
0.0
  0
LINE
  5
1A5F
330
A
100
AcDbEntity
  8
断熱材
 62
     4
370
    -1
100
AcDbLine
 10
966.643443049834
 20
343.380657758269
 30
0.0
 11
932.086193230236
 21
345.547738067507
 31
0.0
  0
ARC
  5
1A60
330
A
100
AcDbEntity
  8
断熱材
 62
     4
100
AcDbCircle
 10
932.262095054844
 20
335.579988797741
 30
0.0
 40
1.886083365637118
100
AcDbArc
 50
95.351354122312
 51
264.648645877688
  0
ARC
  5
1A61
330
A
100
AcDbEntity
  8
断熱材
 62
     4
100
AcDbCircle
 10
966.467541225225
 20
329.657182720977
 30
0.0
 40
1.886083365637118
100
AcDbArc
 50
275.351354122312
 51
84.648645877688
  0
LINE
  5
1A62
330
A
100
AcDbEntity
  8
断熱材
 62
     4
370
    -1
100
AcDbLine
 10
966.643443049834
 20
327.779319837209
 30
0.0
 11
932.086193230236
 21
325.612239527974
 31
0.0
  0
LINE
  5
1A63
330
A
100
AcDbEntity
  8
断熱材
 62
     4
370
    -1
100
AcDbLine
 10
966.643443049834
 20
331.535045604742
 30
0.0
 11
932.086193230236
 21
333.70212591398
 31
0.0
  0
ARC
  5
1A64
330
A
100
AcDbEntity
  8
断熱材
 62
     4
100
AcDbCircle
 10
932.262095054844
 20
323.734376644206
 30
0.0
 40
1.886083365637118
100
AcDbArc
 50
95.351354122312
 51
264.648645877688
  0
ARC
  5
1A65
330
A
100
AcDbEntity
  8
断熱材
 62
     4
100
AcDbCircle
 10
966.467541225225
 20
317.811570567443
 30
0.0
 40
1.886083365637118
100
AcDbArc
 50
275.351354122312
 51
84.648645877688
  0
LINE
  5
1A66
330
A
100
AcDbEntity
  8
断熱材
 62
     4
370
    -1
100
AcDbLine
 10
966.643443049834
 20
319.689433451207
 30
0.0
 11
932.086193230236
 21
321.856513760438
 31
0.0
  0
LINE
  5
1A67
330
A
100
AcDbEntity
  8
断熱材
 62
     4
370
    -1
100
AcDbLine
 10
966.643443049834
 20
315.933707683675
 30
0.0
 11
932.086193230236
 21
313.766627374447
 31
0.0
  0
ARC
  5
1A68
330
A
100
AcDbEntity
  8
断熱材
 62
     4
100
AcDbCircle
 10
932.262095054844
 20
311.888764490672
 30
0.0
 40
1.886083365637118
100
AcDbArc
 50
95.351354122312
 51
174.664573069594
  0
LINE
  5
1A69
330
A
100
AcDbEntity
  8
緩衝フォーム
100
AcDbLine
 10
928.364818139788
 20
854.015393508249
 30
0.0
 11
928.364818139788
 21
312.064144296521
 31
0.0
  0
LINE
  5
1A6A
330
A
100
AcDbEntity
  8
緩衝フォーム
100
AcDbLine
 10
928.364818139788
 20
312.064144296521
 30
0.0
 11
419.364818139788
 21
312.064144296521
 31
0.0
  0
LINE
  5
1A6B
330
A
100
AcDbEntity
  8
緩衝フォーム
100
AcDbLine
 10
925.031484806794
 20
857.186224240137
 30
0.0
 11
925.031484806794
 21
315.397477629522
 31
0.0
  0
LINE
  5
1A6C
330
A
100
AcDbEntity
  8
緩衝フォーム
100
AcDbLine
 10
925.031484806794
 20
315.397477629522
 30
0.0
 11
419.364818139788
 21
315.397477629522
 31
0.0
  0
ARC
  5
1A6D
330
A
100
AcDbEntity
  8
断熱材
 62
     4
100
AcDbCircle
 10
1015.46754122572
 20
329.657182720977
 30
0.0
 40
1.886083365637118
100
AcDbArc
 50
275.351354122312
 51
84.648645877688
  0
LINE
  5
1A6E
330
A
100
AcDbEntity
  8
断熱材
 62
     4
370
    -1
100
AcDbLine
 10
1015.643443050329
 20
327.779319837209
 30
0.0
 11
981.086193230731
 21
325.612239527974
 31
0.0
  0
ARC
  5
1A6F
330
A
100
AcDbEntity
  8
断熱材
 62
     4
100
AcDbCircle
 10
981.262095055368
 20
323.734376644206
 30
0.0
 40
1.886083365637118
100
AcDbArc
 50
95.351354122312
 51
264.648645877688
  0
ARC
  5
1A70
330
A
100
AcDbEntity
  8
断熱材
 62
     4
100
AcDbCircle
 10
1015.46754122572
 20
317.811570567443
 30
0.0
 40
1.886083365637118
100
AcDbArc
 50
275.351354122312
 51
84.648645877688
  0
LINE
  5
1A71
330
A
100
AcDbEntity
  8
断熱材
 62
     4
370
    -1
100
AcDbLine
 10
1015.643443050329
 20
319.689433451207
 30
0.0
 11
981.086193230731
 21
321.856513760438
 31
0.0
  0
LINE
  5
1A72
330
A
100
AcDbEntity
  8
断熱材
 62
     4
370
    -1
100
AcDbLine
 10
1015.643443050329
 20
315.933707683675
 30
0.0
 11
981.086193230731
 21
313.766627374447
 31
0.0
  0
ARC
  5
1A73
330
A
100
AcDbEntity
  8
断熱材
 62
     4
100
AcDbCircle
 10
981.262095055368
 20
311.888764490672
 30
0.0
 40
1.886083365637118
100
AcDbArc
 50
95.351354122312
 51
174.664573069816
  0
LINE
  5
1A74
330
A
100
AcDbEntity
  8
断熱材
100
AcDbLine
 10
978.364818140282
 20
312.064144296521
 30
0.0
 11
1018.364818140777
 21
312.064144296521
 31
0.0
  0
LWPOLYLINE
  5
1A75
330
A
100
AcDbEntity
  8
寸法線
100
AcDbPolyline
 90
        3
 70
     0
 43
0.0
 10
1022.607306826569
 20
424.079306571348
 10
1018.364687197667
 20
428.321968316555
 10
1019.917572702281
 20
422.526405651079
  0
LINE
  5
1A76
330
A
100
AcDbEntity
  8
寸法線
100
AcDbLine
 10
925.031484806794
 20
679.485338385974
 30
0.0
 11
855.093203919387
 21
800.623382830345
 31
0.0
  0
LINE
  5
1A77
330
A
100
AcDbEntity
  8
寸法線
100
AcDbLine
 10
855.093203919387
 20
800.623382830345
 30
0.0
 11
843.093203919387
 21
800.623382830345
 31
0.0
  0
TEXT
  5
1A78
330
A
100
AcDbEntity
  8
文字
100
AcDbText
 10
620.070694379628
 20
796.784894423821
 30
0.0
 40
12.0
  1
サンタックIB-HWCシート 1.5㎜
  7
基本スタイル
 72
     2
 11
838.55262510365
 21
796.784894423821
 31
0.0
100
AcDbText
1001
AcadAnnotative
1000
AnnotativeData
1002
{
1070
     1
1070
     0
1002
}
  0
LWPOLYLINE
  5
1A79
330
A
100
AcDbEntity
  8
寸法線
100
AcDbPolyline
 90
        3
 70
     0
 43
0.0
 10
920.788865177892
 20
683.728000131181
 10
925.031484806794
 20
679.485338385974
 10
923.47859930218
 20
685.28090105145
  0
LINE
  5
1A7A
330
A
100
AcDbEntity
  8
寸法線
100
AcDbLine
 10
870.490116661909
 20
773.954841990559
 30
0.0
 11
858.490116661909
 21
773.954841990559
 31
0.0
  0
TEXT
  5
1A7B
330
A
100
AcDbEntity
  8
文字
100
AcDbText
 10
713.496868095016
 20
770.116353584039
 30
0.0
 40
12.0
  1
緩衝フォーム 1.0㎜
  7
基本スタイル
 72
     2
 11
853.949537846172
 21
770.116353584039
 31
0.0
100
AcDbText
1001
AcadAnnotative
1000
AnnotativeData
1002
{
1070
     1
1070
     0
1002
}
  0
HATCH
  5
1A7C
330
A
100
AcDbEntity
  8
部材(積層鋼板)
 62
     4
100
AcDbHatch
 10
0.0
 20
0.0
 30
0.0
210
0.0
220
0.0
230
1.0
  2
ANSI31
 70
     0
 71
     0
 91
        2
 92
        7
 72
     0
 73
     1
 93
        4
 10
920.9129269229015
 20
366.9727854071971
 10
924.0314848067937
 20
366.4228995113663
 10
919.6860534392908
 20
341.7787335985522
 10
916.5674955554132
 20
342.328619494383
 97
        0
 92
        7
 72
     1
 73
     1
 93
        8
 10
906.0644672278577
 20
319.5641442955239
 42
0.3639702342664872
 10
913.6803138518007
 20
325.9545983887838
 42
0.0
 10
916.5674955554132
 20
342.328619494383
 42
0.0
 10
919.6860534392908
 20
341.7787335985522
 42
0.0
 10
916.798871735693
 20
325.4047124929639
 42
-0.3639702342662773
 10
906.0644672278431
 20
316.3974776295254
 42
0.0
 10
864.4135085580638
 20
316.3974776295217
 42
0.0
 10
864.4135085580638
 20
319.5641442955239
 42
0.0
 97
        0
 75
     0
 76
     1
 52
180.0
 41
20.0
 77
     0
 78
     1
 53
45.0
 43
1379.217898045274
 44
410.5974776295188
 45
-1.767766952966369
 46
1.767766952966369
 79
     0
 47
0.0
 98
        2
 10
919.5112607282936
 20
351.9974776295203
 10
916.9112607282877
 20
339.9974776295203
1001
ACAD
1010
0.0
1020
0.0
1030
0.0
1001
HATCHBACKGROUNDCOLOR
1071
-939524096
1000

1000

  0
LWPOLYLINE
  5
1A7D
330
A
100
AcDbEntity
  8
部材(積層鋼板)
100
AcDbPolyline
 90
        8
 70
     1
 43
0.0
 10
913.680313851801
 20
325.954598388784
 42
-0.363970234266
 10
906.064467227872
 20
319.564144295524
 10
864.413508558064
 20
319.564144295524
 10
864.413508558064
 20
316.397477629522
 10
906.064467227843
 20
316.397477629525
 42
0.363970234266
 10
916.798871735693
 20
325.404712492964
 10
924.031484806794
 20
366.422899511366
 10
920.912926922902
 20
366.972785407197
  0
LINE
  5
1A90
330
A
100
AcDbEntity
  8
中心線
 48
0.25
100
AcDbLine
 10
921.196091994567
 20
341.512473059334
 30
0.0
 11
916.272053229506
 21
342.38071394767
 31
0.0
  0
LINE
  5
1A91
330
A
100
AcDbEntity
  8
躯体
100
AcDbLine
 10
1074.40721385194
 20
702.323153329886
 30
0.0
 11
1019.364818139788
 21
652.779713963933
 31
0.0
  0
LINE
  5
1A92
330
A
100
AcDbEntity
  8
躯体
100
AcDbLine
 10
1074.364818139788
 20
706.143441603082
 30
0.0
 11
1019.364818139788
 21
656.608098950295
 31
0.0
  0
LINE
  5
1A93
330
A
100
AcDbEntity
  8
躯体
100
AcDbLine
 10
1074.430872466415
 20
710.051474210657
 30
0.0
 11
1019.364818139788
 21
660.506731089532
 31
0.0
  0
LINE
  5
1A94
330
A
100
AcDbEntity
  8
躯体
100
AcDbLine
 10
1074.40721385194
 20
510.743856023328
 30
0.0
 11
1019.364818139788
 21
461.200416657375
 31
0.0
  0
LINE
  5
1A95
330
A
100
AcDbEntity
  8
躯体
100
AcDbLine
 10
1074.364818139788
 20
514.564144296521
 30
0.0
 11
1019.364818139788
 21
465.028801643733
 31
0.0
  0
LINE
  5
1A96
330
A
100
AcDbEntity
  8
躯体
100
AcDbLine
 10
1074.430872466415
 20
518.472176904099
 30
0.0
 11
1019.364818139788
 21
468.927433782974
 31
0.0
  0
LINE
  5
1A97
330
A
100
AcDbEntity
  8
断熱材
100
AcDbLine
 10
969.364818140282
 20
312.064144296521
 30
0.0
 11
929.364818139788
 21
312.064144296521
 31
0.0
  0
LINE
  5
1A98
330
A
100
AcDbEntity
  8
寸法線
100
AcDbLine
 10
1018.364818140777
 20
428.32147962059
 30
0.0
 11
1053.911192374493
 21
366.752647685884
 31
0.0
  0
LINE
  5
1A99
330
A
100
AcDbEntity
  8
寸法線
100
AcDbLine
 10
1053.911192374493
 20
366.752647685884
 30
0.0
 11
1065.911192374493
 21
366.752647685884
 31
0.0
  0
TEXT
  5
1A9A
330
A
100
AcDbEntity
  8
文字
100
AcDbText
 10
1070.451771190215
 20
362.914159279368
 30
0.0
 40
12.0
  1
断熱材
  7
基本スタイル
100
AcDbText
1001
AcadAnnotative
1000
AnnotativeData
1002
{
1070
     1
1070
     0
1002
}
  0
LINE
  5
1A9D
330
A
100
AcDbEntity
  8
躯体
100
AcDbLine
 10
1099.364818060436
 20
884.042290301077
 30
0.0
 11
1099.364818060436
 21
1021.56414429619
 31
0.0
  0
LINE
  5
1A9E
330
A
100
AcDbEntity
  8
躯体
100
AcDbLine
 10
929.364818139788
 20
853.06414428859
 30
0.0
 11
1129.327388226666
 21
863.062272806539
 31
0.0
  0
LINE
  5
1A9F
330
A
100
AcDbEntity
  8
躯体
100
AcDbLine
 10
1139.364818060436
 20
972.958912609327
 30
0.0
 11
1099.364818060436
 21
936.955073223384
 31
0.0
  0
LINE
  5
1AA0
330
A
100
AcDbEntity
  8
躯体
100
AcDbLine
 10
1139.364818060436
 20
976.795496731265
 30
0.0
 11
1099.364818060436
 21
940.769792983789
 31
0.0
  0
LINE
  5
1AA1
330
A
100
AcDbEntity
  8
躯体
100
AcDbLine
 10
1137.963881658914
 20
979.420015479307
 30
0.0
 11
1099.364818060436
 21
944.69116638909
 31
0.0
  0
LINE
  5
1AA2
330
A
100
AcDbEntity
  8
躯体
100
AcDbLine
 10
1129.327388226666
 20
863.062272806539
 30
0.0
 11
1099.364818060436
 21
884.042290301077
 31
0.0
  0
LINE
  5
1AA3
330
A
100
AcDbEntity
  8
緩衝フォーム
100
AcDbLine
 10
928.364818139788
 20
854.015393508249
 30
0.0
 11
1099.500200319912
 21
862.572162628894
 31
0.0
  0
LINE
  5
1AA4
330
A
100
AcDbEntity
  8
緩衝フォーム
100
AcDbLine
 10
925.031484806794
 20
857.186224240137
 30
0.0
 11
1099.333741596556
 21
865.90133709148
 31
0.0
  0
LINE
  5
1AA5
330
A
100
AcDbEntity
  8
IBｼｰﾄ
100
AcDbLine
 10
924.031484806794
 20
858.137473459803
 30
0.0
 11
1040.821796618612
 21
863.976989058334
 31
0.0
  0
LINE
  5
1AA6
330
A
100
AcDbEntity
  8
IBｼｰﾄ
100
AcDbLine
 10
919.031484806794
 20
862.893719558098
 30
0.0
 11
1039.234034120374
 21
868.903847031954
 31
0.0
  0
LINE
  5
1AA7
330
A
100
AcDbEntity
  8
寸法線
100
AcDbLine
 10
1094.477219440858
 20
884.707909567147
 30
0.0
 11
1030.194417111756
 21
996.050265523631
 31
0.0
  0
LINE
  5
1AA8
330
A
100
AcDbEntity
  8
寸法線
100
AcDbLine
 10
1030.194417111781
 20
996.050265523631
 30
0.0
 11
1018.194417111781
 21
996.050265523631
 31
0.0
  0
TEXT
  5
1AA9
330
A
100
AcDbEntity
  8
文字
100
AcDbText
 10
873.201168544902
 20
992.211777117114
 30
0.0
 40
12.0
  1
不定形シーリング材
  7
基本スタイル
 72
     2
 11
1013.653838296059
 21
992.211777117114
 31
0.0
100
AcDbText
1001
AcadAnnotative
1000
AnnotativeData
1002
{
1070
     1
1070
     0
1002
}
  0
LWPOLYLINE
  5
1AAA
330
A
100
AcDbEntity
  8
寸法線
100
AcDbPolyline
 90
        3
 70
     0
 43
0.0
 10
1090.234599811956
 20
888.950571312354
 10
1094.477219440858
 20
884.707909567147
 10
1092.924333936244
 20
890.50347223262
  0
LINE
  5
1AAB
330
A
100
AcDbEntity
  8
寸法線
100
AcDbLine
 10
1075.591160614899
 20
872.056702317463
 30
0.0
 11
1025.023629704408
 21
959.64323903458
 31
0.0
  0
TEXT
  5
1AAC
330
A
100
AcDbEntity
  8
文字
100
AcDbText
 10
899.242085526655
 20
955.804750628056
 30
0.0
 40
12.0
  1
IB積層鋼鈑♯60
  7
基本スタイル
 72
     2
 11
1008.483050888666
 21
955.804750628056
 31
0.0
100
AcDbText
1001
AcadAnnotative
1000
AnnotativeData
1002
{
1070
     1
1070
     0
1002
}
  0
LWPOLYLINE
  5
1AAD
330
A
100
AcDbEntity
  8
寸法線
100
AcDbPolyline
 90
        3
 70
     0
 43
0.0
 10
1071.348540985999
 20
876.29936406267
 10
1075.5911606149
 20
872.056702317463
 10
1074.038275110286
 20
877.852264982939
  0
LINE
  5
1AAE
330
A
100
AcDbEntity
  8
寸法線
100
AcDbLine
 10
1025.023629704403
 20
959.64323903458
 30
0.0
 11
1013.023629704403
 21
959.64323903458
 31
0.0
  0
LINE
  5
1AAF
330
A
100
AcDbEntity
  8
寸法線
100
AcDbLine
 10
1116.142505059717
 20
872.294427390461
 30
0.0
 11
1167.43783481032
 21
961.141563126075
 31
0.0
  0
LINE
  5
1AB0
330
A
100
AcDbEntity
  8
寸法線
100
AcDbLine
 10
1167.43783481032
 20
961.141563126075
 30
0.0
 11
1179.43783481032
 21
961.141563126075
 31
0.0
  0
TEXT
  5
1AB1
330
A
100
AcDbEntity
  8
文字
100
AcDbText
 10
1183.978413626057
 20
957.303074719552
 30
0.0
 40
12.0
  1
Vカット加工
  7
基本スタイル
100
AcDbText
1001
AcadAnnotative
1000
AnnotativeData
1002
{
1070
     1
1070
     0
1002
}
  0
LWPOLYLINE
  5
1AB2
330
A
100
AcDbEntity
  8
寸法線
100
AcDbPolyline
 90
        3
 70
     0
 43
0.0
 10
1120.385124688619
 20
876.537089135669
 10
1116.142505059717
 20
872.294427390461
 10
1117.695390564331
 20
878.089990055942
  0
HATCH
  5
1AB4
330
A
100
AcDbEntity
  8
部材(積層鋼板)
 62
     4
100
AcDbHatch
 10
0.0
 20
0.0
 30
0.0
210
0.0
220
0.0
230
1.0
  2
ANSI31
 70
     0
 71
     0
 91
        2
 92
        7
 72
     1
 73
     1
 93
        6
 10
1099.966284744066
 20
873.2754585255643
 42
-0.9999999999999999
 10
1100.282556318404
 20
866.9500270473691
 42
0.0
 10
1088.463986974416
 20
866.3590985793562
 42
0.0
 10
1088.30585118724
 20
869.521814318472
 42
0.0
 10
1078.318327798496
 20
869.0224381483567
 42
0.0
 10
1078.160192011334
 20
872.1851538874544
 42
0.0
 97
        0
 92
        7
 72
     0
 73
     1
 93
        4
 10
1053.349519326631
 20
867.7739977230631
 10
1053.191383539454
 20
870.9367134621789
 10
1078.160192011334
 20
872.1851538874544
 10
1078.318327798496
 20
869.0224381483567
 97
        0
 75
     0
 76
     1
 52
188.045695061063
 41
20.0
 77
     0
 78
     1
 53
42.67911539893736
 43
1608.563107844561
 44
777.8704816026875
 45
-1.694729361850406
 46
1.837904347370153
 79
     0
 47
0.0
 98
        2
 10
1088.756158181847
 20
870.5281666220071
 10
1073.27549692929
 20
869.7541335583264
1001
ACAD
1010
0.0
1020
0.0
1030
0.0
1001
HATCHBACKGROUNDCOLOR
1071
-939524096
1000

1000

  0
LINE
  5
1AB5
330
A
100
AcDbEntity
  8
部材(積層鋼板)
100
AcDbLine
 10
1100.124420531228
 20
870.112742786474
 30
0.0
 11
1053.349519326631
 21
867.773997723063
 31
0.0
  0
LINE
  5
1AB6
330
A
100
AcDbEntity
  8
部材(積層鋼板)
100
AcDbLine
 10
1053.349519326631
 20
867.773997723063
 30
0.0
 11
1053.191383539454
 21
870.936713462179
 31
0.0
  0
LINE
  5
1AB7
330
A
100
AcDbEntity
  8
部材(積層鋼板)
100
AcDbLine
 10
1053.191383539454
 20
870.936713462179
 30
0.0
 11
1099.966284744066
 21
873.275458525564
 31
0.0
  0
ARC
  5
1AB8
330
A
100
AcDbEntity
  8
部材(積層鋼板)
100
AcDbCircle
 10
1100.124420531242
 20
870.112742786467
 30
0.0
 40
3.166666665992841
100
AcDbArc
 50
272.862405230117
 51
92.862405230117
  0
LINE
  5
1AB9
330
A
100
AcDbEntity
  8
部材(積層鋼板)
100
AcDbLine
 10
1100.282556318419
 20
866.950027047373
 30
0.0
 11
1088.463986974416
 21
866.359098579356
 31
0.0
  0
LINE
  5
1ABA
330
A
100
AcDbEntity
  8
部材(積層鋼板)
100
AcDbLine
 10
1088.463986974416
 20
866.359098579356
 30
0.0
 11
1088.30585118724
 21
869.521814318472
 31
0.0
  0
LWPOLYLINE
  5
1ABB
330
A
100
AcDbEntity
  8
部材(ﾋﾞｽ類)
100
AcDbPolyline
 90
       32
 70
     0
 43
0.0
 10
1080.731351051174
 20
827.895936113488
 10
1080.698214570322
 20
827.894279289445
 42
0.126825768809
 10
1080.486180255961
 20
828.574274287745
 10
1079.693786425705
 20
829.853551843542
 42
-0.256490137263
 10
1079.658586928679
 20
830.427358575336
 10
1081.094917676412
 20
833.471295888517
 42
0.253636490355
 10
1081.031640660163
 20
834.608069856469
 10
1079.435230118135
 20
837.545702943538
 42
-0.218900263645
 10
1079.409271024691
 20
837.93294474611
 10
1080.620332099017
 20
841.163579470482
 42
0.209095404736
 10
1080.569057946414
 20
842.119335640276
 10
1079.15545949401
 20
845.00496516276
 42
-0.199072424679
 10
1079.134823115193
 20
845.334677580478
 10
1079.633867464567
 20
846.789265038991
 42
0.099854070822
 10
1079.717672901752
 20
847.34720731225
 10
1079.677219934587
 20
848.156266654496
 42
3.867768794258
 10
1079.047626798652
 20
848.124786997654
 10
1079.088079765817
 20
847.315727655412
 42
-0.095438157436
 10
1079.045942759214
 20
847.017455286586
 10
1078.538736895847
 20
845.539762504613
 42
0.206638844849
 10
1078.603080306886
 20
844.700614927999
 10
1080.094573423965
 20
841.863964415523
 42
-0.21270382653
 10
1080.126104147537
 20
841.378872944992
 10
1078.919368274117
 20
838.116148035857
 42
0.20973763421
 10
1078.969871679481
 20
837.264468127836
 10
1080.499541810175
 20
834.273215595516
 42
-0.270363890763
 10
1080.491097321705
 20
833.671421152048
 10
1079.092224953813
 20
830.676799599321
 42
0.248644858073
 10
1079.148586175797
 20
829.559457683437
 10
1079.941458480665
 20
828.230138879702
 42
-0.122570027372
 10
1080.052870280037
 20
827.862012074886
 10
1080.019733799185
 20
827.860355250843
  0
LWPOLYLINE
  5
1ABC
330
A
100
AcDbEntity
  8
部材(ﾋﾞｽ類)
100
AcDbPolyline
 90
       32
 70
     0
 43
0.0
 10
1080.796609971454
 20
826.194387159052
 10
1080.731351051174
 20
827.895936113488
 42
0.126825813089
 10
1080.514385572227
 20
828.591745165297
 10
1079.721897993091
 20
829.871173575426
 42
-0.256544899034
 10
1079.688592102699
 20
830.413200151688
 10
1081.124920721559
 20
833.457132953314
 42
0.251254532285
 10
1081.065608955803
 20
834.61609795698
 10
1079.464379181285
 20
837.561549190559
 42
-0.218900263645
 10
1079.440274308814
 20
837.921130864379
 10
1080.651398859933
 20
841.151933535806
 42
0.209095404736
 10
1080.598700425209
 20
842.134238488332
 10
1079.185254381198
 20
845.019560919882
 42
-0.199109332435
 10
1079.166223766762
 20
845.323964318985
 10
1079.673558181428
 20
846.80203139492
 42
0.095438169349
 10
1079.750809382589
 20
847.348864136296
 10
1079.711316288405
 20
848.138726018773
 42
3.649823686132
 10
1079.015450190782
 20
848.103932713846
 10
1079.054943284966
 20
847.314070831369
 42
-0.105213986763
 10
1079.004432845191
 20
847.000477411431
 10
1078.507095094683
 20
845.54977320752
 42
0.206444475481
 10
1078.573714284357
 20
844.685174456838
 10
1080.065207401451
 20
841.848523944358
 42
-0.212703826529
 10
1080.09498641816
 20
841.390381999961
 10
1078.88825054474
 20
838.127657090834
 42
0.209737634211
 10
1078.940332181504
 20
837.249362185685
 10
1080.470319211308
 20
834.257489960746
 42
-0.271504379566
 10
1080.461786764601
 20
833.687067160419
 10
1079.062165041789
 20
830.690841433858
 42
0.248644858073
 10
1079.12009185327
 20
829.542462242531
 10
1079.912964158124
 20
828.213143438788
 42
-0.122570027372
 10
1080.019733799185
 20
827.860355250843
 10
1080.124530929053
 20
826.160783206888
  0
LWPOLYLINE
  5
1ABD
330
A
100
AcDbEntity
  8
部材(ﾋﾞｽ類)
100
AcDbPolyline
 90
        4
 70
     0
 43
0.0
 10
1080.137898305111
 20
826.161451575692
 10
1080.089099603647
 20
827.137425603589
 10
1080.734443893933
 20
827.169692818148
 10
1080.783242595397
 20
826.193718790248
  0
LINE
  5
1ABE
330
A
100
AcDbEntity
  8
部材(ﾋﾞｽ類)
100
AcDbLine
 10
1081.814716225243
 20
859.169622821944
 30
0.0
 11
1075.822202192008
 21
858.869997119877
 31
0.0
  0
LINE
  5
1ABF
330
A
100
AcDbEntity
  8
部材(ﾋﾞｽ類)
100
AcDbLine
 10
1074.251248871704
 20
860.308465835038
 30
0.0
 11
1083.234346215555
 21
860.757620702843
 31
0.0
  0
LINE
  5
1AC0
330
A
100
AcDbEntity
  8
部材(ﾋﾞｽ類)
100
AcDbLine
 10
1073.66580648697
 20
871.960434610934
 30
0.0
 11
1082.654577536843
 21
872.409873164041
 31
0.0
  0
LINE
  5
1AC1
330
A
100
AcDbEntity
  8
部材(ﾋﾞｽ類)
100
AcDbLine
 10
1079.969431873964
 20
869.442080588888
 30
0.0
 11
1076.63359906213
 21
869.275288948069
 31
0.0
  0
LINE
  5
1AC2
330
A
100
AcDbEntity
  8
部材(ﾋﾞｽ類)
100
AcDbLine
 10
1081.63221140072
 20
826.236167230571
 30
0.0
 11
1078.677899089642
 21
825.035915332945
 31
0.0
  0
LINE
  5
1AC3
330
A
100
AcDbEntity
  8
部材(ﾋﾞｽ類)
100
AcDbLine
 10
1081.346181921093
 20
826.221865756572
 30
0.0
 11
1078.672905327941
 21
825.13579056683
 31
0.0
  0
LINE
  5
1AC4
330
A
100
AcDbEntity
  8
部材(ﾋﾞｽ類)
100
AcDbLine
 10
1081.551389317465
 20
823.352057851971
 30
0.0
 11
1079.942048301586
 21
822.699115689324
 31
0.0
  0
LINE
  5
1AC5
330
A
100
AcDbEntity
  8
部材(ﾋﾞｽ類)
100
AcDbLine
 10
1081.546395555764
 20
823.451933085857
 30
0.0
 11
1079.937054539885
 21
822.798990923216
 31
0.0
  0
LINE
  5
1AC6
330
A
100
AcDbEntity
  8
部材(ﾋﾞｽ類)
100
AcDbLine
 10
1081.086130146665
 20
823.146248490146
 30
0.0
 11
1080.307999834797
 21
822.579238461669
 31
0.0
  0
LINE
  5
1AC7
330
A
100
AcDbEntity
  8
部材(ﾋﾞｽ類)
100
AcDbLine
 10
1081.216136572722
 20
823.750738832405
 30
0.0
 11
1080.158355744148
 21
823.043586991127
 31
0.0
  0
LINE
  5
1AC8
330
A
100
AcDbEntity
  8
部材(ﾋﾞｽ類)
100
AcDbLine
 10
1079.169180932877
 20
826.113015707011
 30
0.0
 11
1079.271053842545
 21
825.796902083068
 31
0.0
  0
LWPOLYLINE
  5
1AC9
330
A
100
AcDbEntity
  8
部材(ﾋﾞｽ類)
100
AcDbPolyline
 90
        4
 70
     0
 43
0.0
 10
1076.864506233673
 20
839.803969248209
 10
1076.876935165288
 20
839.555390616268
 10
1077.216954437186
 20
838.806989597218
 10
1077.312838075479
 20
837.601386893759
  0
LWPOLYLINE
  5
1ACA
330
A
100
AcDbEntity
  8
部材(ﾋﾞｽ類)
100
AcDbPolyline
 90
        4
 70
     0
 43
0.0
 10
1077.556976681401
 20
833.786597655588
 10
1077.478856497371
 20
834.993088529893
 10
1077.066032361385
 20
835.773446699593
 10
1077.05626672876
 20
835.968759351803
  0
LWPOLYLINE
  5
1ACB
330
A
100
AcDbEntity
  8
部材(ﾋﾞｽ類)
100
AcDbPolyline
 90
        4
 70
     0
 43
0.0
 10
1077.24713943206
 20
832.151305291081
 10
1077.256017196807
 20
831.973749996305
 10
1077.741634080885
 20
831.161432544603
 10
1077.819766608896
 20
829.95493923267
  0
LWPOLYLINE
  5
1ACC
330
A
100
AcDbEntity
  8
部材(ﾋﾞｽ類)
100
AcDbPolyline
 90
       58
 70
     1
 43
0.0
 10
1084.475030507645
 20
846.522777976515
 10
1082.003556121039
 20
842.929370598318
 10
1081.779365240101
 20
847.41318821122
 42
-0.355962003442
 10
1081.934068976552
 20
847.623597885336
 10
1082.139798158794
 20
847.680409933837
 10
1082.209039816313
 20
847.719472463541
 10
1082.2800570572
 20
847.72302332559
 10
1082.349310906706
 20
847.762086466759
 10
1082.367062168792
 20
847.762974029862
 10
1081.800911550163
 20
859.085986386959
 42
-0.19891236738
 10
1081.852354862101
 20
859.230156575144
 10
1083.234346215555
 20
860.757620702843
 10
1083.204302526778
 20
861.358494477474
 10
1074.221205182926
 20
860.909339609672
 10
1074.251248871704
 20
860.308465835038
 10
1075.778712999381
 20
858.926474481599
 42
-0.19891236738
 10
1075.844280802368
 20
858.788154849164
 10
1076.410431420998
 20
847.465142492067
 10
1076.428182683085
 20
847.466030055173
 10
1076.500987699532
 20
847.434069857314
 10
1076.572004940434
 20
847.437620719364
 10
1076.644797764704
 20
847.405659913758
 10
1076.855167903515
 20
847.369652831341
 42
-0.355962003442
 10
1077.030088546482
 20
847.175724376215
 10
1077.254279427434
 20
842.691906763317
 10
1074.436686969639
 20
846.02086079893
 42
0.982770495282
 10
1073.741372533419
 20
845.452795391258
 10
1076.695825351431
 20
841.397533955278
 10
1076.864506233673
 20
839.803969248209
 10
1077.929837997697
 20
839.857235836484
 10
1078.040810513892
 20
837.63778551573
 10
1076.886698054819
 20
837.580079892698
 10
1077.05626672876
 20
835.968759351803
 10
1078.068344706058
 20
836.019363250736
 10
1078.107412113372
 20
833.814119427221
 10
1077.077570681926
 20
833.76262735558
 10
1077.24713943206
 20
832.151305291081
 10
1078.117170735961
 20
832.194806856332
 10
1078.157113742898
 20
829.971806589394
 10
1077.269331176925
 20
829.927417461033
 10
1077.484018185671
 20
827.795026833006
 10
1078.213377687789
 20
826.065225544695
 10
1082.707763212704
 20
826.289944821245
 10
1083.260936254432
 20
828.08387273685
 10
1083.26184521016
 20
830.2270431631
 10
1082.374062644187
 20
830.182654034743
 10
1082.192060771296
 20
832.398551358379
 10
1083.062092075183
 20
832.442052923634
 10
1083.07008471516
 20
834.062253057647
 10
1082.0402432837
 20
834.010760986006
 10
1081.859141394598
 20
836.208903085422
 10
1082.871219371882
 20
836.259506984356
 10
1082.879212088053
 20
837.879705594769
 10
1081.72509962898
 20
837.821999971737
 10
1081.614127112785
 20
840.041450292487
 10
1082.679458876795
 20
840.094716880762
 10
1082.688339384666
 20
841.697159657346
 10
1085.223541920102
 20
846.026903861373
 42
0.982770495282
  0
LWPOLYLINE
  5
1ACD
330
A
100
AcDbEntity
  8
部材(ﾋﾞｽ類)
100
AcDbPolyline
 90
        4
 70
     0
 43
0.0
 10
1083.062092075183
 20
832.442052923634
 10
1083.07096983993
 20
832.264497628854
 10
1082.668804157554
 20
831.407791048772
 10
1082.711409778174
 20
830.199521391467
  0
LWPOLYLINE
  5
1ACE
330
A
100
AcDbEntity
  8
部材(ﾋﾞｽ類)
100
AcDbPolyline
 90
        4
 70
     0
 43
0.0
 10
1082.590678715685
 20
834.038282757643
 10
1082.54806105583
 20
835.246548758161
 10
1082.880985004507
 20
836.064194332146
 10
1082.871219371882
 20
836.259506984356
  0
LWPOLYLINE
  5
1ACF
330
A
100
AcDbEntity
  8
部材(ﾋﾞｽ類)
100
AcDbPolyline
 90
        4
 70
     0
 43
0.0
 10
1082.679458876795
 20
840.094716880762
 10
1082.691887808411
 20
839.84613824882
 10
1082.428217861583
 20
839.067552768793
 10
1082.453072067379
 20
837.858398593704
  0
LWPOLYLINE
  5
1AD0
330
A
100
AcDbEntity
  8
部材(ﾋﾞｽ類)
100
AcDbPolyline
 90
        7
 70
     0
 43
0.0
 10
1079.747273122732
 20
847.419589333451
 10
1081.241337116982
 20
847.494256314265
 10
1081.534084204905
 20
841.639314563585
 10
1081.800414098005
 20
841.652631058259
 10
1081.762814981717
 20
842.40461338298
 42
-0.13354901382
 10
1081.818946863452
 20
842.660957430915
 10
1082.003556121039
 20
842.929370598315
  0
LWPOLYLINE
  5
1AD1
330
A
100
AcDbEntity
  8
部材(ﾋﾞｽ類)
100
AcDbPolyline
 90
        7
 70
     0
 43
0.0
 10
1079.051407746927
 20
847.384795782182
 10
1077.55734664372
 20
847.310056790349
 10
1077.850093731642
 20
841.455115039673
 10
1077.583763838542
 20
841.441798545002
 10
1077.546164722255
 20
842.193780869722
 42
0.13354901382
 10
1077.464742321405
 20
842.443247203515
 10
1077.254279427434
 20
842.69190676331
  0
LWPOLYLINE
  5
1AD2
330
A
100
AcDbEntity
  8
部材(ﾋﾞｽ類)
100
AcDbPolyline
 90
       10
 70
     0
 43
0.0
 10
1077.044837448932
 20
861.050521223166
 10
1076.654283900367
 20
868.86159218385
 42
0.19891236738
 10
1076.326444885402
 20
869.553190346007
 10
1073.66580648697
 20
871.960434610934
 10
1073.650825201854
 20
872.260060312597
 10
1082.639596251727
 20
872.709498865705
 10
1082.654577536843
 20
872.409873164041
 10
1080.247333271895
 20
869.749234765601
 42
0.19891236738
 10
1079.990116712201
 20
869.028383824669
 10
1080.380670260766
 20
861.217312863981
  0
LWPOLYLINE
  5
1AD3
330
A
100
AcDbEntity
  8
部材(ﾋﾞｽ類)
100
AcDbPolyline
 90
       16
 70
     0
 43
0.0
 10
1079.676030704446
 20
826.138358195625
 10
1079.271053842545
 20
825.796902083068
 10
1078.672905327941
 20
825.13579056683
 10
1078.677899089642
 20
825.035915332945
 10
1079.6152477539
 20
824.728861668656
 10
1080.158355744148
 20
823.043586991127
 10
1079.937054539885
 20
822.798990923216
 10
1079.942048301586
 20
822.699115689324
 10
1080.307999834797
 20
822.579238461669
 10
1080.701547015153
 20
821.358053891763
 10
1081.086130146665
 20
823.146248490146
 10
1081.551389317465
 20
823.352057851971
 10
1081.546395555764
 20
823.451933085857
 10
1081.216136572722
 20
823.750738832405
 10
1081.751959967631
 20
826.242154658925
 10
1079.6152477539
 20
824.728861668656
  0
LINE
  5
1AD4
330
A
100
AcDbEntity
  8
中心線
 48
0.25
100
AcDbLine
 10
1080.768668304474
 20
820.015628107256
 30
0.0
 11
1077.903792855912
 21
877.313137000394
 31
0.0
  0
LINE
  5
1AD5
330
A
100
AcDbEntity
  8
IBｼｰﾄ
100
AcDbLine
 10
1040.821796618612
 20
863.976989058334
 30
0.0
 11
1053.14144592245
 21
871.935465801052
 31
0.0
  0
LINE
  5
1AD6
330
A
100
AcDbEntity
  8
IBｼｰﾄ
100
AcDbLine
 10
1053.14144592245
 20
871.935465801052
 30
0.0
 11
1099.916347127061
 21
874.274210864434
 31
0.0
  0
LINE
  5
1AD7
330
A
100
AcDbEntity
  8
IBｼｰﾄ
100
AcDbLine
 10
1099.666659041995
 20
879.267972558806
 30
0.0
 11
1051.553683424211
 21
876.862323774672
 31
0.0
  0
LINE
  5
1AD8
330
A
100
AcDbEntity
  8
IBｼｰﾄ
100
AcDbLine
 10
1051.553683424211
 20
876.862323774672
 30
0.0
 11
1039.234034120374
 21
868.903847031954
 31
0.0
  0
HATCH
  5
1AD9
330
A
100
AcDbEntity
  8
シーリング(IBｼﾘｺｰﾝ)
100
AcDbHatch
 10
0.0
 20
0.0
 30
0.0
210
0.0
220
0.0
230
1.0
  2
DOTS1
 70
     0
 71
     1
 91
        1
 92
        7
 72
     1
 73
     1
 93
        8
 10
1126.365509419658
 20
863.915428085711
 42
0.0
 10
1098.364818060436
 20
883.5217232505238
 42
0.0
 10
1098.364818060436
 20
891.4054303256198
 42
-0.207089071393528
 10
1087.659087737835
 20
879.6688432125185
 42
0.0
 10
1100.615473763874
 20
880.3166625146914
 42
0.0
 10
1100.921180850625
 20
874.2025207876504
 42
-0.885608215893255
 10
1100.332493935438
 20
865.9512747084968
 42
0.0
 10
1100.498952658787
 20
862.622100245906
 42
0.0
 97
        8
330
1ADA
330
1ADD
330
1ADC
330
1AE1
330
1AE0
330
1ADF
330
1AE3
330
1ADB
 75
     0
 76
     1
 52
317.86240523
 41
20.0
 77
     0
 78
     1
 53
317.86240523
 43
-3674.275252006017
 44
-20396.7423633966
 45
1.302101516879317
 46
0.5075988965123737
 79
     2
 49
0.0
 49
-1.249999999999998
 47
0.0
 98
        1
 10
1098.324747993984
 20
880.6576366034024
1001
ACAD
1010
0.0
1020
0.0
1030
0.0
1001
HATCHBACKGROUNDCOLOR
1071
-939524096
1000

1000

  0
LINE
  5
1ADA
102
{ACAD_REACTORS
330
1AD9
102
}
330
A
100
AcDbEntity
  8
シーリング(IBｼﾘｺｰﾝ)
100
AcDbLine
 10
1126.365509419658
 20
863.915428085711
 30
0.0
 11
1098.364818060436
 21
883.521723250524
 31
0.0
  0
LINE
  5
1ADB
102
{ACAD_REACTORS
330
1AD9
102
}
330
A
100
AcDbEntity
  8
シーリング(IBｼﾘｺｰﾝ)
100
AcDbLine
 10
1100.498952658787
 20
862.622100245906
 30
0.0
 11
1126.365509419658
 21
863.915428085711
 31
0.0
  0
ARC
  5
1ADC
102
{ACAD_REACTORS
330
1AD9
102
}
330
A
100
AcDbEntity
  8
シーリング(IBｼﾘｺｰﾝ)
100
AcDbCircle
 10
1079.451057181665
 20
897.906941643796
 30
0.0
 40
20.0
100
AcDbArc
 50
294.2300606446
 51
341.029846811984
  0
LINE
  5
1ADD
102
{ACAD_REACTORS
330
1AD9
102
}
330
A
100
AcDbEntity
  8
シーリング(IBｼﾘｺｰﾝ)
100
AcDbLine
 10
1098.364818060436
 20
883.521723250524
 30
0.0
 11
1098.364818060436
 21
891.40543032562
 31
0.0
  0
LINE
  5
1ADE
330
A
100
AcDbEntity
  8
IBｼｰﾄ
100
AcDbLine
 10
1099.916347127061
 20
874.274210864434
 30
0.0
 11
1099.666659042009
 21
879.267972558806
 31
0.0
  0
ARC
  5
1ADF
102
{ACAD_REACTORS
330
1AD9
102
}
330
A
100
AcDbEntity
  8
シーリング(IBｼﾘｺｰﾝ)
100
AcDbCircle
 10
1100.124420531242
 20
870.112742786467
 30
0.0
 40
4.166666665992841
100
AcDbArc
 50
272.862405230192
 51
78.9758648652
  0
LINE
  5
1AE0
102
{ACAD_REACTORS
330
1AD9
102
}
330
A
100
AcDbEntity
  8
シーリング(IBｼﾘｺｰﾝ)
100
AcDbLine
 10
1100.921180850625
 20
874.20252078765
 30
0.0
 11
1100.615473763874
 21
880.316662514691
 31
0.0
  0
LINE
  5
1AE1
102
{ACAD_REACTORS
330
1AD9
102
}
330
A
100
AcDbEntity
  8
シーリング(IBｼﾘｺｰﾝ)
100
AcDbLine
 10
1100.615473763874
 20
880.316662514691
 30
0.0
 11
1087.659087737834
 21
879.668843212519
 31
0.0
  0
LINE
  5
1AE3
102
{ACAD_REACTORS
330
1AD9
102
}
330
A
100
AcDbEntity
  8
シーリング(IBｼﾘｺｰﾝ)
100
AcDbLine
 10
1100.332493935431
 20
865.951274708495
 30
0.0
 11
1100.498952658787
 21
862.622100245906
 31
0.0
  0
LINE
  5
1AE4
330
A
100
AcDbEntity
  8
緩衝フォーム
100
AcDbLine
 10
1099.333741596556
 20
865.901337091484
 30
0.0
 11
1099.500200319912
 21
862.572162628894
 31
0.0
  0
LINE
  5
1B8E
330
A
100
AcDbEntity
  8
IBｼｰﾄ
100
AcDbLine
 10
919.928119169868
 20
367.146433584858
 30
0.0
 11
924.031484806794
 21
372.036634324401
 31
0.0
  0
LINE
  5
1B8F
330
A
100
AcDbEntity
  8
IBｼｰﾄ
100
AcDbLine
 10
864.413508558064
 20
320.564144295524
 30
0.0
 11
857.196630194325
 21
316.397477629522
 31
0.0
  0
LINE
  5
1B90
330
A
100
AcDbEntity
  8
IBｼｰﾄ
100
AcDbLine
 10
863.073762595886
 20
325.564144295524
 30
0.0
 11
855.856884232166
 21
321.397477629522
 31
0.0
  0
LINE
  5
1B91
330
A
100
AcDbEntity
  8
IBｼｰﾄ
100
AcDbLine
 10
915.236724849732
 20
369.334066683827
 30
0.0
 11
919.031484806794
 21
373.856485495699
 31
0.0
  0
ARC
  5
1B92
330
A
100
AcDbEntity
  8
IBｼｰﾄ
100
AcDbCircle
 10
906.064467227814
 20
327.297477629516
 30
0.0
 40
6.733333333990464
100
AcDbArc
 50
292.111879673886
 51
350.000000000033
  0
LINE
  5
1B93
330
A
100
AcDbEntity
  8
IBｼｰﾄ
100
AcDbLine
 10
899.064467227814
 20
320.564144295524
 30
0.0
 11
864.413508558064
 21
320.564144295524
 31
0.0
  0
LINE
  5
1B94
330
A
100
AcDbEntity
  8
IBｼｰﾄ
100
AcDbLine
 10
919.928119169868
 20
367.146433584858
 30
0.0
 11
912.695506098738
 21
326.128246566448
 31
0.0
  0
LINE
  5
1B95
330
A
100
AcDbEntity
  8
IBｼｰﾄ
100
AcDbLine
 10
899.064467227814
 20
325.564144295524
 30
0.0
 11
863.073762595886
 21
325.564144295524
 31
0.0
  0
LINE
  5
1B96
330
A
100
AcDbEntity
  8
IBｼｰﾄ
100
AcDbLine
 10
915.236724849732
 20
369.334066683827
 30
0.0
 11
907.821745646361
 21
327.281629935111
 31
0.0
  0
LINE
  5
1B97
330
A
100
AcDbEntity
  8
IBｼｰﾄ
100
AcDbLine
 10
899.064467227814
 20
320.564144295524
 30
0.0
 11
899.064467227814
 21
325.564144295524
 31
0.0
  0
LINE
  5
1B98
330
A
100
AcDbEntity
  8
IBｼｰﾄ
100
AcDbLine
 10
899.064467227814
 20
326.564144295524
 30
0.0
 11
871.073762595886
 21
326.564144295524
 31
0.0
  0
LINE
  5
1B99
330
A
100
AcDbEntity
  8
IBｼｰﾄ
100
AcDbLine
 10
900.404213189962
 20
331.564144295531
 30
0.0
 11
871.073762595886
 21
331.564144295524
 31
0.0
  0
LINE
  5
1B9A
330
A
100
AcDbEntity
  8
IBｼｰﾄ
100
AcDbLine
 10
908.599004058546
 20
321.059376889702
 30
0.0
 11
899.064467227814
 21
326.564144295524
 31
0.0
  0
LINE
  5
1B9B
330
A
100
AcDbEntity
  8
IBｼｰﾄ
100
AcDbLine
 10
907.821745646361
 20
327.281629935111
 30
0.0
 11
900.404213189962
 21
331.564144295531
 31
0.0
  0
LINE
  5
1B9C
330
A
100
AcDbEntity
  8
IBリキッド
100
AcDbLine
 10
870.073762595886
 20
326.564144295524
 30
0.0
 11
870.073762595886
 21
331.564144295524
 31
0.0
  0
LINE
  5
1B9D
330
A
100
AcDbEntity
  8
IBｼｰﾄ
100
AcDbLine
 10
871.073762595886
 20
326.564144295524
 30
0.0
 11
871.073762595886
 21
331.564144295524
 31
0.0
  0
LINE
  5
1B9E
330
A
100
AcDbEntity
  8
IBリキッド
100
AcDbLine
 10
870.073762595886
 20
326.564144295524
 30
0.0
 11
863.073762595886
 21
326.564144295524
 31
0.0
  0
ARC
  5
1B9F
330
A
100
AcDbEntity
  8
IBリキッド
100
AcDbCircle
 10
870.073762595886
 20
324.164144295522
 30
0.0
 40
7.400000000000472
100
AcDbArc
 50
90.0
 51
161.075355583938
  0
VIEWPORT
  5
1D
330
B
100
AcDbEntity
 67
     1
  8
0
100
AcDbViewport
 10
210.0
 20
148.5
 30
0.0
 40
420.0
 41
297.0
 68
     1
 69
     1
 12
4.5
 22
3.259162
 13
0.0
 23
0.0
 14
1.0
 24
1.0
 15
0.0
 25
0.0
 16
0.0
 26
0.0
 36
1.0
 17
0.0
 27
0.0
 37
0.0
 42
50.0
 43
0.0
 44
0.0
 45
9.311892
 50
0.0
 51
0.0
 72
   100
 90
   557216
  1

281
     0
 71
     1
 74
     0
110
0.0
120
0.0
130
0.0
111
1.0
121
0.0
131
0.0
112
0.0
122
1.0
132
0.0
 79
     0
146
0.0
170
     0
 61
     5
348
15D0
292
     0
282
     1
141
0.0
142
0.0
 63
   250
421
  3355443
  0
ENDSEC
  0
SECTION
  2
OBJECTS
  0
DICTIONARY
  5
19
330
0
100
AcDbDictionary
281
     1
  3
ACAD_COLOR
350
165D
  3
ACAD_DETAILVIEWSTYLE
350
1639
  3
ACAD_FIELDLIST
350
1BB6
  3
ACAD_GROUP
350
1A
  3
ACAD_IMAGE_VARS
350
163B
  3
ACAD_LAYOUT
350
15C8
  3
ACAD_MATERIAL
350
15E4
  3
ACAD_MLEADERSTYLE
350
15EA
  3
ACAD_MLINESTYLE
350
1B
  3
ACAD_PLOTSETTINGS
350
15A3
  3
ACAD_PLOTSTYLENAME
350
15A4
  3
ACAD_SCALELIST
350
15A6
  3
ACAD_SECTIONVIEWSTYLE
350
163A
  3
ACAD_TABLESTYLE
350
15E8
  3
ACAD_VISUALSTYLE
350
15CB
  3
ACDB_RECOMPOSE_DATA
350
1BBD
  3
AcDbVariableDictionary
350
15F4
  0
SUN
  5
15ED
330
15
100
AcDbSun
 90
        1
290
     0
 63
     7
421
 16777215
 40
1.0
291
     1
 91
  2455826
 92
 54000000
292
     0
 70
     2
 71
   256
280
     1
  0
DICTIONARY
  5
18CB
330
2
100
AcDbDictionary
280
     1
281
     1
  3
ACAD_LAYERSTATES
360
18CC
  0
DICTIONARY
  5
163E
330
163D
100
AcDbDictionary
280
     1
281
     1
  3
ADSK_XREC_LAYER_RECONCILED
360
163F
  0
DICTIONARY
  5
164B
330
164A
100
AcDbDictionary
280
     1
281
     1
  3
ADSK_XREC_LAYER_RECONCILED
360
164C
  0
DICTIONARY
  5
1B4B
330
A
100
AcDbDictionary
280
     1
281
     1
  3
ACAD_SORTENTS
360
1B4C
  0
DICTIONARY
  5
168B
330
168A
100
AcDbDictionary
280
     1
281
     1
  3
ACAD_SORTENTS
360
168C
  0
DICTIONARY
  5
1697
330
1696
100
AcDbDictionary
280
     1
281
     1
  3
ACAD_SORTENTS
360
1698
  0
DICTIONARY
  5
16A3
330
16A2
100
AcDbDictionary
280
     1
281
     1
  3
ACAD_SORTENTS
360
16A4
  0
DICTIONARY
  5
16AF
330
16AE
100
AcDbDictionary
280
     1
281
     1
  3
ACAD_SORTENTS
360
16B0
  0
DICTIONARY
  5
16C4
330
16C3
100
AcDbDictionary
280
     1
281
     1
  3
ACAD_SORTENTS
360
16C5
  0
DICTIONARY
  5
1BB7
330
190D
100
AcDbDictionary
280
     1
281
     1
  3
ACAD_XREC_ROUNDTRIP
360
1BB8
  0
DICTIONARY
  5
1910
330
190F
100
AcDbDictionary
280
     1
281
     1
  3
AcDbContextDataManager
360
1911
  0
DICTIONARY
  5
1914
330
1913
100
AcDbDictionary
280
     1
281
     1
  3
AcDbContextDataManager
360
1915
  0
DICTIONARY
  5
1918
330
1917
100
AcDbDictionary
280
     1
281
     1
  3
AcDbContextDataManager
360
1919
  0
DICTIONARY
  5
191C
330
191B
100
AcDbDictionary
280
     1
281
     1
  3
AcDbContextDataManager
360
191D
  0
DICTIONARY
  5
1920
330
191F
100
AcDbDictionary
280
     1
281
     1
  3
AcDbContextDataManager
360
1921
  0
DICTIONARY
  5
1924
330
1923
100
AcDbDictionary
280
     1
281
     1
  3
AcDbContextDataManager
360
1925
  0
DICTIONARY
  5
1929
330
1928
100
AcDbDictionary
280
     1
281
     1
  3
AcDbContextDataManager
360
192A
  0
DICTIONARY
  5
192D
330
192C
100
AcDbDictionary
280
     1
281
     1
  3
AcDbContextDataManager
360
192E
  0
DICTIONARY
  5
1931
330
1930
100
AcDbDictionary
280
     1
281
     1
  3
AcDbContextDataManager
360
1932
  0
DICTIONARY
  5
165D
102
{ACAD_REACTORS
330
19
102
}
330
19
100
AcDbDictionary
281
     1
  0
DICTIONARY
  5
1639
102
{ACAD_REACTORS
330
19
102
}
330
19
100
AcDbDictionary
281
     1
  0
FIELDLIST
  5
1BB6
102
{ACAD_REACTORS
330
19
102
}
330
19
100
AcDbIdSet
 90
        0
100
AcDbFieldList
  0
DICTIONARY
  5
1A
102
{ACAD_REACTORS
330
19
102
}
330
19
100
AcDbDictionary
281
     1
  0
RASTERVARIABLES
  5
163B
102
{ACAD_REACTORS
330
19
102
}
330
19
100
AcDbRasterVariables
 90
        0
 70
     1
 71
     1
 72
     0
  0
DICTIONARY
  5
15C8
102
{ACAD_REACTORS
330
19
102
}
330
19
100
AcDbDictionary
281
     1
  3
Model
350
15C9
  3
レイアウト1
350
15CA
  0
DICTIONARY
  5
15E4
102
{ACAD_REACTORS
330
19
102
}
330
19
100
AcDbDictionary
281
     1
  3
ByBlock
350
15E6
  3
ByLayer
350
15E5
  3
Global
350
15E7
  0
DICTIONARY
  5
15EA
102
{ACAD_REACTORS
330
19
102
}
330
19
100
AcDbDictionary
281
     1
  3
Standard
350
15EB
  0
DICTIONARY
  5
1B
102
{ACAD_REACTORS
330
19
102
}
330
19
100
AcDbDictionary
281
     1
  3
STANDARD
350
1C
  0
DICTIONARY
  5
15A3
102
{ACAD_REACTORS
330
19
102
}
330
19
100
AcDbDictionary
281
     1
  0
ACDBDICTIONARYWDFLT
  5
15A4
102
{ACAD_REACTORS
330
19
102
}
330
19
100
AcDbDictionary
281
     1
  3
Normal
350
15A5
100
AcDbDictionaryWithDefault
340
15A5
  0
DICTIONARY
  5
15A6
102
{ACAD_REACTORS
330
19
102
}
330
19
100
AcDbDictionary
281
     1
  3
A0
350
15A7
  3
A1
350
15A8
  3
A2
350
15A9
  3
A3
350
15AA
  3
A4
350
15AB
  3
A5
350
15AC
  3
A6
350
15AD
  3
A7
350
15AE
  3
A8
350
15AF
  3
A9
350
15B0
  3
B0
350
15B1
  3
B1
350
15B2
  3
B2
350
15B3
  3
B3
350
15B4
  3
B4
350
15B5
  3
B5
350
15B6
  3
B6
350
15B7
  3
B7
350
15B8
  3
B8
350
15B9
  3
B9
350
15BA
  3
C0
350
15BB
  3
C1
350
15BC
  3
C2
350
15BD
  3
C3
350
15BE
  3
C4
350
15BF
  3
C5
350
15C0
  3
C6
350
15C1
  3
C7
350
15C2
  3
C8
350
15C3
  3
C9
350
15C4
  3
D0
350
15C5
  3
D1
350
15C6
  3
D2
350
15C7
  0
DICTIONARY
  5
163A
102
{ACAD_REACTORS
330
19
102
}
330
19
100
AcDbDictionary
281
     1
  0
DICTIONARY
  5
15E8
102
{ACAD_REACTORS
330
19
102
}
330
19
100
AcDbDictionary
281
     1
  3
HISTORY_TABLE
350
1660
  3
Standard
350
15E9
  0
DICTIONARY
  5
15CB
102
{ACAD_REACTORS
330
19
102
}
330
19
100
AcDbDictionary
281
     1
  3
2dWireframe
350
15D0
  3
Basic
350
15D3
  3
Brighten
350
15D7
  3
ColorChange
350
15DB
  3
Conceptual
350
15D5
  3
Dim
350
15D6
  3
EdgeColorOff
350
15DE
  3
Facepattern
350
15DA
  3
Flat
350
15CC
  3
FlatWithEdges
350
15CD
  3
Gouraud
350
15CE
  3
GouraudWithEdges
350
15CF
  3
Hidden
350
15D2
  3
JitterOff
350
15DC
  3
Linepattern
350
15D9
  3
Modeling
350
15EC
  3
OverhangOff
350
15DD
  3
Realistic
350
15D4
  3
Shaded
350
15E3
  3
Shaded with edges
350
15E2
  3
Shades of Gray
350
15DF
  3
Sketchy
350
15E0
  3
Thicken
350
15D8
  3
Wireframe
350
15D1
  3
X-Ray
350
15E1
  0
XRECORD
  5
1BBD
102
{ACAD_REACTORS
330
19
102
}
330
19
100
AcDbXrecord
280
     1
 90
        1
330
15E9
330
1660
330
190D
  0
DICTIONARY
  5
15F4
102
{ACAD_REACTORS
330
19
102
}
330
19
100
AcDbDictionary
281
     1
  3
CANNOSCALE
350
15F5
  3
CMLEADERSTYLE
350
1637
  3
CTABLESTYLE
350
1636
  3
MSLTSCALE
350
1638
  3
XCLIPFRAME
350
15F6
  0
DICTIONARY
  5
18CC
102
{ACAD_REACTORS
330
18CB
102
}
330
18CB
100
AcDbDictionary
281
     1
  0
XRECORD
  5
163F
102
{ACAD_REACTORS
330
163E
102
}
330
163E
100
AcDbXrecord
280
     1
290
     1
  0
XRECORD
  5
164C
102
{ACAD_REACTORS
330
164B
102
}
330
164B
100
AcDbXrecord
280
     1
290
     1
  0
SORTENTSTABLE
  5
1B4C
102
{ACAD_REACTORS
330
1B4B
102
}
330
1B4B
100
AcDbSortentsTable
330
A
  0
SORTENTSTABLE
  5
168C
102
{ACAD_REACTORS
330
168B
102
}
330
168B
100
AcDbSortentsTable
330
168A
331
168E
  5
168F
331
168F
  5
168E
  0
SORTENTSTABLE
  5
1698
102
{ACAD_REACTORS
330
1697
102
}
330
1697
100
AcDbSortentsTable
330
1696
331
169A
  5
169B
331
169B
  5
169A
  0
SORTENTSTABLE
  5
16A4
102
{ACAD_REACTORS
330
16A3
102
}
330
16A3
100
AcDbSortentsTable
330
16A2
331
16A6
  5
16A7
331
16A7
  5
16A6
  0
SORTENTSTABLE
  5
16B0
102
{ACAD_REACTORS
330
16AF
102
}
330
16AF
100
AcDbSortentsTable
330
16AE
331
16B2
  5
16B3
331
16B3
  5
16B2
  0
SORTENTSTABLE
  5
16C5
102
{ACAD_REACTORS
330
16C4
102
}
330
16C4
100
AcDbSortentsTable
330
16C3
331
16C7
  5
16F3
331
16C8
  5
16F2
331
16C9
  5
16F1
331
16CA
  5
16F0
331
16CB
  5
16EF
331
16CC
  5
16EE
331
16CD
  5
16ED
331
16CE
  5
16EC
331
16CF
  5
16EB
331
16D0
  5
16EA
331
16D1
  5
16E9
331
16D2
  5
16E8
331
16D3
  5
16E7
331
16D4
  5
16E6
331
16D5
  5
16E5
331
16D6
  5
16E4
331
16D7
  5
16E3
331
16D8
  5
16E2
331
16D9
  5
16E1
331
16DA
  5
16E0
331
16DB
  5
16DF
331
16DC
  5
16DE
331
16DE
  5
16DC
331
16DF
  5
16DB
331
16E0
  5
16DA
331
16E1
  5
16D9
331
16E2
  5
16D8
331
16E3
  5
16D7
331
16E4
  5
16D6
331
16E5
  5
16D5
331
16E6
  5
16D4
331
16E7
  5
16D3
331
16E8
  5
16D2
331
16E9
  5
16D1
331
16EA
  5
16D0
331
16EB
  5
16CF
331
16EC
  5
16CE
331
16ED
  5
16CD
331
16EE
  5
16CC
331
16EF
  5
16CB
331
16F0
  5
16CA
331
16F1
  5
16C9
331
16F2
  5
16C8
331
16F3
  5
16C7
  0
XRECORD
  5
1BB8
102
{ACAD_REACTORS
330
1BB7
102
}
330
1BB7
100
AcDbXrecord
280
     1
102
ACAD_ROUNDTRIP_2008_TABLE_ENTITY
360
1BB4
 70
     2
 90
        1
 10
0.0
 20
0.0
 30
0.0
 90
        0
 90
        4
361
1BB5
  0
DICTIONARY
  5
1911
102
{ACAD_REACTORS
330
1910
102
}
330
1910
100
AcDbDictionary
281
     1
  3
ACDB_ANNOTATIONSCALES
350
1912
  0
DICTIONARY
  5
1915
102
{ACAD_REACTORS
330
1914
102
}
330
1914
100
AcDbDictionary
281
     1
  3
ACDB_ANNOTATIONSCALES
350
1916
  0
DICTIONARY
  5
1919
102
{ACAD_REACTORS
330
1918
102
}
330
1918
100
AcDbDictionary
281
     1
  3
ACDB_ANNOTATIONSCALES
350
191A
  0
DICTIONARY
  5
191D
102
{ACAD_REACTORS
330
191C
102
}
330
191C
100
AcDbDictionary
281
     1
  3
ACDB_ANNOTATIONSCALES
350
191E
  0
DICTIONARY
  5
1921
102
{ACAD_REACTORS
330
1920
102
}
330
1920
100
AcDbDictionary
281
     1
  3
ACDB_ANNOTATIONSCALES
350
1922
  0
DICTIONARY
  5
1925
102
{ACAD_REACTORS
330
1924
102
}
330
1924
100
AcDbDictionary
281
     1
  3
ACDB_ANNOTATIONSCALES
350
1926
  0
DICTIONARY
  5
192A
102
{ACAD_REACTORS
330
1929
102
}
330
1929
100
AcDbDictionary
281
     1
  3
ACDB_ANNOTATIONSCALES
350
192B
  0
DICTIONARY
  5
192E
102
{ACAD_REACTORS
330
192D
102
}
330
192D
100
AcDbDictionary
281
     1
  3
ACDB_ANNOTATIONSCALES
350
192F
  0
DICTIONARY
  5
1932
102
{ACAD_REACTORS
330
1931
102
}
330
1931
100
AcDbDictionary
281
     1
  3
ACDB_ANNOTATIONSCALES
350
1933
  0
LAYOUT
  5
15C9
102
{ACAD_REACTORS
330
15C8
102
}
330
15C8
100
AcDbPlotSettings
  1

  2
none_device
  4
Letter_(8.50_x_11.00_Inches)
  6

 40
6.35
 41
6.35
 42
6.35000508
 43
6.35000508
 44
215.9
 45
279.4
 46
0.0
 47
0.0
 48
0.0
 49
0.0
140
0.0
141
0.0
142
1.0
143
28.28571482449
 70
  1712
 72
     0
 73
     0
 74
     0
  7

 75
     0
 76
     0
 77
     2
 78
   300
147
0.03535353468
148
-958.8054484
149
0.0
100
AcDbLayout
  1
Model
 70
     1
 71
     0
 10
0.0
 20
0.0
 11
420.0
 21
297.0
 12
0.0
 22
0.0
 32
0.0
 14
0.0
 24
0.0
 34
0.0
 15
1680.0
 25
1188.0
 35
0.0
146
0.0
 13
0.0
 23
0.0
 33
0.0
 16
1.0
 26
0.0
 36
0.0
 17
0.0
 27
1.0
 37
0.0
 76
     0
330
A
331
15
  0
LAYOUT
  5
15CA
102
{ACAD_REACTORS
330
15C8
102
}
330
15C8
100
AcDbPlotSettings
  1

  2
none_device
  4

  6

 40
0.0
 41
0.0
 42
0.0
 43
0.0
 44
0.0
 45
0.0
 46
0.0
 47
0.0
 48
0.0
 49
0.0
140
0.0
141
0.0
142
1.0
143
1.0
 70
   688
 72
     0
 73
     0
 74
     5
  7

 75
    16
 76
     0
 77
     2
 78
   300
147
1.0
148
0.0
149
0.0
100
AcDbLayout
  1
レイアウト1
 70
     0
 71
     1
 10
0.0
 20
0.0
 11
12.0
 21
9.0
 12
0.0
 22
0.0
 32
0.0
 14
1.000000000000E+20
 24
1.000000000000E+20
 34
1.000000000000E+20
 15
-1.000000000000E+20
 25
-1.000000000000E+20
 35
-1.000000000000E+20
146
0.0
 13
0.0
 23
0.0
 33
0.0
 16
1.0
 26
0.0
 36
0.0
 17
0.0
 27
1.0
 37
0.0
 76
     0
330
B
331
1D
  0
MATERIAL
  5
15E6
102
{ACAD_REACTORS
330
15E4
102
}
330
15E4
100
AcDbMaterial
  1
ByBlock
 72
     1
 94
      127
  0
MATERIAL
  5
15E5
102
{ACAD_REACTORS
330
15E4
102
}
330
15E4
100
AcDbMaterial
  1
ByLayer
 72
     1
 94
      127
  0
MATERIAL
  5
15E7
102
{ACAD_REACTORS
330
15E4
102
}
330
15E4
100
AcDbMaterial
  1
Global
 72
     1
 94
      127
  0
MLEADERSTYLE
  5
15EB
102
{ACAD_REACTORS
330
15EA
102
}
330
15EA
100
AcDbMLeaderStyle
179
     2
170
     2
171
     1
172
     0
 90
        2
 40
0.0
 41
0.0
173
     1
 91
-1056964608
340
11
 92
       -2
290
     1
 42
0.09
291
     1
 43
0.36
  3
Standard
341
0
 44
0.18
300

342
17
174
     1
178
     6
175
     1
176
     0
 93
-1056964608
 45
0.18
292
     0
297
     0
 46
0.18
343
0
 94
-1056964608
 47
1.0
 49
1.0
140
1.0
293
     1
141
0.0
294
     1
177
     0
142
1.0
295
     0
296
     0
143
0.125
271
     0
272
     9
273
     9
298
     0
  0
MLINESTYLE
  5
1C
102
{ACAD_REACTORS
330
1B
102
}
330
1B
100
AcDbMlineStyle
  2
STANDARD
 70
     0
  3

 62
     0
 51
90.0
 52
90.0
 71
     2
 49
0.5
 62
   256
  6
BYLAYER
 49
-0.5
 62
   256
  6
BYLAYER
  0
ACDBPLACEHOLDER
  5
15A5
102
{ACAD_REACTORS
330
15A4
102
}
330
15A4
  0
SCALE
  5
15A7
102
{ACAD_REACTORS
330
15A6
102
}
330
15A6
100
AcDbScale
 70
     0
300
1:1
140
1.0
141
1.0
290
     1
  0
SCALE
  5
15A8
102
{ACAD_REACTORS
330
15A6
102
}
330
15A6
100
AcDbScale
 70
     0
300
1:2
140
1.0
141
2.0
290
     0
  0
SCALE
  5
15A9
102
{ACAD_REACTORS
330
15A6
102
}
330
15A6
100
AcDbScale
 70
     0
300
1:4
140
1.0
141
4.0
290
     0
  0
SCALE
  5
15AA
102
{ACAD_REACTORS
330
15A6
102
}
330
15A6
100
AcDbScale
 70
     0
300
1:5
140
1.0
141
5.0
290
     0
  0
SCALE
  5
15AB
102
{ACAD_REACTORS
330
15A6
102
}
330
15A6
100
AcDbScale
 70
     0
300
1:8
140
1.0
141
8.0
290
     0
  0
SCALE
  5
15AC
102
{ACAD_REACTORS
330
15A6
102
}
330
15A6
100
AcDbScale
 70
     0
300
1:10
140
1.0
141
10.0
290
     0
  0
SCALE
  5
15AD
102
{ACAD_REACTORS
330
15A6
102
}
330
15A6
100
AcDbScale
 70
     0
300
1:16
140
1.0
141
16.0
290
     0
  0
SCALE
  5
15AE
102
{ACAD_REACTORS
330
15A6
102
}
330
15A6
100
AcDbScale
 70
     0
300
1:20
140
1.0
141
20.0
290
     0
  0
SCALE
  5
15AF
102
{ACAD_REACTORS
330
15A6
102
}
330
15A6
100
AcDbScale
 70
     0
300
1:30
140
1.0
141
30.0
290
     0
  0
SCALE
  5
15B0
102
{ACAD_REACTORS
330
15A6
102
}
330
15A6
100
AcDbScale
 70
     0
300
1:40
140
1.0
141
40.0
290
     0
  0
SCALE
  5
15B1
102
{ACAD_REACTORS
330
15A6
102
}
330
15A6
100
AcDbScale
 70
     0
300
1:50
140
1.0
141
50.0
290
     0
  0
SCALE
  5
15B2
102
{ACAD_REACTORS
330
15A6
102
}
330
15A6
100
AcDbScale
 70
     0
300
1:100
140
1.0
141
100.0
290
     0
  0
SCALE
  5
15B3
102
{ACAD_REACTORS
330
15A6
102
}
330
15A6
100
AcDbScale
 70
     0
300
2:1
140
2.0
141
1.0
290
     0
  0
SCALE
  5
15B4
102
{ACAD_REACTORS
330
15A6
102
}
330
15A6
100
AcDbScale
 70
     0
300
4:1
140
4.0
141
1.0
290
     0
  0
SCALE
  5
15B5
102
{ACAD_REACTORS
330
15A6
102
}
330
15A6
100
AcDbScale
 70
     0
300
8:1
140
8.0
141
1.0
290
     0
  0
SCALE
  5
15B6
102
{ACAD_REACTORS
330
15A6
102
}
330
15A6
100
AcDbScale
 70
     0
300
10:1
140
10.0
141
1.0
290
     0
  0
SCALE
  5
15B7
102
{ACAD_REACTORS
330
15A6
102
}
330
15A6
100
AcDbScale
 70
     0
300
100:1
140
100.0
141
1.0
290
     0
  0
SCALE
  5
15B8
102
{ACAD_REACTORS
330
15A6
102
}
330
15A6
100
AcDbScale
 70
     0
300
1/128" = 1'-0"
140
0.0078125
141
12.0
290
     0
  0
SCALE
  5
15B9
102
{ACAD_REACTORS
330
15A6
102
}
330
15A6
100
AcDbScale
 70
     0
300
1/64" = 1'-0"
140
0.015625
141
12.0
290
     0
  0
SCALE
  5
15BA
102
{ACAD_REACTORS
330
15A6
102
}
330
15A6
100
AcDbScale
 70
     0
300
1/32" = 1'-0"
140
0.03125
141
12.0
290
     0
  0
SCALE
  5
15BB
102
{ACAD_REACTORS
330
15A6
102
}
330
15A6
100
AcDbScale
 70
     0
300
1/16" = 1'-0"
140
0.0625
141
12.0
290
     0
  0
SCALE
  5
15BC
102
{ACAD_REACTORS
330
15A6
102
}
330
15A6
100
AcDbScale
 70
     0
300
3/32" = 1'-0"
140
0.09375
141
12.0
290
     0
  0
SCALE
  5
15BD
102
{ACAD_REACTORS
330
15A6
102
}
330
15A6
100
AcDbScale
 70
     0
300
1/8" = 1'-0"
140
0.125
141
12.0
290
     0
  0
SCALE
  5
15BE
102
{ACAD_REACTORS
330
15A6
102
}
330
15A6
100
AcDbScale
 70
     0
300
3/16" = 1'-0"
140
0.1875
141
12.0
290
     0
  0
SCALE
  5
15BF
102
{ACAD_REACTORS
330
15A6
102
}
330
15A6
100
AcDbScale
 70
     0
300
1/4" = 1'-0"
140
0.25
141
12.0
290
     0
  0
SCALE
  5
15C0
102
{ACAD_REACTORS
330
15A6
102
}
330
15A6
100
AcDbScale
 70
     0
300
3/8" = 1'-0"
140
0.375
141
12.0
290
     0
  0
SCALE
  5
15C1
102
{ACAD_REACTORS
330
15A6
102
}
330
15A6
100
AcDbScale
 70
     0
300
1/2" = 1'-0"
140
0.5
141
12.0
290
     0
  0
SCALE
  5
15C2
102
{ACAD_REACTORS
330
15A6
102
}
330
15A6
100
AcDbScale
 70
     0
300
3/4" = 1'-0"
140
0.75
141
12.0
290
     0
  0
SCALE
  5
15C3
102
{ACAD_REACTORS
330
15A6
102
}
330
15A6
100
AcDbScale
 70
     0
300
1" = 1'-0"
140
1.0
141
12.0
290
     0
  0
SCALE
  5
15C4
102
{ACAD_REACTORS
330
15A6
102
}
330
15A6
100
AcDbScale
 70
     0
300
1-1/2" = 1'-0"
140
1.5
141
12.0
290
     0
  0
SCALE
  5
15C5
102
{ACAD_REACTORS
330
15A6
102
}
330
15A6
100
AcDbScale
 70
     0
300
3" = 1'-0"
140
3.0
141
12.0
290
     0
  0
SCALE
  5
15C6
102
{ACAD_REACTORS
330
15A6
102
}
330
15A6
100
AcDbScale
 70
     0
300
6" = 1'-0"
140
6.0
141
12.0
290
     0
  0
SCALE
  5
15C7
102
{ACAD_REACTORS
330
15A6
102
}
330
15A6
100
AcDbScale
 70
     0
300
1'-0" = 1'-0"
140
12.0
141
12.0
290
     0
  0
TABLESTYLE
  5
1660
102
{ACAD_REACTORS
330
15E8
330
190D
102
}
102
{ACAD_XDICTIONARY
360
1BBB
102
}
330
15E8
100
AcDbTableStyle
  3

 70
     1
 71
     0
 40
1.5
 41
1.5
280
     0
281
     0
  7
ＭＳ ゴシック
140
6.0
170
     2
 62
     0
 63
   257
283
     0
 90
        4
 91
        0
  1

274
    -2
284
     1
 64
     0
275
    -2
285
     1
 65
     0
276
    -2
286
     1
 66
     0
277
    -2
287
     1
 67
     0
278
    -2
288
     1
 68
     0
279
    -2
289
     1
 69
     0
  7
ＭＳ ゴシック
140
1.0
170
     5
 62
     0
 63
   257
283
     0
 90
        4
 91
        0
  1

274
    -2
284
     1
 64
     0
275
    -2
285
     1
 65
     0
276
    -2
286
     1
 66
     0
277
    -2
287
     1
 67
     0
278
    -2
288
     1
 68
     0
279
    -2
289
     1
 69
     0
  7
ＭＳ ゴシック
140
6.0
170
     5
 62
     0
 63
   257
283
     0
 90
        4
 91
        0
  1

274
    -2
284
     1
 64
     0
275
    -2
285
     1
 65
     0
276
    -2
286
     1
 66
     0
277
    -2
287
     1
 67
     0
278
    -2
288
     1
 68
     0
279
    -2
289
     1
 69
     0
  0
TABLESTYLE
  5
15E9
102
{ACAD_REACTORS
330
15E8
102
}
102
{ACAD_XDICTIONARY
360
1BB9
102
}
330
15E8
100
AcDbTableStyle
  3
Standard
 70
     0
 71
     0
 40
0.06
 41
0.06
280
     0
281
     0
  7
STANDARD
140
0.18
170
     2
 62
     0
 63
   257
283
     0
 90
        4
 91
        0
  1

274
    -2
284
     1
 64
     0
275
    -2
285
     1
 65
     0
276
    -2
286
     1
 66
     0
277
    -2
287
     1
 67
     0
278
    -2
288
     1
 68
     0
279
    -2
289
     1
 69
     0
  7
STANDARD
140
0.25
170
     5
 62
     0
 63
   257
283
     0
 90
        4
 91
        0
  1

274
    -2
284
     1
 64
     0
275
    -2
285
     1
 65
     0
276
    -2
286
     1
 66
     0
277
    -2
287
     1
 67
     0
278
    -2
288
     1
 68
     0
279
    -2
289
     1
 69
     0
  7
STANDARD
140
0.18
170
     5
 62
     0
 63
   257
283
     0
 90
        4
 91
        0
  1

274
    -2
284
     1
 64
     0
275
    -2
285
     1
 65
     0
276
    -2
286
     1
 66
     0
277
    -2
287
     1
 67
     0
278
    -2
288
     1
 68
     0
279
    -2
289
     1
 69
     0
  0
VISUALSTYLE
  5
15D0
102
{ACAD_REACTORS
330
15CB
102
}
330
15CB
100
AcDbVisualStyle
  2
2dWireframe
 70
     4
177
     3
291
     0
 70
    58
 90
        0
176
     1
 90
        2
176
     1
 90
        0
176
     1
 90
        0
176
     1
 40
0.6
176
     1
 40
30.0
176
     1
 62
     7
420
 16777215
176
     1
 90
        1
176
     1
 90
        4
176
     1
 62
     7
176
     1
 62
   257
176
     1
 90
        1
176
     1
 90
        1
176
     1
 40
1.0
176
     1
 90
        0
176
     1
 62
   257
176
     1
 40
1.0
176
     1
 90
        1
176
     1
 90
        6
176
     1
 90
        2
176
     1
 62
     7
176
     1
 90
        5
176
     1
 90
        0
176
     1
 90
        0
176
     1
290
     0
176
     1
 90
        1
176
     1
 40
0.0
176
     1
 90
        0
176
     1
290
     1
176
     1
290
     1
176
     1
290
     0
176
     1
290
     0
176
     1
290
     0
176
     1
290
     0
176
     1
290
     0
176
     1
290
     0
176
     1
290
     0
176
     1
 90
       50
176
     1
 40
0.0
176
     1
 40
1.0
176
     1
 90
        0
176
     1
 62
    18
420
        0
176
     1
 90
       50
176
     1
 90
        3
176
     1
 62
     5
420
      255
176
     1
290
     0
176
     1
 90
       50
176
     1
 90
       50
176
     1
 90
       50
176
     1
290
     0
176
     1
 90
       50
176
     1
 62
   256
176
     0
 40
1.0
176
     0
 90
        2
176
     1
  1
strokes_ogs.tif
176
     1
290
     0
176
     1
 40
1.0
176
     1
 40
1.0
176
     1
  0
VISUALSTYLE
  5
15D3
102
{ACAD_REACTORS
330
15CB
102
}
330
15CB
100
AcDbVisualStyle
  2
Basic
 70
     7
177
     3
291
     1
 70
    58
 90
        1
176
     1
 90
        0
176
     1
 90
        1
176
     1
 90
        0
176
     1
 40
0.6
176
     1
 40
30.0
176
     1
 62
     7
420
 16777215
176
     1
 90
        0
176
     1
 90
        4
176
     1
 62
     7
176
     1
 62
   257
176
     1
 90
        1
176
     1
 90
        1
176
     1
 40
1.0
176
     1
 90
        8
176
     1
 62
     7
176
     1
 40
1.0
176
     1
 90
        1
176
     1
 90
        6
176
     1
 90
        2
176
     1
 62
     7
176
     1
 90
        5
176
     1
 90
        0
176
     1
 90
        0
176
     1
290
     0
176
     1
 90
        1
176
     1
 40
0.0
176
     1
 90
        0
176
     1
290
     0
176
     1
290
     1
176
     1
290
     1
176
     1
290
     0
176
     1
290
     0
176
     1
290
     0
176
     1
290
     0
176
     1
290
     0
176
     1
290
     0
176
     1
 90
       50
176
     1
 40
0.0
176
     1
 40
1.0
176
     1
 90
        0
176
     1
 62
    18
420
        0
176
     1
 90
       50
176
     1
 90
        3
176
     1
 62
     5
420
      255
176
     1
290
     0
176
     1
 90
       50
176
     1
 90
       50
176
     1
 90
       50
176
     1
290
     0
176
     1
 90
       50
176
     1
 62
   256
176
     0
 40
1.0
176
     0
 90
        2
176
     1
  1
strokes_ogs.tif
176
     1
290
     0
176
     1
 40
1.0
176
     1
 40
1.0
176
     1
  0
VISUALSTYLE
  5
15D7
102
{ACAD_REACTORS
330
15CB
102
}
330
15CB
100
AcDbVisualStyle
  2
Brighten
 70
    12
177
     3
291
     1
 70
    58
 90
        2
176
     1
 90
        2
176
     1
 90
        0
176
     1
 90
        0
176
     1
 40
0.6
176
     1
 40
30.0
176
     1
 62
     7
420
 16777215
176
     1
 90
        1
176
     1
 90
        4
176
     1
 62
     7
176
     1
 62
   257
176
     1
 90
        1
176
     1
 90
        1
176
     1
 40
1.0
176
     1
 90
        8
176
     1
 62
     7
176
     1
 40
1.0
176
     1
 90
        1
176
     1
 90
        6
176
     1
 90
        2
176
     1
 62
     7
176
     1
 90
        5
176
     1
 90
        0
176
     1
 90
        0
176
     1
290
     0
176
     1
 90
        1
176
     1
 40
50.0
176
     1
 90
        0
176
     1
290
     0
176
     1
290
     1
176
     1
290
     1
176
     1
290
     0
176
     1
290
     0
176
     1
290
     0
176
     1
290
     0
176
     1
290
     0
176
     1
290
     0
176
     1
 90
       50
176
     1
 40
0.0
176
     1
 40
1.0
176
     1
 90
        0
176
     1
 62
    18
420
        0
176
     1
 90
       50
176
     1
 90
        3
176
     1
 62
     5
420
      255
176
     1
290
     0
176
     1
 90
       50
176
     1
 90
       50
176
     1
 90
       50
176
     1
290
     0
176
     1
 90
       50
176
     1
 62
   256
176
     0
 40
1.0
176
     0
 90
        2
176
     1
  1
strokes_ogs.tif
176
     1
290
     0
176
     1
 40
1.0
176
     1
 40
1.0
176
     1
  0
VISUALSTYLE
  5
15DB
102
{ACAD_REACTORS
330
15CB
102
}
330
15CB
100
AcDbVisualStyle
  2
ColorChange
 70
    16
177
     3
291
     1
 70
    58
 90
        2
176
     1
 90
        2
176
     1
 90
        3
176
     1
 90
        0
176
     1
 40
0.6
176
     1
 40
30.0
176
     1
 62
     8
420
  8421504
176
     1
 90
        1
176
     1
 90
        4
176
     1
 62
     7
176
     1
 62
   257
176
     1
 90
        1
176
     1
 90
        1
176
     1
 40
1.0
176
     1
 90
        8
176
     1
 62
     8
420
  8421504
176
     1
 40
1.0
176
     1
 90
        1
176
     1
 90
        6
176
     1
 90
        2
176
     1
 62
     7
176
     1
 90
        5
176
     1
 90
        0
176
     1
 90
        0
176
     1
290
     0
176
     1
 90
        1
176
     1
 40
0.0
176
     1
 90
        0
176
     1
290
     0
176
     1
290
     1
176
     1
290
     1
176
     1
290
     0
176
     1
290
     0
176
     1
290
     0
176
     1
290
     0
176
     1
290
     0
176
     1
290
     0
176
     1
 90
       50
176
     1
 40
0.0
176
     1
 40
1.0
176
     1
 90
        0
176
     1
 62
    18
420
        0
176
     1
 90
       50
176
     1
 90
        3
176
     1
 62
     5
420
      255
176
     1
290
     0
176
     1
 90
       50
176
     1
 90
       50
176
     1
 90
       50
176
     1
290
     0
176
     1
 90
       50
176
     1
 62
   256
176
     0
 40
1.0
176
     0
 90
        2
176
     1
  1
strokes_ogs.tif
176
     1
290
     0
176
     1
 40
1.0
176
     1
 40
1.0
176
     1
  0
VISUALSTYLE
  5
15D5
102
{ACAD_REACTORS
330
15CB
102
}
330
15CB
100
AcDbVisualStyle
  2
Conceptual
 70
     9
177
     3
291
     0
 70
    58
 90
        3
176
     1
 90
        2
176
     1
 90
        0
176
     1
 90
        0
176
     1
 40
0.6
176
     1
 40
30.0
176
     1
 62
     7
420
 16777215
176
     1
 90
        2
176
     1
 90
        2
176
     1
 62
     7
176
     1
 62
   257
176
     1
 90
        1
176
     1
 90
        1
176
     1
 40
179.0
176
     1
 90
        8
176
     1
 62
     7
176
     1
 40
1.0
176
     1
 90
        1
176
     1
 90
        6
176
     1
 90
        2
176
     1
 62
     7
176
     1
 90
        3
176
     1
 90
        0
176
     1
 90
        0
176
     1
290
     0
176
     1
 90
        1
176
     1
 40
0.0
176
     1
 90
        0
176
     1
290
     0
176
     1
290
     1
176
     1
290
     1
176
     1
290
     0
176
     1
290
     0
176
     1
290
     0
176
     1
290
     0
176
     1
290
     0
176
     1
290
     0
176
     1
 90
       50
176
     1
 40
0.0
176
     1
 40
1.0
176
     1
 90
        0
176
     1
 62
    18
420
        0
176
     1
 90
       50
176
     1
 90
        3
176
     1
 62
     5
420
      255
176
     1
290
     0
176
     1
 90
       50
176
     1
 90
       50
176
     1
 90
       50
176
     1
290
     0
176
     1
 90
       50
176
     1
 62
   256
176
     0
 40
1.0
176
     0
 90
        2
176
     1
  1
strokes_ogs.tif
176
     1
290
     0
176
     1
 40
1.0
176
     1
 40
1.0
176
     1
  0
VISUALSTYLE
  5
15D6
102
{ACAD_REACTORS
330
15CB
102
}
330
15CB
100
AcDbVisualStyle
  2
Dim
 70
    11
177
     3
291
     1
 70
    58
 90
        2
176
     1
 90
        2
176
     1
 90
        0
176
     1
 90
        0
176
     1
 40
0.6
176
     1
 40
30.0
176
     1
 62
     7
420
 16777215
176
     1
 90
        1
176
     1
 90
        4
176
     1
 62
     7
176
     1
 62
   257
176
     1
 90
        1
176
     1
 90
        1
176
     1
 40
1.0
176
     1
 90
        8
176
     1
 62
     7
176
     1
 40
1.0
176
     1
 90
        1
176
     1
 90
        6
176
     1
 90
        2
176
     1
 62
     7
176
     1
 90
        5
176
     1
 90
        0
176
     1
 90
        0
176
     1
290
     0
176
     1
 90
        1
176
     1
 40
-50.0
176
     1
 90
        0
176
     1
290
     0
176
     1
290
     1
176
     1
290
     1
176
     1
290
     0
176
     1
290
     0
176
     1
290
     0
176
     1
290
     0
176
     1
290
     0
176
     1
290
     0
176
     1
 90
       50
176
     1
 40
0.0
176
     1
 40
1.0
176
     1
 90
        0
176
     1
 62
    18
420
        0
176
     1
 90
       50
176
     1
 90
        3
176
     1
 62
     5
420
      255
176
     1
290
     0
176
     1
 90
       50
176
     1
 90
       50
176
     1
 90
       50
176
     1
290
     0
176
     1
 90
       50
176
     1
 62
   256
176
     0
 40
1.0
176
     0
 90
        2
176
     1
  1
strokes_ogs.tif
176
     1
290
     0
176
     1
 40
1.0
176
     1
 40
1.0
176
     1
  0
VISUALSTYLE
  5
15DE
102
{ACAD_REACTORS
330
15CB
102
}
330
15CB
100
AcDbVisualStyle
  2
EdgeColorOff
 70
    22
177
     3
291
     1
 70
    58
 90
        2
176
     0
 90
        2
176
     0
 90
        0
176
     0
 90
        0
176
     0
 40
0.6
176
     0
 40
30.0
176
     0
 62
     7
420
 16777215
176
     0
 90
        1
176
     0
 90
        4
176
     0
 62
     7
176
     0
 62
   257
176
     0
 90
        1
176
     0
 90
        1
176
     0
 40
1.0
176
     0
 90
        8
176
     2
 62
     7
176
     0
 40
1.0
176
     0
 90
        1
176
     0
 90
        6
176
     0
 90
        2
176
     0
 62
     7
176
     0
 90
        5
176
     0
 90
        0
176
     0
 90
        0
176
     0
290
     0
176
     0
 90
        1
176
     0
 40
0.0
176
     0
 90
        0
176
     0
290
     0
176
     0
290
     1
176
     0
290
     1
176
     0
290
     0
176
     0
290
     0
176
     0
290
     0
176
     0
290
     0
176
     0
290
     0
176
     0
290
     0
176
     0
 90
       50
176
     0
 40
0.0
176
     0
 40
1.0
176
     0
 90
        0
176
     0
 62
    18
420
        0
176
     0
 90
       50
176
     0
 90
        3
176
     0
 62
     5
420
      255
176
     0
290
     0
176
     0
 90
       50
176
     0
 90
       50
176
     0
 90
       50
176
     0
290
     0
176
     0
 90
       50
176
     0
 62
   256
176
     0
 40
1.0
176
     0
 90
        2
176
     0
  1
strokes_ogs.tif
176
     0
290
     0
176
     0
 40
1.0
176
     0
 40
1.0
176
     0
  0
VISUALSTYLE
  5
15DA
102
{ACAD_REACTORS
330
15CB
102
}
330
15CB
100
AcDbVisualStyle
  2
Facepattern
 70
    15
177
     3
291
     1
 70
    58
 90
        2
176
     1
 90
        2
176
     1
 90
        0
176
     1
 90
        0
176
     1
 40
0.6
176
     1
 40
30.0
176
     1
 62
     7
420
 16777215
176
     1
 90
        1
176
     1
 90
        4
176
     1
 62
     7
176
     1
 62
   257
176
     1
 90
        1
176
     1
 90
        1
176
     1
 40
1.0
176
     1
 90
        8
176
     1
 62
     7
176
     1
 40
1.0
176
     1
 90
        1
176
     1
 90
        6
176
     1
 90
        2
176
     1
 62
     7
176
     1
 90
        5
176
     1
 90
        0
176
     1
 90
        0
176
     1
290
     0
176
     1
 90
        1
176
     1
 40
0.0
176
     1
 90
        0
176
     1
290
     0
176
     1
290
     1
176
     1
290
     1
176
     1
290
     0
176
     1
290
     0
176
     1
290
     0
176
     1
290
     0
176
     1
290
     0
176
     1
290
     0
176
     1
 90
       50
176
     1
 40
0.0
176
     1
 40
1.0
176
     1
 90
        0
176
     1
 62
    18
420
        0
176
     1
 90
       50
176
     1
 90
        3
176
     1
 62
     5
420
      255
176
     1
290
     0
176
     1
 90
       50
176
     1
 90
       50
176
     1
 90
       50
176
     1
290
     0
176
     1
 90
       50
176
     1
 62
   256
176
     0
 40
1.0
176
     0
 90
        2
176
     1
  1
strokes_ogs.tif
176
     1
290
     0
176
     1
 40
1.0
176
     1
 40
1.0
176
     1
  0
VISUALSTYLE
  5
15CC
102
{ACAD_REACTORS
330
15CB
102
}
330
15CB
100
AcDbVisualStyle
  2
Flat
 70
     0
177
     3
291
     1
 70
    58
 90
        2
176
     1
 90
        1
176
     1
 90
        1
176
     1
 90
        2
176
     1
 40
0.6
176
     1
 40
30.0
176
     1
 62
     7
420
 16777215
176
     1
 90
        0
176
     1
 90
        0
176
     1
 62
     7
176
     1
 62
   257
176
     1
 90
        1
176
     1
 90
        1
176
     1
 40
1.0
176
     1
 90
        8
176
     1
 62
     7
176
     1
 40
1.0
176
     1
 90
        1
176
     1
 90
        6
176
     1
 90
        2
176
     1
 62
     7
176
     1
 90
        5
176
     1
 90
        0
176
     1
 90
        0
176
     1
290
     0
176
     1
 90
       13
176
     1
 40
0.0
176
     1
 90
        0
176
     1
290
     0
176
     1
290
     1
176
     1
290
     1
176
     1
290
     0
176
     1
290
     0
176
     1
290
     0
176
     1
290
     0
176
     1
290
     0
176
     1
290
     0
176
     1
 90
       50
176
     1
 40
0.0
176
     1
 40
1.0
176
     1
 90
        0
176
     1
 62
    18
420
        0
176
     1
 90
       50
176
     1
 90
        3
176
     1
 62
     5
420
      255
176
     1
290
     0
176
     1
 90
       50
176
     1
 90
       50
176
     1
 90
       50
176
     1
290
     0
176
     1
 90
       50
176
     1
 62
   256
176
     0
 40
1.0
176
     0
 90
        2
176
     1
  1
strokes_ogs.tif
176
     1
290
     0
176
     1
 40
1.0
176
     1
 40
1.0
176
     1
  0
VISUALSTYLE
  5
15CD
102
{ACAD_REACTORS
330
15CB
102
}
330
15CB
100
AcDbVisualStyle
  2
FlatWithEdges
 70
     1
177
     3
291
     1
 70
    58
 90
        2
176
     1
 90
        1
176
     1
 90
        1
176
     1
 90
        2
176
     1
 40
0.6
176
     1
 40
30.0
176
     1
 62
     7
420
 16777215
176
     1
 90
        1
176
     1
 90
        0
176
     1
 62
     7
176
     1
 62
   257
176
     1
 90
        1
176
     1
 90
        1
176
     1
 40
1.0
176
     1
 90
        0
176
     1
 62
   257
176
     1
 40
1.0
176
     1
 90
        1
176
     1
 90
        6
176
     1
 90
        2
176
     1
 62
     7
176
     1
 90
        5
176
     1
 90
        0
176
     1
 90
        0
176
     1
290
     0
176
     1
 90
       13
176
     1
 40
0.0
176
     1
 90
        0
176
     1
290
     0
176
     1
290
     1
176
     1
290
     1
176
     1
290
     0
176
     1
290
     0
176
     1
290
     0
176
     1
290
     0
176
     1
290
     0
176
     1
290
     0
176
     1
 90
       50
176
     1
 40
0.0
176
     1
 40
1.0
176
     1
 90
        0
176
     1
 62
    18
420
        0
176
     1
 90
       50
176
     1
 90
        3
176
     1
 62
     5
420
      255
176
     1
290
     0
176
     1
 90
       50
176
     1
 90
       50
176
     1
 90
       50
176
     1
290
     0
176
     1
 90
       50
176
     1
 62
   256
176
     0
 40
1.0
176
     0
 90
        2
176
     1
  1
strokes_ogs.tif
176
     1
290
     0
176
     1
 40
1.0
176
     1
 40
1.0
176
     1
  0
VISUALSTYLE
  5
15CE
102
{ACAD_REACTORS
330
15CB
102
}
330
15CB
100
AcDbVisualStyle
  2
Gouraud
 70
     2
177
     3
291
     1
 70
    58
 90
        2
176
     1
 90
        2
176
     1
 90
        1
176
     1
 90
        2
176
     1
 40
0.6
176
     1
 40
30.0
176
     1
 62
     7
420
 16777215
176
     1
 90
        0
176
     1
 90
        0
176
     1
 62
     7
176
     1
 62
   257
176
     1
 90
        1
176
     1
 90
        1
176
     1
 40
1.0
176
     1
 90
        0
176
     1
 62
     7
176
     1
 40
1.0
176
     1
 90
        1
176
     1
 90
        6
176
     1
 90
        2
176
     1
 62
     7
176
     1
 90
        5
176
     1
 90
        0
176
     1
 90
        0
176
     1
290
     0
176
     1
 90
       13
176
     1
 40
0.0
176
     1
 90
        0
176
     1
290
     0
176
     1
290
     1
176
     1
290
     1
176
     1
290
     0
176
     1
290
     0
176
     1
290
     0
176
     1
290
     0
176
     1
290
     0
176
     1
290
     0
176
     1
 90
       50
176
     1
 40
0.0
176
     1
 40
1.0
176
     1
 90
        0
176
     1
 62
    18
420
        0
176
     1
 90
       50
176
     1
 90
        3
176
     1
 62
     5
420
      255
176
     1
290
     0
176
     1
 90
       50
176
     1
 90
       50
176
     1
 90
       50
176
     1
290
     0
176
     1
 90
       50
176
     1
 62
   256
176
     0
 40
1.0
176
     0
 90
        2
176
     1
  1
strokes_ogs.tif
176
     1
290
     0
176
     1
 40
1.0
176
     1
 40
1.0
176
     1
  0
VISUALSTYLE
  5
15CF
102
{ACAD_REACTORS
330
15CB
102
}
330
15CB
100
AcDbVisualStyle
  2
GouraudWithEdges
 70
     3
177
     3
291
     1
 70
    58
 90
        2
176
     1
 90
        2
176
     1
 90
        1
176
     1
 90
        2
176
     1
 40
0.6
176
     1
 40
30.0
176
     1
 62
     7
420
 16777215
176
     1
 90
        1
176
     1
 90
        0
176
     1
 62
     7
176
     1
 62
   257
176
     1
 90
        1
176
     1
 90
        1
176
     1
 40
1.0
176
     1
 90
        0
176
     1
 62
   257
176
     1
 40
1.0
176
     1
 90
        1
176
     1
 90
        6
176
     1
 90
        2
176
     1
 62
     7
176
     1
 90
        5
176
     1
 90
        0
176
     1
 90
        0
176
     1
290
     0
176
     1
 90
       13
176
     1
 40
0.0
176
     1
 90
        0
176
     1
290
     0
176
     1
290
     1
176
     1
290
     1
176
     1
290
     0
176
     1
290
     0
176
     1
290
     0
176
     1
290
     0
176
     1
290
     0
176
     1
290
     0
176
     1
 90
       50
176
     1
 40
0.0
176
     1
 40
1.0
176
     1
 90
        0
176
     1
 62
    18
420
        0
176
     1
 90
       50
176
     1
 90
        3
176
     1
 62
     5
420
      255
176
     1
290
     0
176
     1
 90
       50
176
     1
 90
       50
176
     1
 90
       50
176
     1
290
     0
176
     1
 90
       50
176
     1
 62
   256
176
     0
 40
1.0
176
     0
 90
        2
176
     1
  1
strokes_ogs.tif
176
     1
290
     0
176
     1
 40
1.0
176
     1
 40
1.0
176
     1
  0
VISUALSTYLE
  5
15D2
102
{ACAD_REACTORS
330
15CB
102
}
330
15CB
100
AcDbVisualStyle
  2
Hidden
 70
     6
177
     3
291
     0
 70
    58
 90
        1
176
     1
 90
        2
176
     1
 90
        2
176
     1
 90
        0
176
     1
 40
0.6
176
     1
 40
30.0
176
     1
 62
     7
420
 16777215
176
     1
 90
        2
176
     1
 90
        2
176
     1
 62
     7
176
     1
 62
   257
176
     1
 90
        2
176
     1
 90
        1
176
     1
 40
40.0
176
     1
 90
        0
176
     1
 62
   257
176
     1
 40
1.0
176
     1
 90
        1
176
     1
 90
        6
176
     1
 90
        2
176
     1
 62
     7
176
     1
 90
        3
176
     1
 90
        0
176
     1
 90
        0
176
     1
290
     0
176
     1
 90
        1
176
     1
 40
0.0
176
     1
 90
        0
176
     1
290
     0
176
     1
290
     1
176
     1
290
     1
176
     1
290
     0
176
     1
290
     0
176
     1
290
     0
176
     1
290
     0
176
     1
290
     0
176
     1
290
     0
176
     1
 90
       50
176
     1
 40
0.0
176
     1
 40
1.0
176
     1
 90
        0
176
     1
 62
    18
420
        0
176
     1
 90
       50
176
     1
 90
        3
176
     1
 62
     5
420
      255
176
     1
290
     0
176
     1
 90
       50
176
     1
 90
       50
176
     1
 90
       50
176
     1
290
     0
176
     1
 90
       50
176
     1
 62
   256
176
     0
 40
1.0
176
     0
 90
        2
176
     1
  1
strokes_ogs.tif
176
     1
290
     0
176
     1
 40
1.0
176
     1
 40
1.0
176
     1
  0
VISUALSTYLE
  5
15DC
102
{ACAD_REACTORS
330
15CB
102
}
330
15CB
100
AcDbVisualStyle
  2
JitterOff
 70
    20
177
     3
291
     1
 70
    58
 90
        2
176
     0
 90
        2
176
     0
 90
        0
176
     0
 90
        0
176
     0
 40
0.6
176
     0
 40
30.0
176
     0
 62
     7
420
 16777215
176
     0
 90
        1
176
     0
 90
        4
176
     0
 62
     7
176
     0
 62
   257
176
     0
 90
        1
176
     0
 90
        1
176
     0
 40
1.0
176
     0
 90
       10
176
     2
 62
     7
176
     0
 40
1.0
176
     0
 90
        1
176
     0
 90
        6
176
     0
 90
        2
176
     0
 62
     7
176
     0
 90
        5
176
     0
 90
        0
176
     0
 90
        0
176
     0
290
     0
176
     0
 90
        1
176
     0
 40
0.0
176
     0
 90
        0
176
     0
290
     0
176
     0
290
     1
176
     0
290
     1
176
     0
290
     0
176
     0
290
     0
176
     0
290
     0
176
     0
290
     0
176
     0
290
     0
176
     0
290
     0
176
     0
 90
       50
176
     0
 40
0.0
176
     0
 40
1.0
176
     0
 90
        0
176
     0
 62
    18
420
        0
176
     0
 90
       50
176
     0
 90
        3
176
     0
 62
     5
420
      255
176
     0
290
     0
176
     0
 90
       50
176
     0
 90
       50
176
     0
 90
       50
176
     0
290
     0
176
     0
 90
       50
176
     0
 62
   256
176
     0
 40
1.0
176
     0
 90
        2
176
     0
  1
strokes_ogs.tif
176
     0
290
     0
176
     0
 40
1.0
176
     0
 40
1.0
176
     0
  0
VISUALSTYLE
  5
15D9
102
{ACAD_REACTORS
330
15CB
102
}
330
15CB
100
AcDbVisualStyle
  2
Linepattern
 70
    14
177
     3
291
     1
 70
    58
 90
        2
176
     1
 90
        2
176
     1
 90
        0
176
     1
 90
        0
176
     1
 40
0.6
176
     1
 40
30.0
176
     1
 62
     7
420
 16777215
176
     1
 90
        1
176
     1
 90
        4
176
     1
 62
     7
176
     1
 62
   257
176
     1
 90
        7
176
     1
 90
        7
176
     1
 40
1.0
176
     1
 90
        8
176
     1
 62
     7
176
     1
 40
1.0
176
     1
 90
        1
176
     1
 90
        6
176
     1
 90
        2
176
     1
 62
     7
176
     1
 90
        5
176
     1
 90
        0
176
     1
 90
        0
176
     1
290
     0
176
     1
 90
        1
176
     1
 40
0.0
176
     1
 90
        0
176
     1
290
     0
176
     1
290
     1
176
     1
290
     1
176
     1
290
     0
176
     1
290
     0
176
     1
290
     0
176
     1
290
     0
176
     1
290
     0
176
     1
290
     0
176
     1
 90
       50
176
     1
 40
0.0
176
     1
 40
1.0
176
     1
 90
        0
176
     1
 62
    18
420
        0
176
     1
 90
       50
176
     1
 90
        3
176
     1
 62
     5
420
      255
176
     1
290
     0
176
     1
 90
       50
176
     1
 90
       50
176
     1
 90
       50
176
     1
290
     0
176
     1
 90
       50
176
     1
 62
   256
176
     0
 40
1.0
176
     0
 90
        2
176
     1
  1
strokes_ogs.tif
176
     1
290
     0
176
     1
 40
1.0
176
     1
 40
1.0
176
     1
  0
VISUALSTYLE
  5
15EC
102
{ACAD_REACTORS
330
15CB
102
}
330
15CB
100
AcDbVisualStyle
  2
Modeling
 70
    10
177
     3
291
     0
 70
    58
 90
        2
176
     1
 90
        3
176
     1
 90
        0
176
     1
 90
        2
176
     1
 40
0.6
176
     1
 40
30.0
176
     1
 62
     7
420
 16777215
176
     1
 90
        2
176
     1
 90
        0
176
     1
 62
     7
176
     1
 62
   257
176
     1
 90
        1
176
     1
 90
        1
176
     1
 40
180.0
176
     1
 90
        8
176
     1
 62
     8
420
  7895160
176
     1
 40
1.0
176
     1
 90
        1
176
     1
 90
        6
176
     1
 90
        2
176
     1
 62
     7
176
     1
 90
        5
176
     1
 90
        0
176
     1
 90
        0
176
     1
290
     0
176
     1
 90
       13
176
     1
 40
0.0
176
     1
 90
        0
176
     1
290
     0
176
     1
290
     1
176
     1
290
     1
176
     1
290
     0
176
     1
290
     0
176
     1
290
     0
176
     1
290
     0
176
     1
290
     0
176
     1
290
     0
176
     1
 90
       50
176
     1
 40
0.0
176
     1
 40
1.0
176
     1
 90
        0
176
     1
 62
    18
420
        0
176
     1
 90
       50
176
     1
 90
        3
176
     1
 62
     5
420
      255
176
     1
290
     0
176
     1
 90
       50
176
     1
 90
       50
176
     1
 90
       50
176
     1
290
     0
176
     1
 90
       50
176
     1
 62
   256
176
     0
 40
1.0
176
     0
 90
        2
176
     1
  1
strokes_ogs.tif
176
     1
290
     0
176
     1
 40
1.0
176
     1
 40
1.0
176
     1
  0
VISUALSTYLE
  5
15DD
102
{ACAD_REACTORS
330
15CB
102
}
330
15CB
100
AcDbVisualStyle
  2
OverhangOff
 70
    21
177
     3
291
     1
 70
    58
 90
        2
176
     0
 90
        2
176
     0
 90
        0
176
     0
 90
        0
176
     0
 40
0.6
176
     0
 40
30.0
176
     0
 62
     7
420
 16777215
176
     0
 90
        1
176
     0
 90
        4
176
     0
 62
     7
176
     0
 62
   257
176
     0
 90
        1
176
     0
 90
        1
176
     0
 40
1.0
176
     0
 90
        9
176
     2
 62
     7
176
     0
 40
1.0
176
     0
 90
        1
176
     0
 90
        6
176
     0
 90
        2
176
     0
 62
     7
176
     0
 90
        5
176
     0
 90
        0
176
     0
 90
        0
176
     0
290
     0
176
     0
 90
        1
176
     0
 40
0.0
176
     0
 90
        0
176
     0
290
     0
176
     0
290
     1
176
     0
290
     1
176
     0
290
     0
176
     0
290
     0
176
     0
290
     0
176
     0
290
     0
176
     0
290
     0
176
     0
290
     0
176
     0
 90
       50
176
     0
 40
0.0
176
     0
 40
1.0
176
     0
 90
        0
176
     0
 62
    18
420
        0
176
     0
 90
       50
176
     0
 90
        3
176
     0
 62
     5
420
      255
176
     0
290
     0
176
     0
 90
       50
176
     0
 90
       50
176
     0
 90
       50
176
     0
290
     0
176
     0
 90
       50
176
     0
 62
   256
176
     0
 40
1.0
176
     0
 90
        2
176
     0
  1
strokes_ogs.tif
176
     0
290
     0
176
     0
 40
1.0
176
     0
 40
1.0
176
     0
  0
VISUALSTYLE
  5
15D4
102
{ACAD_REACTORS
330
15CB
102
}
330
15CB
100
AcDbVisualStyle
  2
Realistic
 70
     8
177
     3
291
     0
 70
    58
 90
        2
176
     1
 90
        3
176
     1
 90
        0
176
     1
 90
        2
176
     1
 40
0.6
176
     1
 40
30.0
176
     1
 62
     7
420
 16777215
176
     1
 90
        0
176
     1
 90
        0
176
     1
 62
     7
176
     1
 62
   257
176
     1
 90
        1
176
     1
 90
        1
176
     1
 40
1.0
176
     1
 90
        8
176
     1
 62
   257
176
     1
 40
1.0
176
     1
 90
        1
176
     1
 90
        6
176
     1
 90
        2
176
     1
 62
     7
176
     1
 90
        3
176
     1
 90
        0
176
     1
 90
        0
176
     1
290
     0
176
     1
 90
       13
176
     1
 40
0.0
176
     1
 90
        0
176
     1
290
     0
176
     1
290
     1
176
     1
290
     1
176
     1
290
     0
176
     1
290
     0
176
     1
290
     0
176
     1
290
     0
176
     1
290
     0
176
     1
290
     0
176
     1
 90
       50
176
     1
 40
0.0
176
     1
 40
1.0
176
     1
 90
        0
176
     1
 62
    18
420
        0
176
     1
 90
       50
176
     1
 90
        3
176
     1
 62
     5
420
      255
176
     1
290
     0
176
     1
 90
       50
176
     1
 90
       50
176
     1
 90
       50
176
     1
290
     0
176
     1
 90
       50
176
     1
 62
   256
176
     0
 40
1.0
176
     0
 90
        2
176
     1
  1
strokes_ogs.tif
176
     1
290
     0
176
     1
 40
1.0
176
     1
 40
1.0
176
     1
  0
VISUALSTYLE
  5
15E3
102
{ACAD_REACTORS
330
15CB
102
}
330
15CB
100
AcDbVisualStyle
  2
Shaded
 70
    27
177
     3
291
     0
 70
    58
 90
        2
176
     1
 90
        2
176
     1
 90
        1
176
     1
 90
        2
176
     1
 40
0.6
176
     1
 40
30.0
176
     1
 62
     7
420
 16777215
176
     1
 90
        0
176
     1
 90
        4
176
     1
 62
     7
176
     1
 62
   257
176
     1
 90
        1
176
     1
 90
        1
176
     1
 40
1.0
176
     1
 90
        8
176
     1
 62
   257
176
     1
 40
1.0
176
     1
 90
        1
176
     1
 90
        6
176
     1
 90
        2
176
     1
 62
     8
420
  7895160
176
     1
 90
        3
176
     1
 90
        0
176
     1
 90
        0
176
     1
290
     0
176
     1
 90
        5
176
     1
 40
0.0
176
     1
 90
        0
176
     1
290
     0
176
     1
290
     1
176
     1
290
     1
176
     1
290
     0
176
     1
290
     0
176
     1
290
     0
176
     1
290
     0
176
     1
290
     0
176
     1
290
     0
176
     1
 90
       50
176
     1
 40
0.0
176
     1
 40
1.0
176
     1
 90
        0
176
     1
 62
    18
420
        0
176
     1
 90
       50
176
     1
 90
        3
176
     1
 62
     5
420
      255
176
     1
290
     0
176
     1
 90
       50
176
     1
 90
       50
176
     1
 90
       50
176
     1
290
     0
176
     1
 90
       50
176
     1
 62
   256
176
     0
 40
1.0
176
     0
 90
        2
176
     1
  1
strokes_ogs.tif
176
     1
290
     0
176
     1
 40
1.0
176
     1
 40
1.0
176
     1
  0
VISUALSTYLE
  5
15E2
102
{ACAD_REACTORS
330
15CB
102
}
330
15CB
100
AcDbVisualStyle
  2
Shaded with edges
 70
    26
177
     3
291
     0
 70
    58
 90
        2
176
     1
 90
        2
176
     1
 90
        1
176
     1
 90
        2
176
     1
 40
0.6
176
     1
 40
30.0
176
     1
 62
     7
420
 16777215
176
     1
 90
        1
176
     1
 90
       10
176
     1
 62
     7
176
     1
 62
   257
176
     1
 90
        2
176
     1
 90
        1
176
     1
 40
1.0
176
     1
 90
        8
176
     1
 62
   257
176
     1
 40
1.0
176
     1
 90
        1
176
     1
 90
        6
176
     1
 90
        2
176
     1
 62
     7
176
     1
 90
        3
176
     1
 90
        0
176
     1
 90
        0
176
     1
290
     0
176
     1
 90
        5
176
     1
 40
0.0
176
     1
 90
        0
176
     1
290
     0
176
     1
290
     1
176
     1
290
     1
176
     1
290
     0
176
     1
290
     0
176
     1
290
     0
176
     1
290
     0
176
     1
290
     0
176
     1
290
     0
176
     1
 90
       50
176
     1
 40
0.0
176
     1
 40
1.0
176
     1
 90
        0
176
     1
 62
    18
420
        0
176
     1
 90
       50
176
     1
 90
        3
176
     1
 62
     5
420
      255
176
     1
290
     0
176
     1
 90
       50
176
     1
 90
       50
176
     1
 90
       50
176
     1
290
     0
176
     1
 90
       50
176
     1
 62
   256
176
     0
 40
1.0
176
     0
 90
        2
176
     1
  1
strokes_ogs.tif
176
     1
290
     0
176
     1
 40
1.0
176
     1
 40
1.0
176
     1
  0
VISUALSTYLE
  5
15DF
102
{ACAD_REACTORS
330
15CB
102
}
330
15CB
100
AcDbVisualStyle
  2
Shades of Gray
 70
    23
177
     3
291
     0
 70
    58
 90
        2
176
     1
 90
        2
176
     1
 90
        3
176
     1
 90
        0
176
     1
 40
0.6
176
     1
 40
30.0
176
     1
 62
     7
420
 16777215
176
     1
 90
        2
176
     1
 90
        2
176
     1
 62
     7
176
     1
 62
     7
176
     1
 90
        1
176
     1
 90
        1
176
     1
 40
40.0
176
     1
 90
        8
176
     1
 62
     7
176
     1
 40
1.0
176
     1
 90
        1
176
     1
 90
        6
176
     1
 90
        2
176
     1
 62
     7
176
     1
 90
        3
176
     1
 90
        0
176
     1
 90
        0
176
     1
290
     0
176
     1
 90
        1
176
     1
 40
0.0
176
     1
 90
        0
176
     1
290
     0
176
     1
290
     1
176
     1
290
     1
176
     1
290
     0
176
     1
290
     0
176
     1
290
     0
176
     1
290
     0
176
     1
290
     0
176
     1
290
     0
176
     1
 90
       50
176
     1
 40
0.0
176
     1
 40
1.0
176
     1
 90
        0
176
     1
 62
    18
420
        0
176
     1
 90
       50
176
     1
 90
        3
176
     1
 62
     5
420
      255
176
     1
290
     0
176
     1
 90
       50
176
     1
 90
       50
176
     1
 90
       50
176
     1
290
     0
176
     1
 90
       50
176
     1
 62
   256
176
     0
 40
1.0
176
     0
 90
        2
176
     1
  1
strokes_ogs.tif
176
     1
290
     0
176
     1
 40
1.0
176
     1
 40
1.0
176
     1
  0
VISUALSTYLE
  5
15E0
102
{ACAD_REACTORS
330
15CB
102
}
330
15CB
100
AcDbVisualStyle
  2
Sketchy
 70
    24
177
     3
291
     0
 70
    58
 90
        1
176
     1
 90
        2
176
     1
 90
        2
176
     1
 90
        0
176
     1
 40
0.6
176
     1
 40
30.0
176
     1
 62
     7
420
 16777215
176
     1
 90
        2
176
     1
 90
        2
176
     1
 62
     7
176
     1
 62
     7
176
     1
 90
        1
176
     1
 90
        1
176
     1
 40
40.0
176
     1
 90
       11
176
     1
 62
     7
176
     1
 40
1.0
176
     1
 90
        1
176
     1
 90
        6
176
     1
 90
        2
176
     1
 62
     7
176
     1
 90
        6
176
     1
 90
        0
176
     1
 90
        0
176
     1
290
     0
176
     1
 90
        1
176
     1
 40
0.0
176
     1
 90
        0
176
     1
290
     0
176
     1
290
     1
176
     1
290
     1
176
     1
290
     0
176
     1
290
     0
176
     1
290
     0
176
     1
290
     0
176
     1
290
     0
176
     1
290
     0
176
     1
 90
       50
176
     1
 40
0.0
176
     1
 40
1.0
176
     1
 90
        0
176
     1
 62
    18
420
        0
176
     1
 90
       50
176
     1
 90
        3
176
     1
 62
     5
420
      255
176
     1
290
     0
176
     1
 90
       50
176
     1
 90
       50
176
     1
 90
       50
176
     1
290
     0
176
     1
 90
       50
176
     1
 62
   256
176
     0
 40
1.0
176
     0
 90
        2
176
     1
  1
strokes_ogs.tif
176
     1
290
     0
176
     1
 40
1.0
176
     1
 40
1.0
176
     1
  0
VISUALSTYLE
  5
15D8
102
{ACAD_REACTORS
330
15CB
102
}
330
15CB
100
AcDbVisualStyle
  2
Thicken
 70
    13
177
     3
291
     1
 70
    58
 90
        2
176
     1
 90
        2
176
     1
 90
        0
176
     1
 90
        0
176
     1
 40
0.6
176
     1
 40
30.0
176
     1
 62
     7
420
 16777215
176
     1
 90
        1
176
     1
 90
        4
176
     1
 62
     7
176
     1
 62
   257
176
     1
 90
        1
176
     1
 90
        1
176
     1
 40
1.0
176
     1
 90
       12
176
     1
 62
     7
176
     1
 40
1.0
176
     1
 90
        1
176
     1
 90
        6
176
     1
 90
        2
176
     1
 62
     7
176
     1
 90
        5
176
     1
 90
        0
176
     1
 90
        0
176
     1
290
     0
176
     1
 90
        1
176
     1
 40
0.0
176
     1
 90
        0
176
     1
290
     0
176
     1
290
     1
176
     1
290
     1
176
     1
290
     0
176
     1
290
     0
176
     1
290
     0
176
     1
290
     0
176
     1
290
     0
176
     1
290
     0
176
     1
 90
       50
176
     1
 40
0.0
176
     1
 40
1.0
176
     1
 90
        0
176
     1
 62
    18
420
        0
176
     1
 90
       50
176
     1
 90
        3
176
     1
 62
     5
420
      255
176
     1
290
     0
176
     1
 90
       50
176
     1
 90
       50
176
     1
 90
       50
176
     1
290
     0
176
     1
 90
       50
176
     1
 62
   256
176
     0
 40
1.0
176
     0
 90
        2
176
     1
  1
strokes_ogs.tif
176
     1
290
     0
176
     1
 40
1.0
176
     1
 40
1.0
176
     1
  0
VISUALSTYLE
  5
15D1
102
{ACAD_REACTORS
330
15CB
102
}
330
15CB
100
AcDbVisualStyle
  2
Wireframe
 70
     5
177
     3
291
     0
 70
    58
 90
        0
176
     1
 90
        2
176
     1
 90
        0
176
     1
 90
        0
176
     1
 40
0.6
176
     1
 40
30.0
176
     1
 62
     7
420
 16777215
176
     1
 90
        1
176
     1
 90
        4
176
     1
 62
     7
176
     1
 62
   257
176
     1
 90
        1
176
     1
 90
        1
176
     1
 40
1.0
176
     1
 90
        0
176
     1
 62
   257
176
     1
 40
1.0
176
     1
 90
        1
176
     1
 90
        6
176
     1
 90
        2
176
     1
 62
     7
176
     1
 90
        3
176
     1
 90
        0
176
     1
 90
        0
176
     1
290
     0
176
     1
 90
        1
176
     1
 40
0.0
176
     1
 90
        0
176
     1
290
     0
176
     1
290
     1
176
     1
290
     1
176
     1
290
     0
176
     1
290
     0
176
     1
290
     0
176
     1
290
     0
176
     1
290
     0
176
     1
290
     0
176
     1
 90
       50
176
     1
 40
0.0
176
     1
 40
1.0
176
     1
 90
        0
176
     1
 62
    18
420
        0
176
     1
 90
       50
176
     1
 90
        3
176
     1
 62
     5
420
      255
176
     1
290
     0
176
     1
 90
       50
176
     1
 90
       50
176
     1
 90
       50
176
     1
290
     0
176
     1
 90
       50
176
     1
 62
   256
176
     0
 40
1.0
176
     0
 90
        2
176
     1
  1
strokes_ogs.tif
176
     1
290
     0
176
     1
 40
1.0
176
     1
 40
1.0
176
     1
  0
VISUALSTYLE
  5
15E1
102
{ACAD_REACTORS
330
15CB
102
}
330
15CB
100
AcDbVisualStyle
  2
X-Ray
 70
    25
177
     3
291
     0
 70
    58
 90
        2
176
     1
 90
        2
176
     1
 90
        1
176
     1
 90
        1
176
     1
 40
0.5
176
     1
 40
30.0
176
     1
 62
     7
420
 16777215
176
     1
 90
        1
176
     1
 90
        0
176
     1
 62
     7
176
     1
 62
   257
176
     1
 90
        1
176
     1
 90
        1
176
     1
 40
1.0
176
     1
 90
        8
176
     1
 62
     7
176
     1
 40
1.0
176
     1
 90
        1
176
     1
 90
        6
176
     1
 90
        2
176
     1
 62
     7
176
     1
 90
        3
176
     1
 90
        0
176
     1
 90
        0
176
     1
290
     0
176
     1
 90
       13
176
     1
 40
0.0
176
     1
 90
        0
176
     1
290
     0
176
     1
290
     1
176
     1
290
     1
176
     1
290
     0
176
     1
290
     0
176
     1
290
     0
176
     1
290
     0
176
     1
290
     0
176
     1
290
     0
176
     1
 90
       50
176
     1
 40
0.0
176
     1
 40
1.0
176
     1
 90
        0
176
     1
 62
    18
420
        0
176
     1
 90
       50
176
     1
 90
        3
176
     1
 62
     5
420
      255
176
     1
290
     0
176
     1
 90
       50
176
     1
 90
       50
176
     1
 90
       50
176
     1
290
     0
176
     1
 90
       50
176
     1
 62
   256
176
     0
 40
1.0
176
     0
 90
        2
176
     1
  1
strokes_ogs.tif
176
     1
290
     0
176
     1
 40
1.0
176
     1
 40
1.0
176
     1
  0
DICTIONARYVAR
  5
15F5
102
{ACAD_REACTORS
330
15F4
102
}
330
15F4
100
DictionaryVariables
280
     0
  1
1:1
  0
DICTIONARYVAR
  5
1637
102
{ACAD_REACTORS
330
15F4
102
}
330
15F4
100
DictionaryVariables
280
     0
  1
Standard
  0
DICTIONARYVAR
  5
1636
102
{ACAD_REACTORS
330
15F4
102
}
330
15F4
100
DictionaryVariables
280
     0
  1
Standard
  0
DICTIONARYVAR
  5
1638
102
{ACAD_REACTORS
330
15F4
102
}
330
15F4
100
DictionaryVariables
280
     0
  1
0
  0
DICTIONARYVAR
  5
15F6
102
{ACAD_REACTORS
330
15F4
102
}
330
15F4
100
DictionaryVariables
280
     0
  1
2
  0
TABLECONTENT
  5
1BB4
330
1BB8
100
AcDbLinkedData
  1

300

100
AcDbLinkedTableData
 90
        4
300
COLUMN
  1
LINKEDTABLEDATACOLUMN_BEGIN
300

 91
        0
301
CUSTOMDATA
  1
DATAMAP_BEGIN
 90
        0
309
DATAMAP_END
309
LINKEDTABLEDATACOLUMN_END
  1
FORMATTEDTABLEDATACOLUMN_BEGIN
300
COLUMNTABLEFORMAT
  1
TABLEFORMAT_BEGIN
 90
        3
170
     1
 91
      128
 92
        0
 62
   257
 93
        1
300
CONTENTFORMAT
  1
CONTENTFORMAT_BEGIN
 90
      128
 91
        0
 92
      512
 93
        0
300

 40
0.0
140
1.0
 94
        1
 62
     0
340
0
144
0.225
309
CONTENTFORMAT_END
171
     0
 94
        0
309
TABLEFORMAT_END
309
FORMATTEDTABLEDATACOLUMN_END
  1
TABLECOLUMN_BEGIN
 90
        0
 40
37.5
309
TABLECOLUMN_END
300
COLUMN
  1
LINKEDTABLEDATACOLUMN_BEGIN
300

 91
        0
301
CUSTOMDATA
  1
DATAMAP_BEGIN
 90
        0
309
DATAMAP_END
309
LINKEDTABLEDATACOLUMN_END
  1
FORMATTEDTABLEDATACOLUMN_BEGIN
300
COLUMNTABLEFORMAT
  1
TABLEFORMAT_BEGIN
 90
        3
170
     1
 91
      128
 92
        0
 62
   257
 93
        1
300
CONTENTFORMAT
  1
CONTENTFORMAT_BEGIN
 90
      128
 91
        0
 92
      512
 93
        0
300

 40
0.0
140
1.0
 94
        1
 62
     0
340
0
144
0.225
309
CONTENTFORMAT_END
171
     0
 94
        0
309
TABLEFORMAT_END
309
FORMATTEDTABLEDATACOLUMN_END
  1
TABLECOLUMN_BEGIN
 90
        0
 40
50.0
309
TABLECOLUMN_END
300
COLUMN
  1
LINKEDTABLEDATACOLUMN_BEGIN
300

 91
        0
301
CUSTOMDATA
  1
DATAMAP_BEGIN
 90
        0
309
DATAMAP_END
309
LINKEDTABLEDATACOLUMN_END
  1
FORMATTEDTABLEDATACOLUMN_BEGIN
300
COLUMNTABLEFORMAT
  1
TABLEFORMAT_BEGIN
 90
        3
170
     1
 91
      128
 92
        0
 62
   257
 93
        1
300
CONTENTFORMAT
  1
CONTENTFORMAT_BEGIN
 90
      128
 91
        0
 92
      512
 93
        0
300

 40
0.0
140
1.0
 94
        1
 62
     0
340
0
144
0.225
309
CONTENTFORMAT_END
171
     0
 94
        0
309
TABLEFORMAT_END
309
FORMATTEDTABLEDATACOLUMN_END
  1
TABLECOLUMN_BEGIN
 90
        0
 40
37.5
309
TABLECOLUMN_END
300
COLUMN
  1
LINKEDTABLEDATACOLUMN_BEGIN
300

 91
        0
301
CUSTOMDATA
  1
DATAMAP_BEGIN
 90
        0
309
DATAMAP_END
309
LINKEDTABLEDATACOLUMN_END
  1
FORMATTEDTABLEDATACOLUMN_BEGIN
300
COLUMNTABLEFORMAT
  1
TABLEFORMAT_BEGIN
 90
        3
170
     1
 91
      128
 92
        0
 62
   257
 93
        1
300
CONTENTFORMAT
  1
CONTENTFORMAT_BEGIN
 90
      128
 91
        0
 92
      512
 93
        0
300

 40
0.0
140
1.0
 94
        1
 62
     0
340
0
144
0.225
309
CONTENTFORMAT_END
171
     0
 94
        0
309
TABLEFORMAT_END
309
FORMATTEDTABLEDATACOLUMN_END
  1
TABLECOLUMN_BEGIN
 90
        0
 40
325.0
309
TABLECOLUMN_END
 91
        5
301
ROW
  1
LINKEDTABLEDATAROW_BEGIN
 90
        4
300
CELL
  1
LINKEDTABLEDATACELL_BEGIN
 90
        0
300

 91
        0
301
CUSTOMDATA
  1
DATAMAP_BEGIN
 90
        0
309
DATAMAP_END
 92
        0
 95
        1
302
CONTENT
  1
CELLCONTENT_BEGIN
 90
        1
300
VALUE
 93
        0
 90
        4
  1
符号
 94
        0
300

302
符号
304
ACVALUE_END
 91
        0
309
CELLCONTENT_END
  1
FORMATTEDCELLCONTENT_BEGIN
170
     1
300
CONTENTFORMAT
  1
CONTENTFORMAT_BEGIN
 90
      129
 91
        0
 92
        4
 93
        0
300

 40
0.0
140
1.0
 94
        1
 62
     0
340
0
144
7.5
309
CONTENTFORMAT_END
309
FORMATTEDCELLCONTENT_END
309
LINKEDTABLEDATACELL_END
  1
FORMATTEDTABLEDATACELL_BEGIN
300
CELLTABLEFORMAT
  1
TABLEFORMAT_BEGIN
 90
        1
170
     1
 91
   408576
 92
        0
 62
   257
 93
        1
300
CONTENTFORMAT
  1
CONTENTFORMAT_BEGIN
 90
        0
 91
        0
 92
      512
 93
        0
300

 40
0.0
140
1.0
 94
        1
 62
     0
340
0
144
0.18
309
CONTENTFORMAT_END
171
     1
301
MARGIN
  1
CELLMARGIN_BEGIN
 40
1.875
 40
1.875
 40
1.875
 40
1.875
 40
1.875
 40
1.875
309
CELLMARGIN_END
 94
        0
309
TABLEFORMAT_END
309
FORMATTEDTABLEDATACELL_END
  1
TABLECELL_BEGIN
 90
        2
 91
        0
309
TABLECELL_END
300
CELL
  1
LINKEDTABLEDATACELL_BEGIN
 90
        0
300

 91
        0
301
CUSTOMDATA
  1
DATAMAP_BEGIN
 90
        0
309
DATAMAP_END
 92
        0
 95
        1
302
CONTENT
  1
CELLCONTENT_BEGIN
 90
        1
300
VALUE
 93
        0
 90
        4
  1
日付
 94
        0
300

302
日付
304
ACVALUE_END
 91
        0
309
CELLCONTENT_END
  1
FORMATTEDCELLCONTENT_BEGIN
170
     1
300
CONTENTFORMAT
  1
CONTENTFORMAT_BEGIN
 90
      129
 91
        0
 92
        4
 93
        0
300

 40
0.0
140
1.0
 94
        1
 62
     0
340
0
144
7.5
309
CONTENTFORMAT_END
309
FORMATTEDCELLCONTENT_END
309
LINKEDTABLEDATACELL_END
  1
FORMATTEDTABLEDATACELL_BEGIN
300
CELLTABLEFORMAT
  1
TABLEFORMAT_BEGIN
 90
        1
170
     1
 91
   408576
 92
        0
 62
   257
 93
        1
300
CONTENTFORMAT
  1
CONTENTFORMAT_BEGIN
 90
        0
 91
        0
 92
      512
 93
        0
300

 40
0.0
140
1.0
 94
        1
 62
     0
340
0
144
0.18
309
CONTENTFORMAT_END
171
     1
301
MARGIN
  1
CELLMARGIN_BEGIN
 40
1.875
 40
1.875
 40
1.875
 40
1.875
 40
1.875
 40
1.875
309
CELLMARGIN_END
 94
        0
309
TABLEFORMAT_END
309
FORMATTEDTABLEDATACELL_END
  1
TABLECELL_BEGIN
 90
        2
 91
        0
309
TABLECELL_END
300
CELL
  1
LINKEDTABLEDATACELL_BEGIN
 90
        0
300

 91
        0
301
CUSTOMDATA
  1
DATAMAP_BEGIN
 90
        0
309
DATAMAP_END
 92
        0
 95
        1
302
CONTENT
  1
CELLCONTENT_BEGIN
 90
        1
300
VALUE
 93
        0
 90
        4
  1
訂正者
 94
        0
300

302
訂正者
304
ACVALUE_END
 91
        0
309
CELLCONTENT_END
  1
FORMATTEDCELLCONTENT_BEGIN
170
     1
300
CONTENTFORMAT
  1
CONTENTFORMAT_BEGIN
 90
      129
 91
        0
 92
        4
 93
        0
300

 40
0.0
140
1.0
 94
        1
 62
     0
340
0
144
7.5
309
CONTENTFORMAT_END
309
FORMATTEDCELLCONTENT_END
309
LINKEDTABLEDATACELL_END
  1
FORMATTEDTABLEDATACELL_BEGIN
300
CELLTABLEFORMAT
  1
TABLEFORMAT_BEGIN
 90
        1
170
     1
 91
   408576
 92
        0
 62
   257
 93
        1
300
CONTENTFORMAT
  1
CONTENTFORMAT_BEGIN
 90
        0
 91
        0
 92
      512
 93
        0
300

 40
0.0
140
1.0
 94
        1
 62
     0
340
0
144
0.18
309
CONTENTFORMAT_END
171
     1
301
MARGIN
  1
CELLMARGIN_BEGIN
 40
1.875
 40
1.875
 40
1.875
 40
1.875
 40
1.875
 40
1.875
309
CELLMARGIN_END
 94
        0
309
TABLEFORMAT_END
309
FORMATTEDTABLEDATACELL_END
  1
TABLECELL_BEGIN
 90
        2
 91
        0
309
TABLECELL_END
300
CELL
  1
LINKEDTABLEDATACELL_BEGIN
 90
        0
300

 91
        0
301
CUSTOMDATA
  1
DATAMAP_BEGIN
 90
        0
309
DATAMAP_END
 92
        0
 95
        1
302
CONTENT
  1
CELLCONTENT_BEGIN
 90
        1
300
VALUE
 93
        0
 90
        4
  1
訂正概要
 94
        0
300

302
訂正概要
304
ACVALUE_END
 91
        0
309
CELLCONTENT_END
  1
FORMATTEDCELLCONTENT_BEGIN
170
     1
300
CONTENTFORMAT
  1
CONTENTFORMAT_BEGIN
 90
      129
 91
        0
 92
        4
 93
        0
300

 40
0.0
140
1.0
 94
        1
 62
     0
340
0
144
7.5
309
CONTENTFORMAT_END
309
FORMATTEDCELLCONTENT_END
309
LINKEDTABLEDATACELL_END
  1
FORMATTEDTABLEDATACELL_BEGIN
300
CELLTABLEFORMAT
  1
TABLEFORMAT_BEGIN
 90
        1
170
     1
 91
   408576
 92
        0
 62
   257
 93
        1
300
CONTENTFORMAT
  1
CONTENTFORMAT_BEGIN
 90
        0
 91
        0
 92
      512
 93
        0
300

 40
0.0
140
1.0
 94
        1
 62
     0
340
0
144
0.18
309
CONTENTFORMAT_END
171
     1
301
MARGIN
  1
CELLMARGIN_BEGIN
 40
1.875
 40
1.875
 40
1.875
 40
1.875
 40
1.875
 40
1.875
309
CELLMARGIN_END
 94
        0
309
TABLEFORMAT_END
309
FORMATTEDTABLEDATACELL_END
  1
TABLECELL_BEGIN
 90
        2
 91
        0
309
TABLECELL_END
 91
        0
301
CUSTOMDATA
  1
DATAMAP_BEGIN
 90
        0
309
DATAMAP_END
309
LINKEDTABLEDATAROW_END
  1
FORMATTEDTABLEDATAROW_BEGIN
300
ROWTABLEFORMAT
  1
TABLEFORMAT_BEGIN
 90
        2
170
     1
 91
      128
 92
        0
 62
   257
 93
        1
300
CONTENTFORMAT
  1
CONTENTFORMAT_BEGIN
 90
      128
 91
        0
 92
      512
 93
        0
300

 40
0.0
140
1.0
 94
        1
 62
     0
340
0
144
7.5
309
CONTENTFORMAT_END
171
     0
 94
        0
309
TABLEFORMAT_END
309
FORMATTEDTABLEDATAROW_END
  1
TABLEROW_BEGIN
 90
        1
 40
13.75
309
TABLEROW_END
301
ROW
  1
LINKEDTABLEDATAROW_BEGIN
 90
        4
300
CELL
  1
LINKEDTABLEDATACELL_BEGIN
 90
        0
300

 91
        0
301
CUSTOMDATA
  1
DATAMAP_BEGIN
 90
        0
309
DATAMAP_END
 92
        0
 95
        3
302
CONTENT
  1
CELLCONTENT_BEGIN
 90
        1
300
VALUE
 93
        0
 90
        4
  1

 94
        0
300

302

304
ACVALUE_END
 91
        0
309
CELLCONTENT_END
  1
FORMATTEDCELLCONTENT_BEGIN
170
     1
300
CONTENTFORMAT
  1
CONTENTFORMAT_BEGIN
 90
      129
 91
        0
 92
        4
 93
        0
300

 40
0.0
140
1.0
 94
        1
 62
     0
340
0
144
7.5
309
CONTENTFORMAT_END
309
FORMATTEDCELLCONTENT_END
302
CONTENT
  1
CELLCONTENT_BEGIN
 90
        4
340
0
 91
        0
309
CELLCONTENT_END
  1
FORMATTEDCELLCONTENT_BEGIN
170
     1
300
CONTENTFORMAT
  1
CONTENTFORMAT_BEGIN
 90
        8
 91
        0
 92
      512
 93
        0
300

 40
0.0
140
1.0
 94
        1
 62
     0
340
0
144
0.18
309
CONTENTFORMAT_END
309
FORMATTEDCELLCONTENT_END
302
CONTENT
  1
CELLCONTENT_BEGIN
 90
        4
340
168A
 91
        0
309
CELLCONTENT_END
  1
FORMATTEDCELLCONTENT_BEGIN
170
     1
300
CONTENTFORMAT
  1
CONTENTFORMAT_BEGIN
 90
      264
 91
      256
 92
      512
 93
        0
300

 40
0.0
140
1.0
 94
        1
 62
     0
340
0
144
0.18
309
CONTENTFORMAT_END
309
FORMATTEDCELLCONTENT_END
309
LINKEDTABLEDATACELL_END
  1
FORMATTEDTABLEDATACELL_BEGIN
300
CELLTABLEFORMAT
  1
TABLEFORMAT_BEGIN
 90
        1
170
     1
 91
   408592
 92
        0
 62
   257
 93
        1
300
CONTENTFORMAT
  1
CONTENTFORMAT_BEGIN
 90
       16
 91
        0
 92
      512
 93
        0
300

 40
0.0
140
1.0
 94
        5
 62
     0
340
0
144
0.18
309
CONTENTFORMAT_END
171
     1
301
MARGIN
  1
CELLMARGIN_BEGIN
 40
1.875
 40
1.875
 40
1.875
 40
1.875
 40
1.875
 40
1.875
309
CELLMARGIN_END
 94
        0
309
TABLEFORMAT_END
309
FORMATTEDTABLEDATACELL_END
  1
TABLECELL_BEGIN
 90
        3
 91
        0
309
TABLECELL_END
300
CELL
  1
LINKEDTABLEDATACELL_BEGIN
 90
        0
300

 91
        0
301
CUSTOMDATA
  1
DATAMAP_BEGIN
 90
        0
309
DATAMAP_END
 92
        0
 95
        1
302
CONTENT
  1
CELLCONTENT_BEGIN
 90
        1
300
VALUE
 93
        0
 90
        4
  1

 94
        0
300

302

304
ACVALUE_END
 91
        0
309
CELLCONTENT_END
  1
FORMATTEDCELLCONTENT_BEGIN
170
     1
300
CONTENTFORMAT
  1
CONTENTFORMAT_BEGIN
 90
      129
 91
        0
 92
        4
 93
        0
300

 40
0.0
140
1.0
 94
        1
 62
     0
340
0
144
7.5
309
CONTENTFORMAT_END
309
FORMATTEDCELLCONTENT_END
309
LINKEDTABLEDATACELL_END
  1
FORMATTEDTABLEDATACELL_BEGIN
300
CELLTABLEFORMAT
  1
TABLEFORMAT_BEGIN
 90
        1
170
     1
 91
   408592
 92
        0
 62
   257
 93
        1
300
CONTENTFORMAT
  1
CONTENTFORMAT_BEGIN
 90
       16
 91
        0
 92
      512
 93
        0
300

 40
0.0
140
1.0
 94
        5
 62
     0
340
0
144
0.18
309
CONTENTFORMAT_END
171
     1
301
MARGIN
  1
CELLMARGIN_BEGIN
 40
1.875
 40
1.875
 40
1.875
 40
1.875
 40
1.875
 40
1.875
309
CELLMARGIN_END
 94
        0
309
TABLEFORMAT_END
309
FORMATTEDTABLEDATACELL_END
  1
TABLECELL_BEGIN
 90
        3
 91
        0
309
TABLECELL_END
300
CELL
  1
LINKEDTABLEDATACELL_BEGIN
 90
        0
300

 91
        0
301
CUSTOMDATA
  1
DATAMAP_BEGIN
 90
        0
309
DATAMAP_END
 92
        0
 95
        1
302
CONTENT
  1
CELLCONTENT_BEGIN
 90
        1
300
VALUE
 93
        0
 90
        4
  1

 94
        0
300

302

304
ACVALUE_END
 91
        0
309
CELLCONTENT_END
  1
FORMATTEDCELLCONTENT_BEGIN
170
     1
300
CONTENTFORMAT
  1
CONTENTFORMAT_BEGIN
 90
      129
 91
        0
 92
        4
 93
        0
300

 40
0.0
140
1.0
 94
        1
 62
     0
340
0
144
7.5
309
CONTENTFORMAT_END
309
FORMATTEDCELLCONTENT_END
309
LINKEDTABLEDATACELL_END
  1
FORMATTEDTABLEDATACELL_BEGIN
300
CELLTABLEFORMAT
  1
TABLEFORMAT_BEGIN
 90
        1
170
     1
 91
   408592
 92
        0
 62
   257
 93
        1
300
CONTENTFORMAT
  1
CONTENTFORMAT_BEGIN
 90
       16
 91
        0
 92
      512
 93
        0
300

 40
0.0
140
1.0
 94
        5
 62
     0
340
0
144
0.18
309
CONTENTFORMAT_END
171
     1
301
MARGIN
  1
CELLMARGIN_BEGIN
 40
1.875
 40
1.875
 40
1.875
 40
1.875
 40
1.875
 40
1.875
309
CELLMARGIN_END
 94
        0
309
TABLEFORMAT_END
309
FORMATTEDTABLEDATACELL_END
  1
TABLECELL_BEGIN
 90
        3
 91
        0
309
TABLECELL_END
300
CELL
  1
LINKEDTABLEDATACELL_BEGIN
 90
        0
300

 91
        0
301
CUSTOMDATA
  1
DATAMAP_BEGIN
 90
        0
309
DATAMAP_END
 92
        0
 95
        1
302
CONTENT
  1
CELLCONTENT_BEGIN
 90
        1
300
VALUE
 93
        0
 90
        4
  1

 94
        0
300

302

304
ACVALUE_END
 91
        0
309
CELLCONTENT_END
  1
FORMATTEDCELLCONTENT_BEGIN
170
     1
300
CONTENTFORMAT
  1
CONTENTFORMAT_BEGIN
 90
      129
 91
        0
 92
        4
 93
        0
300

 40
0.0
140
1.0
 94
        1
 62
     0
340
0
144
7.5
309
CONTENTFORMAT_END
309
FORMATTEDCELLCONTENT_END
309
LINKEDTABLEDATACELL_END
  1
FORMATTEDTABLEDATACELL_BEGIN
300
CELLTABLEFORMAT
  1
TABLEFORMAT_BEGIN
 90
        1
170
     1
 91
   408592
 92
        0
 62
   257
 93
        1
300
CONTENTFORMAT
  1
CONTENTFORMAT_BEGIN
 90
       16
 91
        0
 92
      512
 93
        0
300

 40
0.0
140
1.0
 94
        4
 62
     0
340
0
144
0.18
309
CONTENTFORMAT_END
171
     1
301
MARGIN
  1
CELLMARGIN_BEGIN
 40
1.875
 40
1.875
 40
1.875
 40
1.875
 40
1.875
 40
1.875
309
CELLMARGIN_END
 94
        0
309
TABLEFORMAT_END
309
FORMATTEDTABLEDATACELL_END
  1
TABLECELL_BEGIN
 90
        3
 91
        0
309
TABLECELL_END
 91
        0
301
CUSTOMDATA
  1
DATAMAP_BEGIN
 90
        0
309
DATAMAP_END
309
LINKEDTABLEDATAROW_END
  1
FORMATTEDTABLEDATAROW_BEGIN
300
ROWTABLEFORMAT
  1
TABLEFORMAT_BEGIN
 90
        2
170
     1
 91
      128
 92
        0
 62
   257
 93
        1
300
CONTENTFORMAT
  1
CONTENTFORMAT_BEGIN
 90
      128
 91
        0
 92
      512
 93
        0
300

 40
0.0
140
1.0
 94
        1
 62
     0
340
0
144
7.5
309
CONTENTFORMAT_END
171
     0
 94
        0
309
TABLEFORMAT_END
309
FORMATTEDTABLEDATAROW_END
  1
TABLEROW_BEGIN
 90
        2
 40
13.75
309
TABLEROW_END
301
ROW
  1
LINKEDTABLEDATAROW_BEGIN
 90
        4
300
CELL
  1
LINKEDTABLEDATACELL_BEGIN
 90
        0
300

 91
        0
301
CUSTOMDATA
  1
DATAMAP_BEGIN
 90
        0
309
DATAMAP_END
 92
        0
 95
        2
302
CONTENT
  1
CELLCONTENT_BEGIN
 90
        1
300
VALUE
 93
        0
 90
        4
  1

 94
        0
300

302

304
ACVALUE_END
 91
        0
309
CELLCONTENT_END
  1
FORMATTEDCELLCONTENT_BEGIN
170
     1
300
CONTENTFORMAT
  1
CONTENTFORMAT_BEGIN
 90
      129
 91
        0
 92
        4
 93
        0
300

 40
0.0
140
1.0
 94
        1
 62
     0
340
0
144
7.5
309
CONTENTFORMAT_END
309
FORMATTEDCELLCONTENT_END
302
CONTENT
  1
CELLCONTENT_BEGIN
 90
        4
340
1696
 91
        0
309
CELLCONTENT_END
  1
FORMATTEDCELLCONTENT_BEGIN
170
     1
300
CONTENTFORMAT
  1
CONTENTFORMAT_BEGIN
 90
      264
 91
      256
 92
      512
 93
        0
300

 40
0.0
140
1.0
 94
        1
 62
     0
340
0
144
0.18
309
CONTENTFORMAT_END
309
FORMATTEDCELLCONTENT_END
309
LINKEDTABLEDATACELL_END
  1
FORMATTEDTABLEDATACELL_BEGIN
300
CELLTABLEFORMAT
  1
TABLEFORMAT_BEGIN
 90
        1
170
     1
 91
   408592
 92
        0
 62
   257
 93
        1
300
CONTENTFORMAT
  1
CONTENTFORMAT_BEGIN
 90
       16
 91
        0
 92
      512
 93
        0
300

 40
0.0
140
1.0
 94
        5
 62
     0
340
0
144
0.18
309
CONTENTFORMAT_END
171
     1
301
MARGIN
  1
CELLMARGIN_BEGIN
 40
1.875
 40
1.875
 40
1.875
 40
1.875
 40
1.875
 40
1.875
309
CELLMARGIN_END
 94
        0
309
TABLEFORMAT_END
309
FORMATTEDTABLEDATACELL_END
  1
TABLECELL_BEGIN
 90
        3
 91
        0
309
TABLECELL_END
300
CELL
  1
LINKEDTABLEDATACELL_BEGIN
 90
        0
300

 91
        0
301
CUSTOMDATA
  1
DATAMAP_BEGIN
 90
        0
309
DATAMAP_END
 92
        0
 95
        1
302
CONTENT
  1
CELLCONTENT_BEGIN
 90
        1
300
VALUE
 93
        0
 90
        4
  1

 94
        0
300

302

304
ACVALUE_END
 91
        0
309
CELLCONTENT_END
  1
FORMATTEDCELLCONTENT_BEGIN
170
     1
300
CONTENTFORMAT
  1
CONTENTFORMAT_BEGIN
 90
      129
 91
        0
 92
        4
 93
        0
300

 40
0.0
140
1.0
 94
        1
 62
     0
340
0
144
7.5
309
CONTENTFORMAT_END
309
FORMATTEDCELLCONTENT_END
309
LINKEDTABLEDATACELL_END
  1
FORMATTEDTABLEDATACELL_BEGIN
300
CELLTABLEFORMAT
  1
TABLEFORMAT_BEGIN
 90
        1
170
     1
 91
   408592
 92
        0
 62
   257
 93
        1
300
CONTENTFORMAT
  1
CONTENTFORMAT_BEGIN
 90
       16
 91
        0
 92
      512
 93
        0
300

 40
0.0
140
1.0
 94
        5
 62
     0
340
0
144
0.18
309
CONTENTFORMAT_END
171
     1
301
MARGIN
  1
CELLMARGIN_BEGIN
 40
1.875
 40
1.875
 40
1.875
 40
1.875
 40
1.875
 40
1.875
309
CELLMARGIN_END
 94
        0
309
TABLEFORMAT_END
309
FORMATTEDTABLEDATACELL_END
  1
TABLECELL_BEGIN
 90
        3
 91
        0
309
TABLECELL_END
300
CELL
  1
LINKEDTABLEDATACELL_BEGIN
 90
        0
300

 91
        0
301
CUSTOMDATA
  1
DATAMAP_BEGIN
 90
        0
309
DATAMAP_END
 92
        0
 95
        1
302
CONTENT
  1
CELLCONTENT_BEGIN
 90
        1
300
VALUE
 93
        0
 90
        4
  1

 94
        0
300

302

304
ACVALUE_END
 91
        0
309
CELLCONTENT_END
  1
FORMATTEDCELLCONTENT_BEGIN
170
     1
300
CONTENTFORMAT
  1
CONTENTFORMAT_BEGIN
 90
      129
 91
        0
 92
        4
 93
        0
300

 40
0.0
140
1.0
 94
        1
 62
     0
340
0
144
7.5
309
CONTENTFORMAT_END
309
FORMATTEDCELLCONTENT_END
309
LINKEDTABLEDATACELL_END
  1
FORMATTEDTABLEDATACELL_BEGIN
300
CELLTABLEFORMAT
  1
TABLEFORMAT_BEGIN
 90
        1
170
     1
 91
   408592
 92
        0
 62
   257
 93
        1
300
CONTENTFORMAT
  1
CONTENTFORMAT_BEGIN
 90
       16
 91
        0
 92
      512
 93
        0
300

 40
0.0
140
1.0
 94
        5
 62
     0
340
0
144
0.18
309
CONTENTFORMAT_END
171
     1
301
MARGIN
  1
CELLMARGIN_BEGIN
 40
1.875
 40
1.875
 40
1.875
 40
1.875
 40
1.875
 40
1.875
309
CELLMARGIN_END
 94
        0
309
TABLEFORMAT_END
309
FORMATTEDTABLEDATACELL_END
  1
TABLECELL_BEGIN
 90
        3
 91
        0
309
TABLECELL_END
300
CELL
  1
LINKEDTABLEDATACELL_BEGIN
 90
        0
300

 91
        0
301
CUSTOMDATA
  1
DATAMAP_BEGIN
 90
        0
309
DATAMAP_END
 92
        0
 95
        1
302
CONTENT
  1
CELLCONTENT_BEGIN
 90
        1
300
VALUE
 93
        0
 90
        4
  1

 94
        0
300

302

304
ACVALUE_END
 91
        0
309
CELLCONTENT_END
  1
FORMATTEDCELLCONTENT_BEGIN
170
     1
300
CONTENTFORMAT
  1
CONTENTFORMAT_BEGIN
 90
      129
 91
        0
 92
        4
 93
        0
300

 40
0.0
140
1.0
 94
        1
 62
     0
340
0
144
7.5
309
CONTENTFORMAT_END
309
FORMATTEDCELLCONTENT_END
309
LINKEDTABLEDATACELL_END
  1
FORMATTEDTABLEDATACELL_BEGIN
300
CELLTABLEFORMAT
  1
TABLEFORMAT_BEGIN
 90
        1
170
     1
 91
   408592
 92
        0
 62
   257
 93
        1
300
CONTENTFORMAT
  1
CONTENTFORMAT_BEGIN
 90
       16
 91
        0
 92
      512
 93
        0
300

 40
0.0
140
1.0
 94
        4
 62
     0
340
0
144
0.18
309
CONTENTFORMAT_END
171
     1
301
MARGIN
  1
CELLMARGIN_BEGIN
 40
1.875
 40
1.875
 40
1.875
 40
1.875
 40
1.875
 40
1.875
309
CELLMARGIN_END
 94
        0
309
TABLEFORMAT_END
309
FORMATTEDTABLEDATACELL_END
  1
TABLECELL_BEGIN
 90
        3
 91
        0
309
TABLECELL_END
 91
        0
301
CUSTOMDATA
  1
DATAMAP_BEGIN
 90
        0
309
DATAMAP_END
309
LINKEDTABLEDATAROW_END
  1
FORMATTEDTABLEDATAROW_BEGIN
300
ROWTABLEFORMAT
  1
TABLEFORMAT_BEGIN
 90
        2
170
     1
 91
      128
 92
        0
 62
   257
 93
        1
300
CONTENTFORMAT
  1
CONTENTFORMAT_BEGIN
 90
      128
 91
        0
 92
      512
 93
        0
300

 40
0.0
140
1.0
 94
        1
 62
     0
340
0
144
7.5
309
CONTENTFORMAT_END
171
     0
 94
        0
309
TABLEFORMAT_END
309
FORMATTEDTABLEDATAROW_END
  1
TABLEROW_BEGIN
 90
        3
 40
13.75
309
TABLEROW_END
301
ROW
  1
LINKEDTABLEDATAROW_BEGIN
 90
        4
300
CELL
  1
LINKEDTABLEDATACELL_BEGIN
 90
        0
300

 91
        0
301
CUSTOMDATA
  1
DATAMAP_BEGIN
 90
        0
309
DATAMAP_END
 92
        0
 95
        2
302
CONTENT
  1
CELLCONTENT_BEGIN
 90
        1
300
VALUE
 93
        0
 90
        4
  1

 94
        0
300

302

304
ACVALUE_END
 91
        0
309
CELLCONTENT_END
  1
FORMATTEDCELLCONTENT_BEGIN
170
     1
300
CONTENTFORMAT
  1
CONTENTFORMAT_BEGIN
 90
      129
 91
        0
 92
        4
 93
        0
300

 40
0.0
140
1.0
 94
        1
 62
     0
340
0
144
7.5
309
CONTENTFORMAT_END
309
FORMATTEDCELLCONTENT_END
302
CONTENT
  1
CELLCONTENT_BEGIN
 90
        4
340
16A2
 91
        0
309
CELLCONTENT_END
  1
FORMATTEDCELLCONTENT_BEGIN
170
     1
300
CONTENTFORMAT
  1
CONTENTFORMAT_BEGIN
 90
      264
 91
      256
 92
      512
 93
        0
300

 40
0.0
140
1.0
 94
        1
 62
     0
340
0
144
0.18
309
CONTENTFORMAT_END
309
FORMATTEDCELLCONTENT_END
309
LINKEDTABLEDATACELL_END
  1
FORMATTEDTABLEDATACELL_BEGIN
300
CELLTABLEFORMAT
  1
TABLEFORMAT_BEGIN
 90
        1
170
     1
 91
   408592
 92
        0
 62
   257
 93
        1
300
CONTENTFORMAT
  1
CONTENTFORMAT_BEGIN
 90
       16
 91
        0
 92
      512
 93
        0
300

 40
0.0
140
1.0
 94
        5
 62
     0
340
0
144
0.18
309
CONTENTFORMAT_END
171
     1
301
MARGIN
  1
CELLMARGIN_BEGIN
 40
1.875
 40
1.875
 40
1.875
 40
1.875
 40
1.875
 40
1.875
309
CELLMARGIN_END
 94
        0
309
TABLEFORMAT_END
309
FORMATTEDTABLEDATACELL_END
  1
TABLECELL_BEGIN
 90
        3
 91
        0
309
TABLECELL_END
300
CELL
  1
LINKEDTABLEDATACELL_BEGIN
 90
        0
300

 91
        0
301
CUSTOMDATA
  1
DATAMAP_BEGIN
 90
        0
309
DATAMAP_END
 92
        0
 95
        1
302
CONTENT
  1
CELLCONTENT_BEGIN
 90
        1
300
VALUE
 93
        0
 90
        4
  1

 94
        0
300

302

304
ACVALUE_END
 91
        0
309
CELLCONTENT_END
  1
FORMATTEDCELLCONTENT_BEGIN
170
     1
300
CONTENTFORMAT
  1
CONTENTFORMAT_BEGIN
 90
      129
 91
        0
 92
        4
 93
        0
300

 40
0.0
140
1.0
 94
        1
 62
     0
340
0
144
7.5
309
CONTENTFORMAT_END
309
FORMATTEDCELLCONTENT_END
309
LINKEDTABLEDATACELL_END
  1
FORMATTEDTABLEDATACELL_BEGIN
300
CELLTABLEFORMAT
  1
TABLEFORMAT_BEGIN
 90
        1
170
     1
 91
   408592
 92
        0
 62
   257
 93
        1
300
CONTENTFORMAT
  1
CONTENTFORMAT_BEGIN
 90
       16
 91
        0
 92
      512
 93
        0
300

 40
0.0
140
1.0
 94
        5
 62
     0
340
0
144
0.18
309
CONTENTFORMAT_END
171
     1
301
MARGIN
  1
CELLMARGIN_BEGIN
 40
1.875
 40
1.875
 40
1.875
 40
1.875
 40
1.875
 40
1.875
309
CELLMARGIN_END
 94
        0
309
TABLEFORMAT_END
309
FORMATTEDTABLEDATACELL_END
  1
TABLECELL_BEGIN
 90
        3
 91
        0
309
TABLECELL_END
300
CELL
  1
LINKEDTABLEDATACELL_BEGIN
 90
        0
300

 91
        0
301
CUSTOMDATA
  1
DATAMAP_BEGIN
 90
        0
309
DATAMAP_END
 92
        0
 95
        1
302
CONTENT
  1
CELLCONTENT_BEGIN
 90
        1
300
VALUE
 93
        0
 90
        4
  1

 94
        0
300

302

304
ACVALUE_END
 91
        0
309
CELLCONTENT_END
  1
FORMATTEDCELLCONTENT_BEGIN
170
     1
300
CONTENTFORMAT
  1
CONTENTFORMAT_BEGIN
 90
      129
 91
        0
 92
        4
 93
        0
300

 40
0.0
140
1.0
 94
        1
 62
     0
340
0
144
7.5
309
CONTENTFORMAT_END
309
FORMATTEDCELLCONTENT_END
309
LINKEDTABLEDATACELL_END
  1
FORMATTEDTABLEDATACELL_BEGIN
300
CELLTABLEFORMAT
  1
TABLEFORMAT_BEGIN
 90
        1
170
     1
 91
   408592
 92
        0
 62
   257
 93
        1
300
CONTENTFORMAT
  1
CONTENTFORMAT_BEGIN
 90
       16
 91
        0
 92
      512
 93
        0
300

 40
0.0
140
1.0
 94
        5
 62
     0
340
0
144
0.18
309
CONTENTFORMAT_END
171
     1
301
MARGIN
  1
CELLMARGIN_BEGIN
 40
1.875
 40
1.875
 40
1.875
 40
1.875
 40
1.875
 40
1.875
309
CELLMARGIN_END
 94
        0
309
TABLEFORMAT_END
309
FORMATTEDTABLEDATACELL_END
  1
TABLECELL_BEGIN
 90
        3
 91
        0
309
TABLECELL_END
300
CELL
  1
LINKEDTABLEDATACELL_BEGIN
 90
        0
300

 91
        0
301
CUSTOMDATA
  1
DATAMAP_BEGIN
 90
        0
309
DATAMAP_END
 92
        0
 95
        1
302
CONTENT
  1
CELLCONTENT_BEGIN
 90
        1
300
VALUE
 93
        0
 90
        4
  1

 94
        0
300

302

304
ACVALUE_END
 91
        0
309
CELLCONTENT_END
  1
FORMATTEDCELLCONTENT_BEGIN
170
     1
300
CONTENTFORMAT
  1
CONTENTFORMAT_BEGIN
 90
      129
 91
        0
 92
        4
 93
        0
300

 40
0.0
140
1.0
 94
        1
 62
     0
340
0
144
7.5
309
CONTENTFORMAT_END
309
FORMATTEDCELLCONTENT_END
309
LINKEDTABLEDATACELL_END
  1
FORMATTEDTABLEDATACELL_BEGIN
300
CELLTABLEFORMAT
  1
TABLEFORMAT_BEGIN
 90
        1
170
     1
 91
   408592
 92
        0
 62
   257
 93
        1
300
CONTENTFORMAT
  1
CONTENTFORMAT_BEGIN
 90
       16
 91
        0
 92
      512
 93
        0
300

 40
0.0
140
1.0
 94
        4
 62
     0
340
0
144
0.18
309
CONTENTFORMAT_END
171
     1
301
MARGIN
  1
CELLMARGIN_BEGIN
 40
1.875
 40
1.875
 40
1.875
 40
1.875
 40
1.875
 40
1.875
309
CELLMARGIN_END
 94
        0
309
TABLEFORMAT_END
309
FORMATTEDTABLEDATACELL_END
  1
TABLECELL_BEGIN
 90
        3
 91
        0
309
TABLECELL_END
 91
        0
301
CUSTOMDATA
  1
DATAMAP_BEGIN
 90
        0
309
DATAMAP_END
309
LINKEDTABLEDATAROW_END
  1
FORMATTEDTABLEDATAROW_BEGIN
300
ROWTABLEFORMAT
  1
TABLEFORMAT_BEGIN
 90
        2
170
     1
 91
      128
 92
        0
 62
   257
 93
        1
300
CONTENTFORMAT
  1
CONTENTFORMAT_BEGIN
 90
      128
 91
        0
 92
      512
 93
        0
300

 40
0.0
140
1.0
 94
        1
 62
     0
340
0
144
7.5
309
CONTENTFORMAT_END
171
     0
 94
        0
309
TABLEFORMAT_END
309
FORMATTEDTABLEDATAROW_END
  1
TABLEROW_BEGIN
 90
        3
 40
13.75
309
TABLEROW_END
301
ROW
  1
LINKEDTABLEDATAROW_BEGIN
 90
        4
300
CELL
  1
LINKEDTABLEDATACELL_BEGIN
 90
        0
300

 91
        0
301
CUSTOMDATA
  1
DATAMAP_BEGIN
 90
        0
309
DATAMAP_END
 92
        0
 95
        2
302
CONTENT
  1
CELLCONTENT_BEGIN
 90
        1
300
VALUE
 93
        0
 90
        4
  1

 94
        0
300

302

304
ACVALUE_END
 91
        0
309
CELLCONTENT_END
  1
FORMATTEDCELLCONTENT_BEGIN
170
     1
300
CONTENTFORMAT
  1
CONTENTFORMAT_BEGIN
 90
      129
 91
        0
 92
        4
 93
        0
300

 40
0.0
140
1.0
 94
        1
 62
     0
340
0
144
7.5
309
CONTENTFORMAT_END
309
FORMATTEDCELLCONTENT_END
302
CONTENT
  1
CELLCONTENT_BEGIN
 90
        4
340
16AE
 91
        0
309
CELLCONTENT_END
  1
FORMATTEDCELLCONTENT_BEGIN
170
     1
300
CONTENTFORMAT
  1
CONTENTFORMAT_BEGIN
 90
      264
 91
      256
 92
      512
 93
        0
300

 40
0.0
140
1.0
 94
        1
 62
     0
340
0
144
0.18
309
CONTENTFORMAT_END
309
FORMATTEDCELLCONTENT_END
309
LINKEDTABLEDATACELL_END
  1
FORMATTEDTABLEDATACELL_BEGIN
300
CELLTABLEFORMAT
  1
TABLEFORMAT_BEGIN
 90
        1
170
     1
 91
   408592
 92
        0
 62
   257
 93
        1
300
CONTENTFORMAT
  1
CONTENTFORMAT_BEGIN
 90
       16
 91
        0
 92
      512
 93
        0
300

 40
0.0
140
1.0
 94
        5
 62
     0
340
0
144
0.18
309
CONTENTFORMAT_END
171
     1
301
MARGIN
  1
CELLMARGIN_BEGIN
 40
1.875
 40
1.875
 40
1.875
 40
1.875
 40
1.875
 40
1.875
309
CELLMARGIN_END
 94
        0
309
TABLEFORMAT_END
309
FORMATTEDTABLEDATACELL_END
  1
TABLECELL_BEGIN
 90
        3
 91
        0
309
TABLECELL_END
300
CELL
  1
LINKEDTABLEDATACELL_BEGIN
 90
        0
300

 91
        0
301
CUSTOMDATA
  1
DATAMAP_BEGIN
 90
        0
309
DATAMAP_END
 92
        0
 95
        1
302
CONTENT
  1
CELLCONTENT_BEGIN
 90
        1
300
VALUE
 93
        0
 90
        4
  1

 94
        0
300

302

304
ACVALUE_END
 91
        0
309
CELLCONTENT_END
  1
FORMATTEDCELLCONTENT_BEGIN
170
     1
300
CONTENTFORMAT
  1
CONTENTFORMAT_BEGIN
 90
      129
 91
        0
 92
        4
 93
        0
300

 40
0.0
140
1.0
 94
        1
 62
     0
340
0
144
7.5
309
CONTENTFORMAT_END
309
FORMATTEDCELLCONTENT_END
309
LINKEDTABLEDATACELL_END
  1
FORMATTEDTABLEDATACELL_BEGIN
300
CELLTABLEFORMAT
  1
TABLEFORMAT_BEGIN
 90
        1
170
     1
 91
   408592
 92
        0
 62
   257
 93
        1
300
CONTENTFORMAT
  1
CONTENTFORMAT_BEGIN
 90
       16
 91
        0
 92
      512
 93
        0
300

 40
0.0
140
1.0
 94
        5
 62
     0
340
0
144
0.18
309
CONTENTFORMAT_END
171
     1
301
MARGIN
  1
CELLMARGIN_BEGIN
 40
1.875
 40
1.875
 40
1.875
 40
1.875
 40
1.875
 40
1.875
309
CELLMARGIN_END
 94
        0
309
TABLEFORMAT_END
309
FORMATTEDTABLEDATACELL_END
  1
TABLECELL_BEGIN
 90
        3
 91
        0
309
TABLECELL_END
300
CELL
  1
LINKEDTABLEDATACELL_BEGIN
 90
        0
300

 91
        0
301
CUSTOMDATA
  1
DATAMAP_BEGIN
 90
        0
309
DATAMAP_END
 92
        0
 95
        1
302
CONTENT
  1
CELLCONTENT_BEGIN
 90
        1
300
VALUE
 93
        0
 90
        4
  1

 94
        0
300

302

304
ACVALUE_END
 91
        0
309
CELLCONTENT_END
  1
FORMATTEDCELLCONTENT_BEGIN
170
     1
300
CONTENTFORMAT
  1
CONTENTFORMAT_BEGIN
 90
      129
 91
        0
 92
        4
 93
        0
300

 40
0.0
140
1.0
 94
        1
 62
     0
340
0
144
7.5
309
CONTENTFORMAT_END
309
FORMATTEDCELLCONTENT_END
309
LINKEDTABLEDATACELL_END
  1
FORMATTEDTABLEDATACELL_BEGIN
300
CELLTABLEFORMAT
  1
TABLEFORMAT_BEGIN
 90
        1
170
     1
 91
   408592
 92
        0
 62
   257
 93
        1
300
CONTENTFORMAT
  1
CONTENTFORMAT_BEGIN
 90
       16
 91
        0
 92
      512
 93
        0
300

 40
0.0
140
1.0
 94
        5
 62
     0
340
0
144
0.18
309
CONTENTFORMAT_END
171
     1
301
MARGIN
  1
CELLMARGIN_BEGIN
 40
1.875
 40
1.875
 40
1.875
 40
1.875
 40
1.875
 40
1.875
309
CELLMARGIN_END
 94
        0
309
TABLEFORMAT_END
309
FORMATTEDTABLEDATACELL_END
  1
TABLECELL_BEGIN
 90
        3
 91
        0
309
TABLECELL_END
300
CELL
  1
LINKEDTABLEDATACELL_BEGIN
 90
        0
300

 91
        0
301
CUSTOMDATA
  1
DATAMAP_BEGIN
 90
        0
309
DATAMAP_END
 92
        0
 95
        1
302
CONTENT
  1
CELLCONTENT_BEGIN
 90
        1
300
VALUE
 93
        0
 90
        4
  1

 94
        0
300

302

304
ACVALUE_END
 91
        0
309
CELLCONTENT_END
  1
FORMATTEDCELLCONTENT_BEGIN
170
     1
300
CONTENTFORMAT
  1
CONTENTFORMAT_BEGIN
 90
      129
 91
        0
 92
        4
 93
        0
300

 40
0.0
140
1.0
 94
        1
 62
     0
340
0
144
7.5
309
CONTENTFORMAT_END
309
FORMATTEDCELLCONTENT_END
309
LINKEDTABLEDATACELL_END
  1
FORMATTEDTABLEDATACELL_BEGIN
300
CELLTABLEFORMAT
  1
TABLEFORMAT_BEGIN
 90
        1
170
     1
 91
   408592
 92
        0
 62
   257
 93
        1
300
CONTENTFORMAT
  1
CONTENTFORMAT_BEGIN
 90
       16
 91
        0
 92
      512
 93
        0
300

 40
0.0
140
1.0
 94
        4
 62
     0
340
0
144
0.18
309
CONTENTFORMAT_END
171
     1
301
MARGIN
  1
CELLMARGIN_BEGIN
 40
1.875
 40
1.875
 40
1.875
 40
1.875
 40
1.875
 40
1.875
309
CELLMARGIN_END
 94
        0
309
TABLEFORMAT_END
309
FORMATTEDTABLEDATACELL_END
  1
TABLECELL_BEGIN
 90
        3
 91
        0
309
TABLECELL_END
 91
        0
301
CUSTOMDATA
  1
DATAMAP_BEGIN
 90
        0
309
DATAMAP_END
309
LINKEDTABLEDATAROW_END
  1
FORMATTEDTABLEDATAROW_BEGIN
300
ROWTABLEFORMAT
  1
TABLEFORMAT_BEGIN
 90
        2
170
     1
 91
      128
 92
        0
 62
   257
 93
        1
300
CONTENTFORMAT
  1
CONTENTFORMAT_BEGIN
 90
      128
 91
        0
 92
      512
 93
        0
300

 40
0.0
140
1.0
 94
        1
 62
     0
340
0
144
7.5
309
CONTENTFORMAT_END
171
     0
 94
        0
309
TABLEFORMAT_END
309
FORMATTEDTABLEDATAROW_END
  1
TABLEROW_BEGIN
 90
        3
 40
13.75
309
TABLEROW_END
 92
        0
100
AcDbFormattedTableData
300
TABLEFORMAT
  1
TABLEFORMAT_BEGIN
 90
        4
170
     1
 91
   408576
 92
    65536
 62
   257
 93
        1
300
CONTENTFORMAT
  1
CONTENTFORMAT_BEGIN
 90
        0
 91
        0
 92
      512
 93
        0
300

 40
0.0
140
1.0
 94
        1
 62
     0
340
0
144
0.18
309
CONTENTFORMAT_END
171
     1
301
MARGIN
  1
CELLMARGIN_BEGIN
 40
1.875
 40
1.875
 40
1.875
 40
1.875
 40
0.075
 40
0.075
309
CELLMARGIN_END
 94
        0
309
TABLEFORMAT_END
 90
        0
100
AcDbTableContent
340
1660
  0
TABLEGEOMETRY
  5
1BB5
330
1BB8
100
AcDbTableGeometry
 90
        5
 91
        4
 92
       20
 93
        0
 40
0.0
 41
0.0
330
0
 94
        0
 93
        0
 40
0.0
 41
0.0
330
0
 94
        0
 93
        0
 40
0.0
 41
0.0
330
0
 94
        0
 93
        0
 40
0.0
 41
0.0
330
0
 94
        0
 93
        0
 40
0.0
 41
0.0
330
0
 94
        0
 93
        0
 40
0.0
 41
0.0
330
0
 94
        0
 93
        0
 40
0.0
 41
0.0
330
0
 94
        0
 93
        0
 40
0.0
 41
0.0
330
0
 94
        0
 93
        0
 40
0.0
 41
0.0
330
0
 94
        0
 93
        0
 40
0.0
 41
0.0
330
0
 94
        0
 93
        0
 40
0.0
 41
0.0
330
0
 94
        0
 93
        0
 40
0.0
 41
0.0
330
0
 94
        0
 93
        0
 40
0.0
 41
0.0
330
0
 94
        0
 93
        0
 40
0.0
 41
0.0
330
0
 94
        0
 93
        0
 40
0.0
 41
0.0
330
0
 94
        0
 93
        0
 40
0.0
 41
0.0
330
0
 94
        0
 93
        0
 40
0.0
 41
0.0
330
0
 94
        0
 93
        0
 40
0.0
 41
0.0
330
0
 94
        0
 93
        0
 40
0.0
 41
0.0
330
0
 94
        0
 93
        0
 40
0.0
 41
0.0
330
0
 94
        0
  0
DICTIONARY
  5
1912
102
{ACAD_REACTORS
330
1911
102
}
330
1911
100
AcDbDictionary
281
     1
  0
DICTIONARY
  5
1916
102
{ACAD_REACTORS
330
1915
102
}
330
1915
100
AcDbDictionary
281
     1
  0
DICTIONARY
  5
191A
102
{ACAD_REACTORS
330
1919
102
}
330
1919
100
AcDbDictionary
281
     1
  0
DICTIONARY
  5
191E
102
{ACAD_REACTORS
330
191D
102
}
330
191D
100
AcDbDictionary
281
     1
  0
DICTIONARY
  5
1922
102
{ACAD_REACTORS
330
1921
102
}
330
1921
100
AcDbDictionary
281
     1
  0
DICTIONARY
  5
1926
102
{ACAD_REACTORS
330
1925
102
}
330
1925
100
AcDbDictionary
281
     1
  0
DICTIONARY
  5
192B
102
{ACAD_REACTORS
330
192A
102
}
330
192A
100
AcDbDictionary
281
     1
  0
DICTIONARY
  5
192F
102
{ACAD_REACTORS
330
192E
102
}
330
192E
100
AcDbDictionary
281
     1
  0
DICTIONARY
  5
1933
102
{ACAD_REACTORS
330
1932
102
}
330
1932
100
AcDbDictionary
281
     1
  0
DICTIONARY
  5
1BBB
330
1660
100
AcDbDictionary
280
     1
281
     1
  3
ACAD_ROUNDTRIP_2008_TABLESTYLE_CELLSTYLEMAP
360
1BBC
  0
DICTIONARY
  5
1BB9
330
15E9
100
AcDbDictionary
280
     1
281
     1
  3
ACAD_ROUNDTRIP_2008_TABLESTYLE_CELLSTYLEMAP
360
1BBA
  0
CELLSTYLEMAP
  5
1BBC
102
{ACAD_REACTORS
330
1BBB
102
}
330
1BBB
100
AcDbCellStyleMap
 90
        3
300
CELLSTYLE
  1
TABLEFORMAT_BEGIN
 90
        5
170
     1
 91
        0
 92
    32768
 62
   257
 93
        1
300
CONTENTFORMAT
  1
CONTENTFORMAT_BEGIN
 90
        0
 91
        0
 92
        4
 93
        0
300

 40
0.0
140
1.0
 94
        5
 62
     0
340
165B
144
1.0
309
CONTENTFORMAT_END
171
     1
301
MARGIN
  1
CELLMARGIN_BEGIN
 40
1.5
 40
1.5
 40
1.5
 40
1.5
 40
1.5
 40
1.5
309
CELLMARGIN_END
 94
        6
 95
        1
302
GRIDFORMAT
  1
GRIDFORMAT_BEGIN
 90
        0
 91
        1
 62
     0
 92
       -2
340
11
 93
        0
 40
0.045
309
GRIDFORMAT_END
 95
        2
302
GRIDFORMAT
  1
GRIDFORMAT_BEGIN
 90
        0
 91
        1
 62
     0
 92
       -2
340
11
 93
        0
 40
0.045
309
GRIDFORMAT_END
 95
        4
302
GRIDFORMAT
  1
GRIDFORMAT_BEGIN
 90
        0
 91
        1
 62
     0
 92
       -2
340
11
 93
        0
 40
0.045
309
GRIDFORMAT_END
 95
        8
302
GRIDFORMAT
  1
GRIDFORMAT_BEGIN
 90
        0
 91
        1
 62
     0
 92
       -2
340
11
 93
        0
 40
0.045
309
GRIDFORMAT_END
 95
       16
302
GRIDFORMAT
  1
GRIDFORMAT_BEGIN
 90
        0
 91
        1
 62
     0
 92
       -2
340
11
 93
        0
 40
0.045
309
GRIDFORMAT_END
 95
       32
302
GRIDFORMAT
  1
GRIDFORMAT_BEGIN
 90
        0
 91
        1
 62
     0
 92
       -2
340
11
 93
        0
 40
0.045
309
GRIDFORMAT_END
309
TABLEFORMAT_END
  1
CELLSTYLE_BEGIN
 90
        1
 91
        1
300
_TITLE
309
CELLSTYLE_END
300
CELLSTYLE
  1
TABLEFORMAT_BEGIN
 90
        5
170
     1
 91
        0
 92
        0
 62
   257
 93
        1
300
CONTENTFORMAT
  1
CONTENTFORMAT_BEGIN
 90
        0
 91
        0
 92
        4
 93
        0
300

 40
0.0
140
1.0
 94
        5
 62
     0
340
165B
144
6.0
309
CONTENTFORMAT_END
171
     1
301
MARGIN
  1
CELLMARGIN_BEGIN
 40
1.5
 40
1.5
 40
1.5
 40
1.5
 40
1.5
 40
1.5
309
CELLMARGIN_END
 94
        6
 95
        1
302
GRIDFORMAT
  1
GRIDFORMAT_BEGIN
 90
        0
 91
        1
 62
     0
 92
       -2
340
11
 93
        0
 40
0.045
309
GRIDFORMAT_END
 95
        2
302
GRIDFORMAT
  1
GRIDFORMAT_BEGIN
 90
        0
 91
        1
 62
     0
 92
       -2
340
11
 93
        0
 40
0.045
309
GRIDFORMAT_END
 95
        4
302
GRIDFORMAT
  1
GRIDFORMAT_BEGIN
 90
        0
 91
        1
 62
     0
 92
       -2
340
11
 93
        0
 40
0.045
309
GRIDFORMAT_END
 95
        8
302
GRIDFORMAT
  1
GRIDFORMAT_BEGIN
 90
        0
 91
        1
 62
     0
 92
       -2
340
11
 93
        0
 40
0.045
309
GRIDFORMAT_END
 95
       16
302
GRIDFORMAT
  1
GRIDFORMAT_BEGIN
 90
        0
 91
        1
 62
     0
 92
       -2
340
11
 93
        0
 40
0.045
309
GRIDFORMAT_END
 95
       32
302
GRIDFORMAT
  1
GRIDFORMAT_BEGIN
 90
        0
 91
        1
 62
     0
 92
       -2
340
11
 93
        0
 40
0.045
309
GRIDFORMAT_END
309
TABLEFORMAT_END
  1
CELLSTYLE_BEGIN
 90
        2
 91
        1
300
_HEADER
309
CELLSTYLE_END
300
CELLSTYLE
  1
TABLEFORMAT_BEGIN
 90
        5
170
     1
 91
        0
 92
        0
 62
   257
 93
        1
300
CONTENTFORMAT
  1
CONTENTFORMAT_BEGIN
 90
        0
 91
        0
 92
        4
 93
        0
300

 40
0.0
140
1.0
 94
        2
 62
     0
340
165B
144
6.0
309
CONTENTFORMAT_END
171
     1
301
MARGIN
  1
CELLMARGIN_BEGIN
 40
1.5
 40
1.5
 40
1.5
 40
1.5
 40
1.5
 40
1.5
309
CELLMARGIN_END
 94
        6
 95
        1
302
GRIDFORMAT
  1
GRIDFORMAT_BEGIN
 90
        0
 91
        1
 62
     0
 92
       -2
340
11
 93
        0
 40
0.045
309
GRIDFORMAT_END
 95
        2
302
GRIDFORMAT
  1
GRIDFORMAT_BEGIN
 90
        0
 91
        1
 62
     0
 92
       -2
340
11
 93
        0
 40
0.045
309
GRIDFORMAT_END
 95
        4
302
GRIDFORMAT
  1
GRIDFORMAT_BEGIN
 90
        0
 91
        1
 62
     0
 92
       -2
340
11
 93
        0
 40
0.045
309
GRIDFORMAT_END
 95
        8
302
GRIDFORMAT
  1
GRIDFORMAT_BEGIN
 90
        0
 91
        1
 62
     0
 92
       -2
340
11
 93
        0
 40
0.045
309
GRIDFORMAT_END
 95
       16
302
GRIDFORMAT
  1
GRIDFORMAT_BEGIN
 90
        0
 91
        1
 62
     0
 92
       -2
340
11
 93
        0
 40
0.045
309
GRIDFORMAT_END
 95
       32
302
GRIDFORMAT
  1
GRIDFORMAT_BEGIN
 90
        0
 91
        1
 62
     0
 92
       -2
340
11
 93
        0
 40
0.045
309
GRIDFORMAT_END
309
TABLEFORMAT_END
  1
CELLSTYLE_BEGIN
 90
        3
 91
        2
300
_DATA
309
CELLSTYLE_END
  0
CELLSTYLEMAP
  5
1BBA
102
{ACAD_REACTORS
330
1BB9
102
}
330
1BB9
100
AcDbCellStyleMap
 90
        3
300
CELLSTYLE
  1
TABLEFORMAT_BEGIN
 90
        5
170
     1
 91
        0
 92
    32768
 62
   257
 93
        1
300
CONTENTFORMAT
  1
CONTENTFORMAT_BEGIN
 90
        0
 91
        0
 92
        4
 93
        0
300

 40
0.0
140
1.0
 94
        5
 62
     0
340
17
144
0.25
309
CONTENTFORMAT_END
171
     1
301
MARGIN
  1
CELLMARGIN_BEGIN
 40
0.06
 40
0.06
 40
0.06
 40
0.06
 40
0.06
 40
0.06
309
CELLMARGIN_END
 94
        6
 95
        1
302
GRIDFORMAT
  1
GRIDFORMAT_BEGIN
 90
        0
 91
        1
 62
     0
 92
       -2
340
11
 93
        0
 40
0.045
309
GRIDFORMAT_END
 95
        2
302
GRIDFORMAT
  1
GRIDFORMAT_BEGIN
 90
        0
 91
        1
 62
     0
 92
       -2
340
11
 93
        0
 40
0.045
309
GRIDFORMAT_END
 95
        4
302
GRIDFORMAT
  1
GRIDFORMAT_BEGIN
 90
        0
 91
        1
 62
     0
 92
       -2
340
11
 93
        0
 40
0.045
309
GRIDFORMAT_END
 95
        8
302
GRIDFORMAT
  1
GRIDFORMAT_BEGIN
 90
        0
 91
        1
 62
     0
 92
       -2
340
11
 93
        0
 40
0.045
309
GRIDFORMAT_END
 95
       16
302
GRIDFORMAT
  1
GRIDFORMAT_BEGIN
 90
        0
 91
        1
 62
     0
 92
       -2
340
11
 93
        0
 40
0.045
309
GRIDFORMAT_END
 95
       32
302
GRIDFORMAT
  1
GRIDFORMAT_BEGIN
 90
        0
 91
        1
 62
     0
 92
       -2
340
11
 93
        0
 40
0.045
309
GRIDFORMAT_END
309
TABLEFORMAT_END
  1
CELLSTYLE_BEGIN
 90
        1
 91
        1
300
_TITLE
309
CELLSTYLE_END
300
CELLSTYLE
  1
TABLEFORMAT_BEGIN
 90
        5
170
     1
 91
        0
 92
        0
 62
   257
 93
        1
300
CONTENTFORMAT
  1
CONTENTFORMAT_BEGIN
 90
        0
 91
        0
 92
        4
 93
        0
300

 40
0.0
140
1.0
 94
        5
 62
     0
340
17
144
0.18
309
CONTENTFORMAT_END
171
     1
301
MARGIN
  1
CELLMARGIN_BEGIN
 40
0.06
 40
0.06
 40
0.06
 40
0.06
 40
0.06
 40
0.06
309
CELLMARGIN_END
 94
        6
 95
        1
302
GRIDFORMAT
  1
GRIDFORMAT_BEGIN
 90
        0
 91
        1
 62
     0
 92
       -2
340
11
 93
        0
 40
0.045
309
GRIDFORMAT_END
 95
        2
302
GRIDFORMAT
  1
GRIDFORMAT_BEGIN
 90
        0
 91
        1
 62
     0
 92
       -2
340
11
 93
        0
 40
0.045
309
GRIDFORMAT_END
 95
        4
302
GRIDFORMAT
  1
GRIDFORMAT_BEGIN
 90
        0
 91
        1
 62
     0
 92
       -2
340
11
 93
        0
 40
0.045
309
GRIDFORMAT_END
 95
        8
302
GRIDFORMAT
  1
GRIDFORMAT_BEGIN
 90
        0
 91
        1
 62
     0
 92
       -2
340
11
 93
        0
 40
0.045
309
GRIDFORMAT_END
 95
       16
302
GRIDFORMAT
  1
GRIDFORMAT_BEGIN
 90
        0
 91
        1
 62
     0
 92
       -2
340
11
 93
        0
 40
0.045
309
GRIDFORMAT_END
 95
       32
302
GRIDFORMAT
  1
GRIDFORMAT_BEGIN
 90
        0
 91
        1
 62
     0
 92
       -2
340
11
 93
        0
 40
0.045
309
GRIDFORMAT_END
309
TABLEFORMAT_END
  1
CELLSTYLE_BEGIN
 90
        2
 91
        1
300
_HEADER
309
CELLSTYLE_END
300
CELLSTYLE
  1
TABLEFORMAT_BEGIN
 90
        5
170
     1
 91
        0
 92
        0
 62
   257
 93
        1
300
CONTENTFORMAT
  1
CONTENTFORMAT_BEGIN
 90
        0
 91
        0
 92
        4
 93
        0
300

 40
0.0
140
1.0
 94
        2
 62
     0
340
17
144
0.18
309
CONTENTFORMAT_END
171
     1
301
MARGIN
  1
CELLMARGIN_BEGIN
 40
0.06
 40
0.06
 40
0.06
 40
0.06
 40
0.06
 40
0.06
309
CELLMARGIN_END
 94
        6
 95
        1
302
GRIDFORMAT
  1
GRIDFORMAT_BEGIN
 90
        0
 91
        1
 62
     0
 92
       -2
340
11
 93
        0
 40
0.045
309
GRIDFORMAT_END
 95
        2
302
GRIDFORMAT
  1
GRIDFORMAT_BEGIN
 90
        0
 91
        1
 62
     0
 92
       -2
340
11
 93
        0
 40
0.045
309
GRIDFORMAT_END
 95
        4
302
GRIDFORMAT
  1
GRIDFORMAT_BEGIN
 90
        0
 91
        1
 62
     0
 92
       -2
340
11
 93
        0
 40
0.045
309
GRIDFORMAT_END
 95
        8
302
GRIDFORMAT
  1
GRIDFORMAT_BEGIN
 90
        0
 91
        1
 62
     0
 92
       -2
340
11
 93
        0
 40
0.045
309
GRIDFORMAT_END
 95
       16
302
GRIDFORMAT
  1
GRIDFORMAT_BEGIN
 90
        0
 91
        1
 62
     0
 92
       -2
340
11
 93
        0
 40
0.045
309
GRIDFORMAT_END
 95
       32
302
GRIDFORMAT
  1
GRIDFORMAT_BEGIN
 90
        0
 91
        1
 62
     0
 92
       -2
340
11
 93
        0
 40
0.045
309
GRIDFORMAT_END
309
TABLEFORMAT_END
  1
CELLSTYLE_BEGIN
 90
        3
 91
        2
300
_DATA
309
CELLSTYLE_END
  0
ENDSEC
  0
SECTION
  2
THUMBNAILIMAGE
 90
    24616
310
28000000800000004000000001001800000000000060000000000000000000000000000000000000000000000000000000000000000000000000000000000000000000000000000000000000000000000000000000000000000000000000000000000000FFFFFFFFFFFFFFFFFFFFFFFFFFFFFFFFFFFFFFFFFFFFFFFFFFFFFF
310
FFFFFFFFFFFFFFFFFFFFFFFFFFFFFFFFFFFFFFFFFFFFFFFFFFFFFFFFFFFFFFFFFFFFFFFFFFFFFFFFFFFFFFFFFFFFFFFFFFFFFFFFFFFFFFFFFFFFFFFFFFFFFFFFFFFFFFFFFFFFFFFFFFFFFFFFFFFFFFFFFFFFFFFFFFFFFFFFFFFFFFFFFFFFFFFFFFFFFFFFFFFFFFFFFFFFFFFFFFFFFFFFFFFFFFFFFFFFFFFFFFFFFFFFFFFFFF
310
FFFFFFFFFFFFFFFFFFFFFFFFFFFFFFFFFFFFFFFFFFFFFFFFFFFFFFFFFFFFFFFFFFFFFFFFFFFFFFFFFFFFFFFFFFFFFFFFFFFFFFFFFFFFFFFFFFFFFFFFFFFFFFFFFFFFFFFFFFFFFFFFFFFFFFFFFFFFFFFFFFFFFFFFFFFFFFFFFFFFFFFFFFFFFFFFFFFFFFFFFFFFFFFFFFFFFFFFFFFFFFFFFF0000000000000000000000000000
310
00000000000000000000000000000000000000000000000000000000000000000000000000000000000000000000000000000000000000000000000000000000000000000000000000000000000000000000000000000000000000000000000000000000000000FFFFFF000000000000000000000000000000000000000000
310
00000000000000000000000000000000000000000000000000000000000000000000000000000000000000000000000000000000000000000000000000000000000000000000000000000000000000000000000000000000000000000000000000000000000000000000000000000000000000000000000000000000000000
310
0000000000000000000000000000000000000000000000000000000000000000000000000000000000000000000000000000000000000000000000000000000000000000000000000000000000000000000000000000000000000000000000000000000000000000000000000000000000FFFFFF0000000000000000000000
310
00000000000000000000000000000000000000000000000000000000000000000000000000000000000000000000000000000000000000000000000000000000000000000000000000000000000000000000000000000000000000000000000000000000000000000000FFFFFF00000000BFFF00BFFF00BFFF00BFFF00BFFF
310
00BFFF00BFFF00BFFF00BFFF00BFFF00BFFF00BFFF00BFFF00BFFF00BFFF00BFFF00BFFF00BFFF00BFFF00BFFF00BFFF00BFFF00BFFF00BFFF00BFFF00BFFF00BFFF00BFFF00BFFF00BFFF00BFFF00BFFF00BFFF00BFFF00BFFF00BFFF00BFFF00BFFF00BFFF00BFFF00BFFF00BFFF00BFFF00BFFF00BFFF00BFFF00BFFFFF
310
FFFFFFFFFFFFFFFFFFFFFFFFFFFFFFFFFFFFFFFFFFFFFFFFFFFFFFFFFFFFFFFFFFFFFFFFFFFFFFFFFFFFFFFFFFFFFFFFFFFFFFFFFFFFFFFFFFFFFFFFFFFFFFFFFFFFFFFFFFFFFFFFFFFFFFFFFFFFFFFF007299FFFFFFFFFFFFFFFFFFFFFFFFFFFFFFFFFFFFFFFFFFFFFFFFFFFFFFFFFFFF000000FFFFFF0000000000000000
310
00000000000000000000000000000000000000000000000000000000000000000000000000000000000000000000000000000000000000000000000000000000000000000000000000000000000000000000000000000000000000000000000000000000000000000000000000FFFFFF00000000BFFF000000000000000000
310
00000000000000000000000000000000000000000000000000000000000000000000000000000000000000000000000000000000000000000000000000000000000000000000000000000000000000000000000000000000000000000000000000000000000000000000000000000000000000000000000000000000000000
310
0000FFFFFFFFFFFFFFFFFFFFFFFFFFFFFFFFFFFFFFFFFFFFFFFFFFFFFFFFFFFFFFFFFFFFFFFFFFFFFFFFFFFFFFFFFFFFFFFFFFFFFFFFFFFFFFFFFFFFFFFFFFFFFFFFFFFFFFFFFFFFFFFF007299007299007299007299FFFFFFFFFFFFFFFFFFFFFFFFFFFFFFFFFFFFFFFFFFFFFFFFFFFFFFFFFFFF000000FFFFFF0000000000
310
00000000000000000000000000000000000000000000000000000000000000000000000000000000000000000000000000000000000000000000000000000000000000000000000000000000000000000000000000000000000000000000000000000000000000000000000000000000FFFFFF00000000BFFF000000000000
310
00000000000000000000000000000000000000000000000000000000000000000000000000000000000000000000000000000000000000000000000000000000000000000000000000000000000000000000000000000000000000000000000000000000000000000000000000000000000000000000000000000000000000
310
0000000000FFFFFFFFFFFFFFFFFFFFFFFFFFFFFFFFFFFFFFFFFFFFFFFFFFFFFFFFFFFFFFFFFFFFFFFFFFFFFFFFFFFFFFFFFFFFFFFFFFFFFFFFFFFFFFFFFFFFFFFFFFFFFFFFFFFFFFFFFFFFFFFF007299007299007299007299FFFFFFFFFFFFFFFFFFFFFFFFFFFFFFFFFFFF000000000000000000FFFFFF000000FFFFFF0000
310
00000000000000000000000000000000000000000000000000000000000000000000000000000000000000000000000000000000000000000000000000000000000000000000000000000000000000000000000000000000000000000000000000000000000000000000000000000000000000FFFFFF00000000BFFF000000
310
00000000000000000000000000000000000000000000000000000000000000000000000000000000000000000000000000000000000000000000000000000000000000000000000000000000000000000000000000000000000000000000000000000000000000000000000000000000000000000000000000000000000000
310
0000000000000000FFFFFFFFFFFFFFFFFFFFFFFFFFFFFFFFFFFFFFFFFFFFFFFFFFFFFFFFFFFFFFFFFFFFFFFFFFFFFFFFFFFFFFFFFFFFFFFFFFFFFFFFFFFFFFFFFFFFFFFFFFFFFFFFFFFFFFFFFFFFFFFFFFFFFF007299FFFFFFFFFFFFFFFFFFFFFFFFFFFFFFFFFFFFFFFFFFFFFFFFFFFFFFFFFFFFFFFFFFFFFFFF000000FFFF
310
FF000000000000000000000000000000000000000000000000000000000000000000000000000000000000000000000000000000000000000000000000000000000000000000000000000000000000000000000000000000000000000000000000000000000000000000000000000000000000000000FFFFFF00000000BFFF
310
00000000000000000000000000000000000000000000000000000000000000000000000000000000000000000000000000000000000000000000000000000000000000000000000000000000000000000000000000000000000000000000000000000000000000000000000000000000000000000000000000000000000000
310
0000000000000000000000000000000000000000000000000000000000000000000000000000000000000000000000000000000000000000000000000000000000000000000000000000000000000000FFFFFF007299007299007299FFFFFFFFFFFFFFFFFFFFFFFFFFFFFFFFFFFFFFFFFFFFFFFFFFFFFFFFFFFFFFFFFF0000
310
00FFFFFF000000000000000000000000000000000000000000000000000000000000000000000000000000000000000000000000000000000000000000000000000000000000000000000000000000000000000000000000000000000000000000000000000000000000000000000000000000000000000000FFFFFF000000
310
00BFFF00000000000000000000000000000000000000000000000000000000000000000000000000000000000000000000000000000000000000000000000000000000000000000000000000000000000000000000000000000000000000000000000000000000000000000000000000000000000000000000000000000000
310
0000000000000000000000000000000000000000000000000000000000000000000000000000000000000000000000000000000000000000000000000000000000000000000000000000000000000000000000FFFFFFFFFFFFFFFFFFFFFFFFFFFFFFFFFFFFFFFFFFFFFFFFFFFFFFFFFFFFFFFFFFFFFFFFFFFFFF000000FFFF
310
FF000000FFFFFF000000000000000000000000000000000000000000000000000000000000000000000000000000000000000000000000000000000000000000000000000000000000000000000000000000000000000000000000000000000000000000000000000000000000000000000000000000000000000000FFFFFF
310
00000000BFFF000000000000000000000000000000000000000000000000000000000000000000000000000000000000000000000000000000000000000000000000000000000000000000000000000000000000FFFFFF00000000000000000000000000000000000000000000000000000000000000000000000000000000
310
0000000000000000000000000000000000000000000000000000000000000000000000000000000000000000000000000000000000000000000000000000000000000000000000000000000000000000000000000000FFFFFFFFFFFFFFFFFFFFFFFFFFFFFFFFFFFFFFFFFFFFFFFFFFFFFFFFFFFFFFFFFFFFFFFFFFFFFFFFFF
310
FFFFFFFF000000FFFFFF000000000000000000000000000000000000000000000000000000000000000000000000000000000000000000000000000000000000000000000000000000000000000000000000000000000000000000000000000000000000000000000000000000000000000000000000000000000000000000
310
FFFFFF00000000BFFF000000000000000000000000000000000000000000000000000000000000000000000000000000000000000000000000000000000000000000000000000000000000000000000000000000000000000000FFFFFF00000000000000000000000000000000000000000000000000000000000000000000
310
0000000000000000000000000000000000000000000000000000000000000000000000000000000000000000000000000000000000000000000000000000000000000000000000000000000000000000000000000000000000FFFFFFFFFFFFFFFFFFFFFFFFFFFFFFFFFFFFFFFFFFFFFFFFFFFFFFFFFFFFFFFFFF0000000000
310
00000000FFFFFF000000FFFFFF000000000000000000000000000000000000000000000000000000000000000000000000000000000000000000000000000000000000000000000000000000000000000000000000000000000000000000000000000000000000000000000000000000000000000000000000000000000000
310
000000FFFFFF00000000BFFF000000000000000000000000000000000000000000000000000000000000000000000000000000000000000000000000000000000000000000000000000000000000000000000000000000000000000000000000FFFFFF00000000000000000000000000000000000000000000000000000000
310
0000000000000000000000000000000000000000000000000000000000000000000000000000000000000000000000000000000000000000000000000000000000000000000000000000000000000000000000000000000000000000FFFFFFFFFFFF007299FFFFFF007299FFFFFFFFFFFFFFFFFFFFFFFFFFFFFFFFFFFFFFFF
310
FFFFFFFFFFFFFFFFFFFF000000FFFFFF000000000000000000000000000000000000000000000000000000000000000000000000000000000000000000000000000000000000000000000000000000000000000000000000000000000000000000000000000000000000000000000000000000000000000000000000000000
310
000000000000FFFFFF00000000BFFF000000000000000000000000000000000000000000000000000000000000000000000000000000000000000000000000000000000000000000000000000000000000000000000000000000000000000000000000000000FFFFFF00000000000000000000000000000000000000000000
310
0000000000000000000000000000000000000000000000000000000000000000000000000000000000000000000000000000000000000000000000000000000000000000000000000000000000000000000000000000000000000000000000000000FFFFFFFFFFFFFFFFFFFFFFFFFFFFFFFFFFFFFFFFFFFFFFFFFFFFFFFFFF
310
FFFFFFFFFFFFFFFFFFFFFFFFFF000000FFFFFF000000000000000000000000000000000000000000000000000000000000000000000000000000000000000000000000000000000000000000000000000000000000000000000000000000000000000000000000000000000000000000000000000000000000000000000000
310
000000000000000000FFFFFF00000000BFFF000000000000000000000000000000000000000000000000000000000000000000000000000000000000000000000000000000000000000000000000000000000000000000000000000000000000000000000000000000000000FFFFFFFFFFFF00000000000000000000000000
310
00000000000000000000000000000000000000000000000000000000000000000000000000000000000000000000000000000000000000000000000000000000000000000000000000000000000000000000000000000000000000000000000000000000000000000000000000000000000000000000000000000000000000
310
0000000000000000000000000000BFFF000000FFFFFF000000000000000000000000000000000000000000000000000000000000000000000000000000000000000000000000000000000000000000000000000000000000000000000000000000000000000000000000000000000000000000000000000000000000000000
310
000000000000000000000000FFFFFF00000000BFFF000000000000000000000000000000000000000000000000000000000000000000000000000000000000000000000000000000000000000000000000000000000000000000000000000000000000000000000000000000000000000000FFFFFFFFFFFF00000000000000
310
0000000000000000000000000000000000000000000000FFFFFF0072990000000000000000000000000000000000000000000000000000000000000000000000000000000000000000000000000000000000000000000000000000000000000000000000000000000000000000000000000000000000000000000000000000
310
0000000000000000000000000000000000BFFF000000FFFFFF000000000000000000000000000000000000000000000000000000000000000000000000000000000000000000000000000000000000000000000000000000000000000000000000000000000000000000000000000000000000000000000000000000000000
310
000000000000000000000000000000FFFFFF00000000BFFF000000000000000000000000000000000000000000000000000000000000000000000000000000000000000000000000000000000000000000000000000000000000000000000000000000000000000000000000000000000000000000000000FFFFFFFFFFFF00
310
0000000000000000000000000000000000000000000000000000FFFFFF0072990000000000000000000000000000000000000000000000000000000000000000000000000000000000000000000000000000000000000000000000000000000000000000000000000000000000000000000000000000000000000000000000
310
0000000000000000000000000000000000000000BFFF000000FFFFFF000000000000000000000000000000000000000000000000000000000000000000000000000000000000000000000000000000000000000000000000000000000000000000000000000000000000000000000000000000000000000000000000000000
310
000000000000000000000000000000000000FFFFFF00000000BFFF000000000000000000000000000000000000000000000000000000000000000000000000000000000000000000000000000000000000000000000000000000000000000000000000000000000000000000000000000000000000000000000000000000FF
310
FFFFFFFFFF000000000000000000000000000000000000000000000000FFFFFF0072990000000000000000000000000000000000000000000000000000000000000000000000000000000000000000000000000000000000000000000000000000000000000000000000000000000000000000000000000000000000000000
310
0000000000000000000000000000000000000000000000BFFF000000FFFFFF000000000000000000000000000000000000000000000000000000000000000000000000000000000000000000000000000000000000000000000000000000000000000000000000000000000000000000000000000000000000000000000000
310
000000000000000000000000000000000000000000FFFFFF00000000BFFF000000000000000000000000000000000000000000000000000000000000000000000000000000000000000000000000000000000000000000FFFFFFFFFFFFFFFFFFFFFFFFFFFFFFFFFFFFFFFFFFFFFFFFFFFFFFFFFFFFFFFFFFFFFFFFFFFFFFFF
310
FFFFFFFFFFFFFFFFFFFFFFFFFFFFFFFFFFFFFFFFFFFFFFFFFFFFFFFFFFFFFFFFFFFFFFFFFFFFFFFFFFFFFFFFFFFFFFFFFFFFFFFFFFFFFFFF0000000000000000000000000000000000000000000000000000000000000000000000000000000000000000000000000000000000000000000000000000000000000000000000
310
0000000000000000000000000000000000000000000000000000BFFF000000FFFFFF000000000000000000000000000000000000000000000000000000000000000000000000000000000000000000000000000000000000000000000000000000000000000000000000000000000000000000000000000000000000000000
310
000000000000000000000000000000000000000000000000FFFFFF00000000BFFF000000000000000000000000000000000000000000000000000000000000000000000000000000000000000000000000000000000000000000FFFFFFFFFFFFFFFFFFFFFFFFFFFFFFFFFFFFFFFFFFFFFFFFFFFFFFFFFFFFFFFFFFFFFFFFFF
310
FFFFFFFFFFFFFFFFFFFFFFFFFFFFFFFFFFFFFFFFFFFFFFFFFFFFFFFFFFFFFFFFFFFFFFFFFFFFFFFFFFFFFFFFFFFFFFFFFF00FFFF00FFFF00FFFF000000000000000000000000000000000000000000000000000000000000000000000000000000000000000000000000000000000000000000000000000000000000000000
310
0000000000000000000000000000000000000000000000000000000000BFFF000000FFFFFF000000000000000000000000000000000000000000000000000000000000000000000000000000000000000000000000000000000000000000000000000000000000000000000000000000000000000000000000000000000000
310
000000000000000000000000000000000000000000000000000000FFFFFF00000000BFFF00000000000000000000000000000000000000000000000000000000000000000000000000000000000000000000000000000000000000000000000000000000000000000000000000000000000000000000000000000000000000
310
0000FFFFFF000000000000000000000000000000000000000000000000000000FFFFFFFFFF00000000000000FFFFFFFFFFFFFFFF00FFFF00FFFF00FFFF000000000000000000000000000000000000000000000000000000000000000000000000000000000000000000000000000000000000000000000000000000000000
310
0000000000000000000000000000000000000000000000000000000000000000BFFF000000FFFFFF000000000000000000000000000000000000000000000000000000000000000000000000000000000000000000000000000000000000000000000000000000000000000000000000000000000000000000000000000000
310
000000000000000000000000000000000000000000000000000000000000FFFFFF00000000BFFF00000000000000000000000000000000000000000000000000000000000000000000000000000000000000000000000000000000000000000000000000000000000000000000000000000000000000000000000000000000
310
0000000000FFFFFF000000000000000000000000000000000000000000000000000000FFFFFFFFFF00FFFF00FFFF00FFFFFFFFFFFFFFFF00FFFF00FFFF00FFFF00000000FFFFFFFFFFFFFFFFFFFFFFFFFFFFFF0000000000000000000000000000000000000000000000000000000000000000000000000000000000000000
310
0000000000000000000000000000000000000000000000000000000000000000000000BFFF000000FFFFFF000000000000000000000000000000000000000000000000000000000000000000000000000000000000000000000000000000000000000000000000000000000000000000000000000000000000000000000000
310
000000000000000000000000000000000000000000000000000000000000000000FFFFFF00000000BFFF00000000000000000000000000000000000000000000000000000000000000000000000000000000000000000000000000000000000000000000000000000000000000000000000000000000000000000000000000
310
0000000000FFFFFF000000000000000000000000000000000000000000000000000000FFFFFF000000000000000000FFFFFFFFFFFFFFFFFFFFFF00FFFF00FFFF00FFFF00FFFFFF000000FFFFFFFFFFFFFFFFFFFFFFFF0000000000000000000000000000000000000000000000000000000000000000000000000000000000
310
0000000000000000000000000000000000000000000000000000000000000000000000000000BFFF000000FFFFFF000000000000000000000000000000000000000000000000000000000000000000000000000000000000000000000000000000000000000000000000000000000000000000000000000000000000000000
310
000000000000000000000000000000000000000000000000000000000000000000000000FFFFFF00000000BFFF000000000000000000000000000000000000000000000000000000000000000000000000000000000000000000000000000000000000000000000000000000FFFFFFFFFFFFFFFFFFFFFFFFFFFFFFFFFFFFFF
310
FFFFFFFFFFFFFFFFFFFFFF000000000000000000000000FFFFFFFFFFFFFFFFFFFFFFFFFFFFFFFFFFFF000000000000FFFFFF000000FFFFFFFFFFFFFFFF00FFFF00FFFF00FFFF00FFFFFF0000000000000000000000000000000000000000000000000000000000000000000000000000000000000000000000000000000000
310
0000000000000000000000000000000000000000000000000000000000000000000000000000000000BFFF000000FFFFFF000000000000000000000000000000000000000000000000000000000000000000000000000000000000000000000000000000000000000000000000000000000000000000000000000000000000
310
000000000000000000000000000000000000000000000000000000000000000000000000000000FFFFFF00000000BFFF000000000000000000000000000000000000000000000000000000000000000000000000000000000000000000000000FFFFFFFFFFFFFFFFFFFFFFFFFFFFFFFFFFFFFFFFFFFFFFFFFFFFFFFFFFFFFF
310
FFFFFFFFFFFFFFFFFFFFFF000000000000000000000000000000FFFFFFFFFFFFFFFFFFFFFFFFFFFFFFFFFFFFFFFFFF000000FFFFFF000000FFFFFFFFFFFFFFFF00FFFF00FFFF00FFFFFFFFFFFF0000000000000000000000000000000000000000000000000000000000000000000000000000000000000000000000000000
310
0000000000000000000000000000000000000000000000000000000000000000000000000000000000000000BFFF000000FFFFFF000000000000000000000000000000000000000000000000000000000000000000000000000000000000000000000000000000000000000000000000000000000000000000000000000000
310
000000000000000000000000000000000000000000000000000000000000000000000000000000000000FFFFFF00000000BFFF000000000000000000000000000000000000000000000000000000000000000000000000000000000000000000000000FFFFFFFFFFFFFFFFFFFFFFFFFFFFFFFFFFFFFFFFFFFFFFFFFFFFFFFF
310
FFFFFFFFFFFFFFFFFFFFFFFFFFFF000000000000000000000000000000000000FFFFFFFFFFFFFFFFFFFFFFFFFFFFFFFFFFFFFFFFFF000000000000FFFFFFFFFFFFFFFF00FFFF00FFFF00FFFF000000000000000000000000000000000000000000000000000000000000000000000000000000000000000000000000000000
310
0000000000000000000000000000000000000000000000000000000000000000000000000000000000000000000000BFFF000000FFFFFF000000000000000000000000000000000000000000000000000000000000000000000000000000000000000000000000000000000000000000000000000000000000000000000000
310
000000000000000000000000000000000000000000000000000000000000000000000000000000000000000000FFFFFF00000000BFFF00000000000000000000000000000000000000000000000000000000000000000000000000000000000000000000000000000000000000000000000000000000000000000000000000
310
0000000000000000000000000000000000000000000000000000000000000000000000000000000000000000000000000000000000000000000000000000FFFFFFFFFFFFFFFF00FFFF00FFFF00FFFFFF0000000000000000000000000000000000000000000000000000000000000000000000000000000000000000000000
310
0000000000000000000000000000000000000000000000000000000000000000000000000000000000000000000000000000BFFF000000FFFFFF000000000000000000000000000000000000000000000000000000000000000000000000000000000000000000000000000000000000000000000000000000000000000000
310
000000000000000000000000000000000000000000000000000000000000000000000000000000000000000000000000FFFFFF00000000BFFF00000000000000000000000000000000000000000000000000000000000000000000000000000000000000000000000000000000000000000000000000000000000000000000
310
0000000000000000000000000000000000000000000000000000000000000000000000000000000000000000000000000000000000000000000000000000000000FFFFFFFFFFFFFFFF00FFFF00FFFF00FFFF00FFFFFF0000000000000000000000000000000000000000000000000000000000000000000000000000000000
310
0000000000000000000000000000000000000000000000000000000000000000000000000000000000000000000000000000000000BFFF000000FFFFFF000000000000000000000000000000000000000000000000000000000000000000000000000000000000000000000000000000000000000000000000000000000000
310
000000000000000000000000000000000000000000000000000000000000000000000000000000000000000000000000000000FFFFFF00000000BFFF00000000000000000000000000000000000000000000000000000000000000000000000000000000000000000000000000000000000000000000000000000000000000
310
0000000000000000000000000000000000000000000000000000000000000000000000000000000000000000000000000000000000000000000000000000000000000000FFFFFFFFFFFFFFFF00FFFF00FFFF00FFFF00000000FFFFFF0000000000000000000000000000000000000000000000000000000000000000000000
310
0000000000000000000000000000000000000000000000000000000000000000000000000000000000000000000000000000000000000000BFFF000000FFFFFF000000000000000000000000000000000000000000000000000000000000000000000000000000000000000000000000000000000000000000000000000000
310
000000000000000000000000000000000000000000000000000000000000000000000000000000000000000000000000000000000000FFFFFF00000000BFFF00000000000000000000000000000000000000000000000000000000000000000000000000000000000000000000000000000000000000000000000000000000
310
0000000000000000000000000000000000000000000000000000000000000000000000000000000000000000000000000000000000000000000000000000000000000000000000FFFFFFFFFFFFFFFF00FFFF00FFFF00FFFF00000000000000FFFFFF0000000000000000000000000000000000000000000000000000000000
310
0000000000000000000000000000000000000000000000000000000000000000000000000000000000000000000000000000000000000000000000BFFF000000FFFFFF000000000000000000000000000000000000000000000000000000000000000000000000000000000000000000000000000000000000000000000000
310
000000000000000000000000000000000000000000000000000000000000000000000000000000000000000000000000000000000000000000FFFFFF00000000BFFF00000000000000000000000000000000000000000000000000000000000000000000000000000000000000000000000000000000000000000000000000
310
0000000000000000000000000000000000000000000000000000000000000000000000000000000000000000000000000000000000000000000000000000000000000000000000000000FFFFFFFFFFFFFFFF00FFFF00FFFF00FFFF000000000000000000000000000000000000000000000000000000000000000000000000
310
0000000000000000000000000000000000000000000000000000000000000000000000000000000000000000000000000000000000000000000000000000BFFF000000FFFFFF000000000000000000000000000000000000000000000000000000000000000000000000000000000000000000000000000000000000000000
310
000000000000000000000000000000000000000000000000000000000000000000000000000000000000000000000000000000000000000000000000FFFFFF00000000BFFF00000000000000000000000000000000000000000000000000000000000000000000000000000000000000000000000000000000000000000000
310
0000000000000000000000000000000000000000000000000000000000000000000000000000000000000000000000000000000000000000000000000000000000000000000000000000000000FFFFFFFFFFFFFFFF00FFFF00FFFF00FFFF000000000000000000000000000000000000000000000000000000000000000000
310
0000000000000000000000000000000000000000000000000000000000000000000000000000000000000000000000000000000000000000000000000000000000BFFF000000FFFFFF000000000000000000000000000000000000000000000000000000000000000000000000000000000000000000000000000000000000
310
000000000000000000000000000000000000000000000000000000000000000000000000000000000000000000000000000000000000000000000000000000FFFFFF00000000BFFF00000000000000000000000000000000000000000000000000000000000000000000000000000000000000000000000000000000000000
310
0000000000000000000000000000000000000000000000000000000000000000000000000000000000000000000000000000000000000000000000000000000000000000000000000000000000000000FFFFFFFFFFFFFFFF00FFFF00FFFF00FFFF000000000000000000000000000000000000000000000000000000000000
310
0000000000000000000000000000000000000000000000000000000000000000000000000000000000000000000000000000000000000000000000000000000000000000BFFF000000FFFFFF000000000000000000000000000000000000000000000000000000000000000000000000000000000000000000000000000000
310
000000000000000000000000000000000000000000000000000000000000000000000000000000000000000000000000000000000000000000000000000000000000FFFFFF00000000BFFF00000000000000000000000000000000000000000000000000000000000000000000000000000000000000000000000000000000
310
0000000000000000000000000000000000000000000000000000000000000000000000000000000000000000000000000000000000000000000000000000000000000000000000000000000000000000000000FFFFFFFFFFFFFFFF00FFFF00FFFF00FFFF000000000000000000000000000000000000000000000000000000
310
0000000000000000000000000000000000000000000000000000000000000000000000000000000000000000000000000000000000000000000000000000000000000000000000BFFF000000FFFFFF000000000000000000000000000000000000000000000000000000000000000000000000000000000000000000000000
310
000000000000000000000000000000000000000000000000000000000000000000000000000000000000000000000000000000000000000000000000000000000000000000FFFFFF00000000BFFF00000000000000000000000000000000000000000000000000000000000000000000000000000000000000000000000000
310
0000000000000000000000000000000000000000000000000000000000000000000000000000000000000000000000000000000000000000000000000000000000000000000000000000000000000000000000000000FFFFFFFFFFFFFFFF00FFFF00FFFF00FFFF000000000000000000000000000000000000000000000000
310
0000000000000000000000000000000000000000000000000000000000000000000000000000000000000000000000000000000000000000000000000000000000000000000000000000BFFF000000FFFFFF000000000000000000000000000000000000000000000000000000000000000000000000000000000000000000
310
000000000000000000000000000000000000000000000000000000000000000000000000000000000000000000000000000000000000000000000000000000000000000000000000FFFFFF00000000BFFF00000000000000000000000000000000000000000000000000000000000000000000000000000000000000000000
310
0000000000000000000000000000000000000000000000000000000000000000000000000000000000000000000000000000000000000000000000000000000000000000000000000000000000000000000000000000000000FFFFFFFFFFFFFFFF00FFFFFFFFFF00FFFFFF0000000000000000000000000000000000000000
310
0000000000000000000000000000000000000000000000000000000000000000000000000000000000000000000000000000000000000000000000000000000000000000000000000000000000BFFF000000FFFFFF000000000000000000000000000000000000000000000000000000000000000000000000000000000000
310
000000000000000000000000000000000000000000000000000000000000000000000000000000000000000000000000000000000000000000000000000000000000000000000000000000FFFFFF00000000BFFF00000000000000000000000000000000000000000000000000000000000000000000000000000000000000
310
0000000000000000000000000000000000000000000000000000000000000000000000000000000000000000000000000000000000000000000000000000000000000000000000000000000000000000000000000000000000000000FFFFFFFFFFFFFFFF00FFFFFFFFFF00FFFFFF0000000000000000000000000000000000
310
0000000000000000000000000000000000000000000000000000000000000000000000000000000000000000000000000000000000000000000000000000000000000000000000000000000000000000BFFF000000FFFFFF000000000000000000000000000000000000000000000000000000000000000000000000000000
310
000000000000000000000000000000000000000000000000000000000000000000000000000000000000000000000000000000000000000000000000000000000000000000000000000000000000FFFFFF00000000BFFF00000000000000000000000000000000000000000000000000000000000000000000000000000000
310
0000000000000000000000000000000000000000000000000000000000000000000000000000000000000000000000000000000000000000000000000000000000000000000000000000000000000000000000000000000000000000000000FFFFFFFFFFFFFFFF00FFFFFFFFFF00FFFFFFFFFFFF0000000000000000000000
310
0000000000000000000000000000000000000000000000000000000000000000000000000000000000000000000000000000000000000000000000000000000000000000000000000000000000000000000000BFFF000000FFFFFF000000000000000000000000000000000000000000000000000000000000000000000000
310
000000000000000000000000000000000000000000000000000000000000000000000000000000000000000000000000000000000000000000000000000000000000000000000000000000000000000000FFFFFF00000000BFFF00000000000000000000000000000000000000000000000000000000000000000000000000
310
0000000000000000000000000000000000000000000000000000000000000000000000000000000000000000000000000000000000000000000000000000000000000000000000000000000000000000000000000000000000000000000000000000FFFFFFFFFFFFFFFFFFFFFFFFFFFFFFFFFFFFFFFFFFFFFFFF0000000000
310
0000000000000000000000000000000000000000000000000000000000000000000000000000000000000000000000000000000000000000000000000000000000000000000000000000000000000000000000000000BFFF000000FFFFFF000000000000000000000000000000000000000000000000000000000000000000
310
000000000000000000000000000000000000000000000000000000000000000000000000000000000000000000000000000000000000000000000000000000000000000000000000000000000000000000000000FFFFFF00000000BFFF00000000000000000000000000000000000000000000000000000000000000000000
310
0000000000000000000000000000000000000000000000000000000000000000000000000000000000000000000000000000000000000000000000000000000000000000000000000000000000000000000000000000000000000000000000000000FFFFFFFFFFFFFFFFFF000000FFFFFFFFFFFF000000000000000000FFFF
310
FF00000000000000000000000000000000000000000000000000000000000000000000000000000000000000000000000000000000000000000000000000000000000000000000000000000000000000000000000000000000BFFF000000FFFFFF000000000000000000000000000000000000000000000000000000000000
310
000000000000000000000000000000000000000000000000000000000000000000000000000000000000000000000000000000000000000000000000000000000000000000000000000000000000000000000000000000FFFFFF00000000BFFF00000000000000000000000000000000000000000000000000000000000000
310
0000000000000000000000000000000000000000000000000000000000000000000000000000000000000000000000000000000000000000000000000000000000000000000000000000000000000000000000000000000000000000000000000000000000FFFFFFFFFFFFFFFFFF0000000000000000000000000000000000
310
0000000000000000000000000000000000000000000000000000000000000000000000000000000000000000000000000000000000000000000000000000000000000000000000000000000000000000000000000000000000000000BFFF000000FFFFFF000000000000000000000000000000000000000000000000000000
310
000000000000000000000000000000000000000000000000000000000000000000000000000000000000000000000000000000000000000000000000000000000000000000000000000000000000000000000000000000000000FFFFFF00000000BFFF00000000000000000000000000000000000000000000000000000000
310
0000000000000000000000000000000000000000000000000000000000000000000000000000000000000000000000000000000000000000000000000000000000000000000000000000000000000000000000000000000000000000000000000000000000FFFFFF000000FFFFFFFFFFFF0000000000000000000000000000
310
0000000000000000000000000000000000000000000000000000000000000000000000000000000000000000000000000000000000000000000000000000000000000000000000000000000000000000000000000000000000000000000000BFFF000000FFFFFF000000000000000000000000000000000000000000000000
310
000000000000000000000000000000000000000000000000000000000000000000000000000000000000000000000000000000000000000000000000000000000000000000000000000000000000000000000000000000000000000000FFFFFF00000000BFFF00000000000000000000000000000000000000000000000000
310
0000000000000000000000000000000000000000000000000000000000000000000000000000000000000000000000000000000000000000000000000000000000000000000000000000000000FFFFFFFFFFFFFFFFFFFFFFFFFFFFFFFFFFFFFFFFFFFFFFFFFFFFFFFFFFFF000000FFFFFFFFFFFF0000000000000000000000
310
0000000000000000000000000000000000000000000000000000000000000000000000000000000000000000000000000000000000000000000000000000000000000000000000000000000000000000000000000000000000000000000000000000BFFF000000FFFFFF000000000000000000000000000000000000000000
310
000000000000000000000000000000000000000000000000000000000000000000000000000000000000000000000000000000000000000000000000000000000000000000000000000000000000000000000000000000000000000000000000FFFFFF00000000BFFF00000000000000000000000000000000000000000000
310
0000000000000000000000000000000000000000000000000000000000000000000000000000000000000000000000000000000000000000000000000000000000000000000000000000000000000000FFFFFFFFFFFFFFFFFFFFFFFFFFFFFFFFFFFFFFFFFFFFFFFFFFFFFF000000000000FFFFFFFFFFFF0000000000000000
310
0000000000000000000000000000000000000000000000000000000000000000000000000000000000000000000000000000000000000000000000000000000000000000000000000000000000000000000000000000000000000000000000000000000000BFFF000000FFFFFF000000000000000000000000000000000000
310
000000000000000000000000000000000000000000000000000000000000000000000000000000000000000000000000000000000000000000000000000000000000000000000000000000000000000000000000000000000000000000000000000000FFFFFF00000000BFFF00000000000000000000000000000000000000
310
0000000000000000000000000000000000000000000000000000000000000000000000000000000000000000000000000000000000000000000000000000000000000000FFFFFFFFFFFFFFFFFFFFFFFFFFFFFFFFFFFFFFFFFFFFFFFFFFFFFFFFFFFFFFFFFFFFFFFFFFFFFFFFFFFF000000000000FFFFFFFFFFFF0000000000
310
0000000000000000000000000000000000000000000000000000000000000000000000000000000000000000000000000000000000000000000000000000000000000000000000000000000000000000000000000000000000000000000000000000000000000000BFFF000000FFFFFF000000000000000000000000000000
310
000000000000000000000000000000000000000000000000000000000000000000000000000000000000000000000000000000000000000000000000000000000000000000000000000000000000000000000000000000000000000000000000000000000000FFFFFF00000000BFFF00000000000000000000000000000000
310
0000000000000000000000000000000000000000000000000000000000000000000000000000000000000000000000000000000000000000000000000000000000000000000000000000000000000000000000000000000000000000000000000000000000000000000000000000000000000000000000FFFFFFFFFFFF0000
310
0000000000000000000000000000000000000000729900000000000000000000000000000000000000000000000000000000000000000000000000000000000000000000000000000000000000000000000000000000000000000000000000000000000000000000000000BFFF000000FFFFFF000000000000000000000000
310
000000000000000000000000000000000000000000000000000000000000000000000000000000000000000000000000000000000000000000000000000000000000000000000000000000000000000000000000000000000000000000000000000000000000000000FFFFFF00000000BFFF00000000000000000000000000
310
0000000000000000000000000000000000000000000000000000000000000000000000000000000000000000000000000000000000000000000000000000000000000000000000000000000000000000000000000000000000000000000000000000000000000000000000000000000000000000000000000000FFFFFFFFFF
310
FF000000000000000000000000000000000000FFFFFF00729900000000000000000000000000000000000000000000000000000000000000000000000000000000000000000000000000000000000000000000000000000000000000000000000000000000000000000000000000BFFF000000FFFFFF000000000000000000
310
000000000000000000000000000000000000000000000000000000000000000000000000000000000000000000000000000000000000000000000000000000000000000000000000000000000000000000000000000000000000000000000000000000000000000000000000FFFFFF00000000BFFF00000000000000000000
310
0000000000000000000000000000000000000000000000000000000000000000000000000000000000000000000000000000000000000000000000000000000000000000000000000000000000000000000000000000000000000000000000000000000000000000000000000000000000000000000000000000000000FFFF
310
FFFFFFFFFFFFFFFFFFFFFFFFFFFFFFFFFFFFFFFFFFFFFFFFFF007299FFFFFFFFFFFF00000000000000000000000000000000000000000000000000000000000000000000000000000000000000000000000000000000000000000000000000000000000000000000000000000000000000BFFF000000FFFFFF000000000000
310
000000000000000000000000000000000000000000000000000000000000000000000000000000000000000000000000000000000000000000000000000000000000000000000000000000000000000000000000000000000000000000000000000000000000000000000000000000FFFFFF00000000BFFF00000000000000
310
00000000000000000000000000000000000000000000000000000000000000000000000000000000000000000000000000000000000000000000000000000000000000000000000000000000000000000000000000000000000000000000000000000000000000000000000000000000000000000000000000000000000000
310
00000000000000000000000000FFFFFFFFFFFFFFFFFFFFFFFFFFFFFFFFFFFFFFFFFFFFFFFF00000000000000000000000000000000000000000000000000000000000000000000000000000000000000000000000000000000000000000000000000000000000000000000000000000000000000BFFF000000FFFFFF000000
310
000000000000000000000000000000000000000000000000000000000000000000000000000000000000000000000000000000000000000000000000000000000000000000000000000000000000000000000000000000000000000000000000000000000000000000000000000000000000FFFFFF00000000BFFF00000000
310
00000000000000000000000000000000000000000000000000000000000000000000000000000000000000000000000000000000000000000000000000000000000000000000000000000000000000000000000000000000000000000000000000000000000000000000000000000000000000000000000000000000000000
310
00000000000000000000000000000000000000000000000000FFFFFFFFFFFFFFFFFFFFFFFF000000FFFFFF00000000000000000000000000000000000000000000000000000000000000000000000000000000000000000000000000000000000000000000000000000000000000000000000000000000BFFF000000FFFFFF
310
000000000000000000000000000000000000000000000000000000000000000000000000000000000000000000000000000000000000000000000000000000000000000000000000000000000000000000000000000000000000000000000000000000000000000000000000000000000000000000FFFFFF00000000BFFF00
310
00000000000000000000000000000000000000000000000000000000000000000000000000000000000000000000000000000000000000000000000000000000000000000000000000000000000000000000000000000000000000000000000000000000000000000000000000000000000000000000000000000000000000
310
00000000000000000000000000000000000000000000000000000000FFFFFFFFFFFF000000FFFFFF000000FFFFFF00000000000000000000000000000000000000000000000000000000000000000000000000000000000000000000000000000000000000000000000000000000000000000000000000000000BFFF000000
310
FFFFFF000000000000000000000000000000000000000000000000000000000000000000000000000000000000000000000000000000000000000000000000000000000000000000000000000000000000000000000000000000000000000000000000000000000000000000000000000000000000000000FFFFFF00000000
310
BFFF0000000000000000000000000000000000000000000000000000000000000000000000000000000000000000000000000000000000000000000000000000000000000000000000000000000000000000000000000000000000000000000000000000000000000000000000000000000000000000000000000000000000
310
00000000000000000000000000000000000000000000000000000000FFFFFFFFFFFF000000000000FFFFFF000000000000FFFFFF00000000000000000000000000000000000000000000000000000000000000000000000000000000000000000000000000000000000000000000000000000000000000000000000000BFFF
310
000000FFFFFF000000000000000000000000000000000000000000000000000000000000000000000000000000000000000000000000000000000000000000000000000000000000000000000000000000000000000000000000000000000000000000000000000000000000000000000000000000000000000000FFFFFF00
310
000000BFFF0000000000000000000000000000000000000000000000000000000000000000000000000000000000000000000000000000000000000000000000000000000000000000000000000000000000000000000000000000000000000000000000000000000000000000000000000000000000000000000000000000
310
00000000000000000000FFFFFFFFFFFFFFFFFFFFFFFFFFFFFFFFFFFFFFFFFFFFFFFFFFFFFF000000000000FFFFFFFFFFFF000000FFFFFFFFFFFFFFFFFFFFFFFFFFFFFFFFFFFFFFFFFF000000000000000000000000000000000000000000000000000000000000000000000000000000000000000000000000000000000000
310
00BFFF000000FFFFFF000000000000000000000000000000000000000000000000000000000000000000000000000000000000000000000000000000000000000000000000000000000000000000000000000000000000000000000000000000000000000000000000000000000000000000000000000000000000000000FF
310
FFFF00000000BFFF0000000000000000000000000000000000000000000000000000000000000000000000000000000000000000000000000000000000000000000000000000000000000000000000000000000000000000000000000000000000000000000000000000000000000000000000000000000000000000000000
310
00000000000000000000000000FFFFFFFFFFFFFFFFFFFFFFFFFFFFFFFFFFFFFFFFFFFFFFFF000000000000000000FFFFFF000000FFFFFF000000FFFFFFFFFFFFFFFFFFFFFFFFFFFFFFFFFFFF000000000000000000000000000000000000000000000000000000000000000000000000000000000000000000000000000000
310
00000000BFFF000000FFFFFF00000000000000000000000000000000000000000000000000000000000000000000000000000000000000000000000000000000000000000000000000000000000000000000000000000000000000000000000000000000000000000000000000000000000000000000000000000000000000
310
0000FFFFFF00000000BFFF0000000000000000000000000000000000000000000000000000000000000000000000000000000000000000000000000000000000000000000000000000000000000000000000000000000000000000000000000000000000000000000000000000000000000000000000000000000000000000
310
00000000000000000000000000FFFFFFFFFFFFFFFFFFFFFFFFFFFFFFFFFFFFFFFFFFFFFFFFFFFFFF000000000000000000FFFFFF000000000000000000000000000000000000000000000000000000000000000000000000000000000000000000000000000000000000000000000000000000000000000000000000000000
310
00000000000000BFFF000000FFFFFF00000000000000000000000000000000000000000000000000000000000000000000000000000000000000000000000000000000000000000000000000000000000000000000000000000000000000000000000000000000000000000000000000000000000000000000000000000000
310
0000000000FFFFFF00000000BFFF0000000000000000000000000000000000000000000000000000000000000000000000000000000000000000000000000000000000000000000000000000000000000000000000000000000000000000000000000000000000000000000000000000000000000000000000000000000000
310
00000000000000000000000000000000FFFFFFFFFFFFFFFFFFFFFFFFFFFFFFFFFFFFFFFFFFFFFFFF000000000000000000000000FFFFFF000000000000000000000000000000000000000000000000000000000000000000000000000000000000000000000000000000000000000000000000000000000000000000000000
310
00000000000000000000BFFF000000FFFFFF00000000000000000000000000000000000000000000000000000000000000000000000000000000000000000000000000000000000000000000000000000000000000000000000000000000000000000000000000000000000000000000000000000000000000000000000000
310
0000000000000000FFFFFF00000000BFFF0000000000000000000000000000000000000000000000000000000000000000000000000000000000000000000000000000000000000000000000000000000000000000000000000000000000000000000000000000000000000000000000000000000000000000000000000000
310
00000000000000000000000000000000000000000000000000000000000000000000000000000000000000000000000000000000000000FFFFFF000000000000000000000000000000000000000000000000000000000000000000000000000000000000000000000000000000000000000000000000000000000000000000
310
00000000000000000000000000BFFF000000FFFFFF00000000000000000000000000000000000000000000000000000000000000000000000000000000000000000000000000000000000000000000000000000000000000000000000000000000000000000000000000000000000000000000000000000000000000000000
310
0000000000000000000000FFFFFF00000000BFFF0000000000000000000000000000000000000000000000000000000000000000000000000000000000000000000000000000000000000000000000000000000000000000000000000000000000000000000000000000000000000000000000000000000000000000000000
310
00000000000000000000000000000000000000000000000000000000000000000000000000000000000000000000000000000000000000000000000000000000000000000000000000000000000000000000000000000000000000000000000000000000000000000000000000000000000000000000000000000000000000
310
00000000000000000000000000000000BFFF000000FFFFFF00000000000000000000000000000000000000000000000000000000000000000000000000000000000000000000000000000000000000000000000000000000000000000000000000000000000000000000000000000000000000000000000000000000000000
310
0000000000000000000000000000FFFFFF00000000BFFF0000000000000000000000000000000000000000000000000000000000000000000000000000000000000000000000000000000000000000000000000000000000000000000000000000000000000000000000000000000000000000000000000000000000000000
310
00000000000000000000000000000000000000000000000000000000000000000000000000000000000000000000000000000000000000000000000000000000000000000000000000000000000000000000000000000000000000000000000000000000000000000000000000000000000000000000000000000000000000
310
00000000000000000000000000000000000000BFFF000000FFFFFF00000000000000000000000000000000000000000000000000000000000000000000000000000000000000000000000000000000000000000000000000000000000000000000000000000000000000000000000000000000000000000000000000000000
310
0000000000000000000000000000000000FFFFFF00000000BFFF0000000000000000000000000000000000000000000000000000000000000000000000000000000000000000000000000000000000000000000000000000000000000000000000000000000000000000000000000000000000000000000000000000000000
310
00000000000000000000000000000000000000000000000000000000000000000000000000000000000000000000000000000000000000000000000000000000000000000000000000000000000000000000000000000000000000000000000000000000000000000000000000000000000000000000000000000000000000
310
00000000000000000000000000000000000000000000BFFF000000FFFFFF00000000000000000000000000000000000000000000000000000000000000000000000000000000000000000000000000000000000000000000000000000000000000000000000000000000000000000000000000000000000000000000000000
310
0000000000000000000000000000000000000000FFFFFF00000000BFFF0000000000000000000000000000000000000000000000000000000000000000000000000000000000000000000000000000000000000000000000000000000000000000000000000000000000000000000000000000000000000000000000000000
310
00000000000000000000000000000000000000000000000000000000000000000000000000000000000000000000000000000000000000000000000000000000000000000000000000000000000000000000000000000000000000000000000000000000000000000000000000000000000000000000000000000000000000
310
00000000000000000000000000000000000000000000000000BFFF000000FFFFFF00000000000000000000000000000000000000000000000000000000000000000000000000000000000000000000000000000000000000000000000000000000000000000000000000000000000000000000000000000000000000000000
310
0000000000000000000000000000000000000000000000FFFFFF00000000BFFF0000000000000000000000000000000000000000000000000000000000000000000000000000000000000000000000000000000000000000000000000000000000000000000000000000000000000000000000000000000000000000000000
310
00000000000000000000000000000000000000000000000000000000000000000000000000000000000000000000000000000000000000000000000000000000000000000000000000000000000000000000000000000000000000000000000000000000000000000000000000000000000000000000000000000000000000
310
00000000000000000000000000000000000000000000000000000000BFFF000000FFFFFF00000000000000000000000000000000000000000000000000000000000000000000000000000000000000000000000000000000000000000000000000000000000000000000000000000000000000000000000000000000000000
310
0000000000000000000000000000000000000000000000000000FFFFFF00000000BFFF00BFFF00BFFF00BFFF00BFFF00BFFF00BFFF00BFFF00BFFF00BFFF00BFFF00BFFF00BFFF00BFFF00BFFF00BFFF00BFFF00BFFF00BFFF00BFFF00BFFF00BFFF00BFFF00BFFF00BFFF00BFFF00BFFF00BFFF00BFFF00BFFF00BFFF00BF
310
FF00BFFF00BFFF00BFFF00BFFF00BFFF00BFFF00BFFF00BFFF00BFFF00BFFF00BFFF00BFFF00BFFF00BFFF00BFFF00BFFF00BFFF00BFFF00BFFF00BFFF00BFFF00BFFF00BFFF00BFFF00BFFF00BFFF00BFFF00BFFF00BFFF00BFFF00BFFF00BFFF00BFFF00BFFF00BFFF00BFFF00BFFF00BFFF00BFFF00BFFF00BFFF00BFFF
310
00BFFF00BFFF00BFFF00BFFF00BFFF00BFFF00BFFF00BFFF00BFFF00BFFF00BFFF000000FFFFFF00000000000000000000000000000000000000000000000000000000000000000000000000000000000000000000000000000000000000000000000000000000000000000000000000000000000000000000000000000000
310
0000000000000000000000000000000000000000000000000000000000FFFFFF0000000000000000000000000000000000000000000000000000000000000000000000000000000000000000000000000000000000000000000000000000000000000000000000000000000000000000000000000000000000000000000000
310
00000000000000000000000000000000000000000000000000000000000000000000000000000000000000000000000000000000000000000000000000000000000000000000000000000000000000000000000000000000000000000000000000000000000000000000000000000000000000000000000000000000000000
310
000000000000000000000000000000000000000000000000000000000000000000000000000000FFFFFF00000000000000000000000000000000000000000000000000000000000000000000000000000000000000000000000000000000000000000000000000000000000000000000000000000000000000000000000000
310
0000000000000000000000000000000000000000000000000000000000000000FFFFFFFFFFFFFFFFFFFFFFFFFFFFFFFFFFFFFFFFFFFFFFFFFFFFFFFFFFFFFFFFFFFFFFFFFFFFFFFFFFFFFFFFFFFFFFFFFFFFFFFFFFFFFFFFFFFFFFFFFFFFFFFFFFFFFFFFFFFFFFFFFFFFFFFFFFFFFFFFFFFFFFFFFFFFFFFFFFFFFFFFFFFFFF
310
FFFFFFFFFFFFFFFFFFFFFFFFFFFFFFFFFFFFFFFFFFFFFFFFFFFFFFFFFFFFFFFFFFFFFFFFFFFFFFFFFFFFFFFFFFFFFFFFFFFFFFFFFFFFFFFFFFFFFFFFFFFFFFFFFFFFFFFFFFFFFFFFFFFFFFFFFFFFFFFFFFFFFFFFFFFFFFFFFFFFFFFFFFFFFFFFFFFFFFFFFFFFFFFFFFFFFFFFFFFFFFFFFFFFFFFFFFFFFFFFFFFFFFFFFFFFFF
310
FFFFFFFFFFFFFFFFFFFFFFFFFFFFFFFFFFFFFFFFFFFFFFFFFFFFFFFFFFFFFFFFFFFFFFFFFFFFFFFFFFFFFFFFFF00000000000000000000000000000000000000000000000000000000000000000000000000000000000000000000000000000000000000000000000000000000000000000000000000000000000000000000
310
00000000000000000000000000000000000000000000000000000000000000000000000000000000000000000000000000000000000000000000000000000000000000000000000000000000000000000000000000000000000000000000000000000000000000000000000000000000000000000000000000000000000000
310
00000000000000000000000000000000000000000000000000000000000000000000000000000000000000000000000000000000000000000000000000000000000000000000000000000000000000000000000000000000000000000000000000000000000000000000000000000000000000000000000000000000000000
310
000000000000000000000000000000000000000000000000000000000000000000000000000000000000000000000000000000000000000000000000000000000000000000000000000000000000000000000000000000000000000000000000000000000000000000
  0
ENDSEC
  0
EOF
